  0
SECTION
  2
HEADER
  9
$ACADVER
  1
AC1009
  9
$DWGCODEPAGE
  3
ansi_1252
  9
$INSBASE
 10
0.0
 20
0.0
 30
0.0
  9
$EXTMIN
 10
0.6459005165936347
 20
-46.84806962273012
 30
0.0
  9
$EXTMAX
 10
149.9582273811522
 20
46.09616468378209
 30
0.0
  9
$LIMMIN
 10
0.0
 20
0.0
  9
$LIMMAX
 10
12.0
 20
9.0
  9
$ORTHOMODE
 70
     0
  9
$REGENMODE
 70
     1
  9
$FILLMODE
 70
     1
  9
$QTEXTMODE
 70
     0
  9
$MIRRTEXT
 70
     1
  9
$DRAGMODE
 70
     2
  9
$LTSCALE
 40
1.0
  9
$OSMODE
 70
    37
  9
$ATTMODE
 70
     1
  9
$TEXTSIZE
 40
0.2
  9
$TRACEWID
 40
0.05
  9
$TEXTSTYLE
  7
STANDARD
  9
$CLAYER
  8
0
  9
$CELTYPE
  6
BYLAYER
  9
$CECOLOR
 62
   256
  9
$DIMSCALE
 40
1.0
  9
$DIMASZ
 40
0.18
  9
$DIMEXO
 40
0.0625
  9
$DIMDLI
 40
0.38
  9
$DIMRND
 40
0.0
  9
$DIMDLE
 40
0.0
  9
$DIMEXE
 40
0.18
  9
$DIMTP
 40
0.0
  9
$DIMTM
 40
0.0
  9
$DIMTXT
 40
0.18
  9
$DIMCEN
 40
0.09
  9
$DIMTSZ
 40
0.0
  9
$DIMTOL
 70
     0
  9
$DIMLIM
 70
     0
  9
$DIMTIH
 70
     1
  9
$DIMTOH
 70
     1
  9
$DIMSE1
 70
     0
  9
$DIMSE2
 70
     0
  9
$DIMTAD
 70
     0
  9
$DIMZIN
 70
     0
  9
$DIMBLK
  1

  9
$DIMASO
 70
     1
  9
$DIMSHO
 70
     1
  9
$DIMPOST
  1

  9
$DIMAPOST
  1

  9
$DIMALT
 70
     0
  9
$DIMALTD
 70
     2
  9
$DIMALTF
 40
25.4
  9
$DIMLFAC
 40
1.0
  9
$DIMTOFL
 70
     0
  9
$DIMTVP
 40
0.0
  9
$DIMTIX
 70
     0
  9
$DIMSOXD
 70
     0
  9
$DIMSAH
 70
     0
  9
$DIMBLK1
  1

  9
$DIMBLK2
  1

  9
$DIMSTYLE
  2
STANDARD
  9
$DIMCLRD
 70
     0
  9
$DIMCLRE
 70
     0
  9
$DIMCLRT
 70
     0
  9
$DIMTFAC
 40
1.0
  9
$DIMGAP
 40
0.09
  9
$LUNITS
 70
     2
  9
$LUPREC
 70
     4
  9
$SKETCHINC
 40
0.1
  9
$FILLETRAD
 40
0.5
  9
$AUNITS
 70
     0
  9
$AUPREC
 70
     0
  9
$MENU
  1
.
  9
$ELEVATION
 40
0.0
  9
$PELEVATION
 40
0.0
  9
$THICKNESS
 40
0.0
  9
$LIMCHECK
 70
     0
  9
$CHAMFERA
 40
0.0
  9
$CHAMFERB
 40
0.0
  9
$SKPOLY
 70
     0
  9
$TDCREATE
 40
2454910.5
  9
$TDUPDATE
 40
2457528.840931991
  9
$TDINDWG
 40
0.0000000116
  9
$TDUSRTIMER
 40
0.0000000116
  9
$USRTIMER
 70
     1
  9
$ANGBASE
 50
0.0
  9
$ANGDIR
 70
     0
  9
$PDMODE
 70
     0
  9
$PDSIZE
 40
0.0
  9
$PLINEWID
 40
0.0
  9
$COORDS
 70
     1
  9
$SPLFRAME
 70
     0
  9
$SPLINETYPE
 70
     6
  9
$SPLINESEGS
 70
     8
  9
$ATTDIA
 70
     0
  9
$ATTREQ
 70
     1
  9
$HANDLING
 70
     1
  9
$HANDSEED
  5
F79
  9
$SURFTAB1
 70
     6
  9
$SURFTAB2
 70
     6
  9
$SURFTYPE
 70
     6
  9
$SURFU
 70
     6
  9
$SURFV
 70
     6
  9
$UCSNAME
  2

  9
$UCSORG
 10
0.0
 20
0.0
 30
0.0
  9
$UCSXDIR
 10
1.0
 20
0.0
 30
0.0
  9
$UCSYDIR
 10
0.0
 20
1.0
 30
0.0
  9
$PUCSNAME
  2

  9
$PUCSORG
 10
0.0
 20
0.0
 30
0.0
  9
$PUCSXDIR
 10
1.0
 20
0.0
 30
0.0
  9
$PUCSYDIR
 10
0.0
 20
1.0
 30
0.0
  9
$USERI1
 70
     0
  9
$USERI2
 70
     0
  9
$USERI3
 70
     0
  9
$USERI4
 70
     0
  9
$USERI5
 70
     0
  9
$USERR1
 40
0.0
  9
$USERR2
 40
0.0
  9
$USERR3
 40
0.0
  9
$USERR4
 40
0.0
  9
$USERR5
 40
0.0
  9
$WORLDVIEW
 70
     1
  9
$SHADEDGE
 70
     3
  9
$SHADEDIF
 70
    70
  9
$TILEMODE
 70
     1
  9
$MAXACTVP
 70
    64
  9
$PLIMCHECK
 70
     0
  9
$PEXTMIN
 10
1.000000000000000E+20
 20
1.000000000000000E+20
 30
1.000000000000000E+20
  9
$PEXTMAX
 10
-1.000000000000000E+20
 20
-1.000000000000000E+20
 30
-1.000000000000000E+20
  9
$PLIMMIN
 10
0.0
 20
0.0
  9
$PLIMMAX
 10
12.0
 20
9.0
  9
$UNITMODE
 70
     0
  9
$VISRETAIN
 70
     1
  9
$PLINEGEN
 70
     0
  9
$PSLTSCALE
 70
     1
  0
ENDSEC
  0
SECTION
  2
TABLES
  0
TABLE
  2
VPORT
 70
     1
  0
VPORT
  2
*ACTIVE
 70
     0
 10
0.0
 20
0.0
 11
1.0
 21
1.0
 12
10.42990654205607
 22
4.5
 13
0.0
 23
0.0
 14
0.5
 24
0.5
 15
0.5
 25
0.5
 16
0.0
 26
0.0
 36
1.0
 17
0.0
 27
0.0
 37
0.0
 40
9.0
 41
1.972972972850329
 42
50.0
 43
0.0
 44
0.0
 50
0.0
 51
0.0
 71
     0
 72
   100
 73
     1
 74
     3
 75
     0
 76
     0
 77
     0
 78
     0
  0
ENDTAB
  0
TABLE
  2
LTYPE
 70
     2
  0
LTYPE
  2
CONTINUOUS
 70
     0
  3
Solid line
 72
    65
 73
     0
 40
0.0
  0
LTYPE
  2
CONTINUOUS2
 70
     0
  3
Solid Line
 72
    65
 73
     0
 40
0.0
  0
ENDTAB
  0
TABLE
  2
LAYER
 70
     2
  0
LAYER
  2
0
 70
     0
 62
     7
  6
CONTINUOUS
  0
LAYER
  2
LAYER_1
 70
     0
 62
    18
  6
CONTINUOUS
  0
ENDTAB
  0
TABLE
  2
STYLE
 70
     1
  0
STYLE
  2
STANDARD
 70
     0
 40
0.0
 41
1.0
 50
0.0
 71
     0
 42
0.2
  3
txt
  4

  0
ENDTAB
  0
TABLE
  2
VIEW
 70
     0
  0
ENDTAB
  0
TABLE
  2
UCS
 70
     0
  0
ENDTAB
  0
TABLE
  2
APPID
 70
     1
  0
APPID
  2
ACAD
 70
     0
  0
ENDTAB
  0
TABLE
  2
DIMSTYLE
 70
     1
  0
DIMSTYLE
  2
STANDARD
 70
     0
  3

  4

  5

  6

  7

 40
1.0
 41
0.18
 42
0.0625
 43
0.38
 44
0.18
 45
0.0
 46
0.0
 47
0.0
 48
0.0
140
0.18
141
0.09
142
0.0
143
25.4
144
1.0
145
0.0
146
1.0
147
0.09
 71
     0
 72
     0
 73
     1
 74
     1
 75
     0
 76
     0
 77
     0
 78
     0
170
     0
171
     2
172
     0
173
     0
174
     0
175
     0
176
     0
177
     0
178
     0
  0
ENDTAB
  0
ENDSEC
  0
SECTION
  2
BLOCKS
  0
BLOCK
  8
0
  2
$MODEL_SPACE
 70
     0
 10
0.0
 20
0.0
 30
0.0
  3
$MODEL_SPACE
  1

  0
ENDBLK
  5
21
  8
0
  0
BLOCK
 67
     1
  8
0
  2
$PAPER_SPACE
 70
     0
 10
0.0
 20
0.0
 30
0.0
  3
$PAPER_SPACE
  1

  0
ENDBLK
  5
1D
 67
     1
  8
0
  0
ENDSEC
  0
SECTION
  2
ENTITIES
  0
POLYLINE
  5
6C
  8
LAYER_1
 66
     1
 10
0.0
 20
0.0
 30
0.0
 70
     1
  0
VERTEX
  5
FF
  8
LAYER_1
 10
60.12090051622783
 20
-27.53556962284948
 30
0.0
  0
VERTEX
  5
100
  8
LAYER_1
 10
62.90210051644956
 20
-21.56686962278846
 30
0.0
  0
VERTEX
  5
101
  8
LAYER_1
 10
62.90740706653961
 20
-21.55637992579469
 30
0.0
  0
VERTEX
  5
102
  8
LAYER_1
 10
62.91333996793573
 20
-21.54630060195559
 30
0.0
  0
VERTEX
  5
103
  8
LAYER_1
 10
62.91987166421646
 20
-21.53662677732338
 30
0.0
  0
VERTEX
  5
104
  8
LAYER_1
 10
62.92697459896033
 20
-21.52735357795027
 30
0.0
  0
VERTEX
  5
105
  8
LAYER_1
 10
62.93462121574588
 20
-21.51847612988847
 30
0.0
  0
VERTEX
  5
106
  8
LAYER_1
 10
62.94278395815167
 20
-21.50998955919021
 30
0.0
  0
VERTEX
  5
107
  8
LAYER_1
 10
62.9514352697562
 20
-21.5018889919077
 30
0.0
  0
VERTEX
  5
108
  8
LAYER_1
 10
62.96054759413804
 20
-21.49416955409315
 30
0.0
  0
VERTEX
  5
109
  8
LAYER_1
 10
62.97009337487572
 20
-21.48682637179878
 30
0.0
  0
VERTEX
  5
10A
  8
LAYER_1
 10
62.98004505554776
 20
-21.4798545710768
 30
0.0
  0
VERTEX
  5
10B
  8
LAYER_1
 10
62.99037507973271
 20
-21.47324927797943
 30
0.0
  0
VERTEX
  5
10C
  8
LAYER_1
 10
63.00105589100911
 20
-21.46700561855887
 30
0.0
  0
VERTEX
  5
10D
  8
LAYER_1
 10
63.01205993295549
 20
-21.46111871886735
 30
0.0
  0
VERTEX
  5
10E
  8
LAYER_1
 10
63.02335964915039
 20
-21.45558370495709
 30
0.0
  0
VERTEX
  5
10F
  8
LAYER_1
 10
63.03492748317235
 20
-21.45039570288029
 30
0.0
  0
VERTEX
  5
110
  8
LAYER_1
 10
63.0467358785999
 20
-21.44554983868916
 30
0.0
  0
VERTEX
  5
111
  8
LAYER_1
 10
63.05875727901159
 20
-21.44104123843593
 30
0.0
  0
VERTEX
  5
112
  8
LAYER_1
 10
63.07096412798595
 20
-21.43686502817281
 30
0.0
  0
VERTEX
  5
113
  8
LAYER_1
 10
63.08332886910151
 20
-21.43301633395202
 30
0.0
  0
VERTEX
  5
114
  8
LAYER_1
 10
63.09582394593681
 20
-21.42949028182576
 30
0.0
  0
VERTEX
  5
115
  8
LAYER_1
 10
63.1084218020704
 20
-21.42628199784626
 30
0.0
  0
VERTEX
  5
116
  8
LAYER_1
 10
63.12109488108081
 20
-21.42338660806573
 30
0.0
  0
VERTEX
  5
117
  8
LAYER_1
 10
63.14655648204623
 20
-21.41851501531043
 30
0.0
  0
VERTEX
  5
118
  8
LAYER_1
 10
63.17198829746137
 20
-21.41483651197758
 30
0.0
  0
VERTEX
  5
119
  8
LAYER_1
 10
63.19716987595453
 20
-21.41231210648489
 30
0.0
  0
VERTEX
  5
11A
  8
LAYER_1
 10
63.221880766154
 20
-21.4109028072501
 30
0.0
  0
VERTEX
  5
11B
  8
LAYER_1
 10
63.2459005166881
 20
-21.4105696226909
 30
0.0
  0
VERTEX
  5
11C
  8
LAYER_1
 10
70.93340051680724
 20
-21.47306962265099
 30
0.0
  0
VERTEX
  5
11D
  8
LAYER_1
 10
66.05840051649238
 20
-40.34806962274048
 30
0.0
  0
VERTEX
  5
11E
  8
LAYER_1
 10
66.05332555452041
 20
-40.36869552807906
 30
0.0
  0
VERTEX
  5
11F
  8
LAYER_1
 10
66.04852867373283
 20
-40.3897590765672
 30
0.0
  0
VERTEX
  5
120
  8
LAYER_1
 10
66.03921793892115
 20
-40.4326988768253
 30
0.0
  0
VERTEX
  5
121
  8
LAYER_1
 10
66.0344284765022
 20
-40.45432501551178
 30
0.0
  0
VERTEX
  5
122
  8
LAYER_1
 10
66.0293658784779
 20
-40.47588857118094
 30
0.0
  0
VERTEX
  5
123
  8
LAYER_1
 10
66.02389234065087
 20
-40.49726448729102
 30
0.0
  0
VERTEX
  5
124
  8
LAYER_1
 10
66.01787005882366
 20
-40.51832770730031
 30
0.0
  0
VERTEX
  5
125
  8
LAYER_1
 10
66.01116122879884
 20
-40.53895317466707
 30
0.0
  0
VERTEX
  5
126
  8
LAYER_1
 10
66.00362804637899
 20
-40.55901583284958
 30
0.0
  0
VERTEX
  5
127
  8
LAYER_1
 10
65.99950925920923
 20
-40.56879702832745
 30
0.0
  0
VERTEX
  5
128
  8
LAYER_1
 10
65.99513270736668
 20
-40.57839062530611
 30
0.0
  0
VERTEX
  5
129
  8
LAYER_1
 10
65.99048116532666
 20
-40.58778099171784
 30
0.0
  0
VERTEX
  5
12A
  8
LAYER_1
 10
65.98553740756446
 20
-40.59695249549493
 30
0.0
  0
VERTEX
  5
12B
  8
LAYER_1
 10
65.98028420855545
 20
-40.60588950456966
 30
0.0
  0
VERTEX
  5
12C
  8
LAYER_1
 10
65.97470434277491
 20
-40.61457638687432
 30
0.0
  0
VERTEX
  5
12D
  8
LAYER_1
 10
65.96878058469821
 20
-40.62299751034118
 30
0.0
  0
VERTEX
  5
12E
  8
LAYER_1
 10
65.96249570880062
 20
-40.63113724290254
 30
0.0
  0
VERTEX
  5
12F
  8
LAYER_1
 10
65.95583248955751
 20
-40.63897995249067
 30
0.0
  0
VERTEX
  5
130
  8
LAYER_1
 10
65.94877370144415
 20
-40.64651000703788
 30
0.0
  0
VERTEX
  5
131
  8
LAYER_1
 10
65.94130211893591
 20
-40.65371177447642
 30
0.0
  0
VERTEX
  5
132
  8
LAYER_1
 10
65.93340051650807
 20
-40.6605696227386
 30
0.0
  0
VERTEX
  5
133
  8
LAYER_1
 10
58.71460051659886
 20
-46.59806962273009
 30
0.0
  0
VERTEX
  5
134
  8
LAYER_1
 10
58.66246367810618
 20
-46.64110273597512
 30
0.0
  0
VERTEX
  5
135
  8
LAYER_1
 10
58.63574193355883
 20
-46.66290494075365
 30
0.0
  0
VERTEX
  5
136
  8
LAYER_1
 10
58.60857688147678
 20
-46.68458001362076
 30
0.0
  0
VERTEX
  5
137
  8
LAYER_1
 10
58.58096270385951
 20
-46.70588978156491
 30
0.0
  0
VERTEX
  5
138
  8
LAYER_1
 10
58.5528935827065
 20
-46.72659607157453
 30
0.0
  0
VERTEX
  5
139
  8
LAYER_1
 10
58.52436370001723
 20
-46.7464607106381
 30
0.0
  0
VERTEX
  5
13A
  8
LAYER_1
 10
58.50992415497133
 20
-46.75600298199899
 30
0.0
  0
VERTEX
  5
13B
  8
LAYER_1
 10
58.49536723779116
 20
-46.76524552574402
 30
0.0
  0
VERTEX
  5
13C
  8
LAYER_1
 10
58.48069222122668
 20
-46.77415857024677
 30
0.0
  0
VERTEX
  5
13D
  8
LAYER_1
 10
58.4658983780278
 20
-46.78271234388077
 30
0.0
  0
VERTEX
  5
13E
  8
LAYER_1
 10
58.45098498094448
 20
-46.79087707501958
 30
0.0
  0
VERTEX
  5
13F
  8
LAYER_1
 10
58.43595130272663
 20
-46.79862299203677
 30
0.0
  0
VERTEX
  5
140
  8
LAYER_1
 10
58.4207966161242
 20
-46.80592032330588
 30
0.0
  0
VERTEX
  5
141
  8
LAYER_1
 10
58.40552019388711
 20
-46.81273929720048
 30
0.0
  0
VERTEX
  5
142
  8
LAYER_1
 10
58.39012130876531
 20
-46.8190501420941
 30
0.0
  0
VERTEX
  5
143
  8
LAYER_1
 10
58.37459923350873
 20
-46.82482308636033
 30
0.0
  0
VERTEX
  5
144
  8
LAYER_1
 10
58.35895324086731
 20
-46.8300283583727
 30
0.0
  0
VERTEX
  5
145
  8
LAYER_1
 10
58.34318260359096
 20
-46.83463618650477
 30
0.0
  0
VERTEX
  5
146
  8
LAYER_1
 10
58.32728659442965
 20
-46.83861679913011
 30
0.0
  0
VERTEX
  5
147
  8
LAYER_1
 10
58.3112644861333
 20
-46.84194042462225
 30
0.0
  0
VERTEX
  5
148
  8
LAYER_1
 10
58.29511555145183
 20
-46.84457729135477
 30
0.0
  0
VERTEX
  5
149
  8
LAYER_1
 10
58.27883906313521
 20
-46.84649762770123
 30
0.0
  0
VERTEX
  5
14A
  8
LAYER_1
 10
58.26243429393334
 20
-46.84767166203515
 30
0.0
  0
VERTEX
  5
14B
  8
LAYER_1
 10
58.24590051659618
 20
-46.84806962273012
 30
0.0
  0
VERTEX
  5
14C
  8
LAYER_1
 10
0.9334005165936272
 20
-46.84806962273011
 30
0.0
  0
VERTEX
  5
14D
  8
LAYER_1
 10
0.9334005165936283
 20
-20.66056962272964
 30
0.0
  0
VERTEX
  5
14E
  8
LAYER_1
 10
21.93340051662688
 20
-20.6605696226896
 30
0.0
  0
VERTEX
  5
14F
  8
LAYER_1
 10
21.94440002789704
 20
-20.66017581265643
 30
0.0
  0
VERTEX
  5
150
  8
LAYER_1
 10
21.95529682457859
 20
-20.65901369473868
 30
0.0
  0
VERTEX
  5
151
  8
LAYER_1
 10
21.96608061676735
 20
-20.65711223720891
 30
0.0
  0
VERTEX
  5
152
  8
LAYER_1
 10
21.97674111455912
 20
-20.6545004083397
 30
0.0
  0
VERTEX
  5
153
  8
LAYER_1
 10
21.98726802804971
 20
-20.65120717640361
 30
0.0
  0
VERTEX
  5
154
  8
LAYER_1
 10
21.99765106733491
 20
-20.64726150967322
 30
0.0
  0
VERTEX
  5
155
  8
LAYER_1
 10
22.00787994251053
 20
-20.64269237642111
 30
0.0
  0
VERTEX
  5
156
  8
LAYER_1
 10
22.01794436367239
 20
-20.63752874491982
 30
0.0
  0
VERTEX
  5
157
  8
LAYER_1
 10
22.02783404091628
 20
-20.63179958344194
 30
0.0
  0
VERTEX
  5
158
  8
LAYER_1
 10
22.03753868433802
 20
-20.62553386026004
 30
0.0
  0
VERTEX
  5
159
  8
LAYER_1
 10
22.0470480040334
 20
-20.61876054364669
 30
0.0
  0
VERTEX
  5
15A
  8
LAYER_1
 10
22.05635171009823
 20
-20.61150860187445
 30
0.0
  0
VERTEX
  5
15B
  8
LAYER_1
 10
22.06543951262831
 20
-20.60380700321591
 30
0.0
  0
VERTEX
  5
15C
  8
LAYER_1
 10
22.07430112171946
 20
-20.59568471594361
 30
0.0
  0
VERTEX
  5
15D
  8
LAYER_1
 10
22.08292624746747
 20
-20.58717070833014
 30
0.0
  0
VERTEX
  5
15E
  8
LAYER_1
 10
22.09130459996816
 20
-20.57829394864807
 30
0.0
  0
VERTEX
  5
15F
  8
LAYER_1
 10
22.09942588931732
 20
-20.56908340516997
 30
0.0
  0
VERTEX
  5
160
  8
LAYER_1
 10
22.10727982561076
 20
-20.55956804616841
 30
0.0
  0
VERTEX
  5
161
  8
LAYER_1
 10
22.11485611894429
 20
-20.54977683991595
 30
0.0
  0
VERTEX
  5
162
  8
LAYER_1
 10
22.12214447941371
 20
-20.53973875468517
 30
0.0
  0
VERTEX
  5
163
  8
LAYER_1
 10
22.12913461711483
 20
-20.52948275874864
 30
0.0
  0
VERTEX
  5
164
  8
LAYER_1
 10
22.13581624214345
 20
-20.51903782037893
 30
0.0
  0
VERTEX
  5
165
  8
LAYER_1
 10
22.14217906459537
 20
-20.5084329078486
 30
0.0
  0
VERTEX
  5
166
  8
LAYER_1
 10
22.14821279456642
 20
-20.49769698943023
 30
0.0
  0
VERTEX
  5
167
  8
LAYER_1
 10
22.15390714215238
 20
-20.48685903339639
 30
0.0
  0
VERTEX
  5
168
  8
LAYER_1
 10
22.15925181744906
 20
-20.47594800801965
 30
0.0
  0
VERTEX
  5
169
  8
LAYER_1
 10
22.16423653055227
 20
-20.46499288157257
 30
0.0
  0
VERTEX
  5
16A
  8
LAYER_1
 10
22.16885099155781
 20
-20.45402262232773
 30
0.0
  0
VERTEX
  5
16B
  8
LAYER_1
 10
22.17308491056149
 20
-20.44306619855771
 30
0.0
  0
VERTEX
  5
16C
  8
LAYER_1
 10
22.17692799765911
 20
-20.43215257853506
 30
0.0
  0
VERTEX
  5
16D
  8
LAYER_1
 10
22.18036996294648
 20
-20.42131073053235
 30
0.0
  0
VERTEX
  5
16E
  8
LAYER_1
 10
22.18340051651941
 20
-20.41056962282217
 30
0.0
  0
VERTEX
  5
16F
  8
LAYER_1
 10
23.05840051653315
 20
-17.0980696228102
 30
0.0
  0
VERTEX
  5
170
  8
LAYER_1
 10
23.06191555062333
 20
-17.0860061555106
 30
0.0
  0
VERTEX
  5
171
  8
LAYER_1
 10
23.06605842504449
 20
-17.07400988423091
 30
0.0
  0
VERTEX
  5
172
  8
LAYER_1
 10
23.07080668215652
 20
-17.0621015149646
 30
0.0
  0
VERTEX
  5
173
  8
LAYER_1
 10
23.07613786431927
 20
-17.05030175370515
 30
0.0
  0
VERTEX
  5
174
  8
LAYER_1
 10
23.08202951389264
 20
-17.03863130644604
 30
0.0
  0
VERTEX
  5
175
  8
LAYER_1
 10
23.08845917323651
 20
-17.02711087918075
 30
0.0
  0
VERTEX
  5
176
  8
LAYER_1
 10
23.09540438471074
 20
-17.01576117790276
 30
0.0
  0
VERTEX
  5
177
  8
LAYER_1
 10
23.10284269067522
 20
-17.00460290860555
 30
0.0
  0
VERTEX
  5
178
  8
LAYER_1
 10
23.11075163348983
 20
-16.9936567772826
 30
0.0
  0
VERTEX
  5
179
  8
LAYER_1
 10
23.11910875551443
 20
-16.98294348992739
 30
0.0
  0
VERTEX
  5
17A
  8
LAYER_1
 10
23.12789159910891
 20
-16.9724837525334
 30
0.0
  0
VERTEX
  5
17B
  8
LAYER_1
 10
23.13707770663315
 20
-16.9622982710941
 30
0.0
  0
VERTEX
  5
17C
  8
LAYER_1
 10
23.14664462044701
 20
-16.95240775160298
 30
0.0
  0
VERTEX
  5
17D
  8
LAYER_1
 10
23.15656988291039
 20
-16.94283290005352
 30
0.0
  0
VERTEX
  5
17E
  8
LAYER_1
 10
23.16683103638315
 20
-16.9335944224392
 30
0.0
  0
VERTEX
  5
17F
  8
LAYER_1
 10
23.17740562322518
 20
-16.92471302475349
 30
0.0
  0
VERTEX
  5
180
  8
LAYER_1
 10
23.18827118579634
 20
-16.91620941298988
 30
0.0
  0
VERTEX
  5
181
  8
LAYER_1
 10
23.19940526645652
 20
-16.90810429314184
 30
0.0
  0
VERTEX
  5
182
  8
LAYER_1
 10
23.2107854075656
 20
-16.90041837120285
 30
0.0
  0
VERTEX
  5
183
  8
LAYER_1
 10
23.22238915148344
 20
-16.8931723531664
 30
0.0
  0
VERTEX
  5
184
  8
LAYER_1
 10
23.23419404056994
 20
-16.88638694502597
 30
0.0
  0
VERTEX
  5
185
  8
LAYER_1
 10
23.24617761718496
 20
-16.88008285277502
 30
0.0
  0
VERTEX
  5
186
  8
LAYER_1
 10
23.25831742368838
 20
-16.87428078240705
 30
0.0
  0
VERTEX
  5
187
  8
LAYER_1
 10
23.27059100244008
 20
-16.86900143991553
 30
0.0
  0
VERTEX
  5
188
  8
LAYER_1
 10
23.28297589579994
 20
-16.86426553129393
 30
0.0
  0
VERTEX
  5
189
  8
LAYER_1
 10
23.29544964612783
 20
-16.86009376253575
 30
0.0
  0
VERTEX
  5
18A
  8
LAYER_1
 10
23.30798979578363
 20
-16.85650683963446
 30
0.0
  0
VERTEX
  5
18B
  8
LAYER_1
 10
23.32057388712722
 20
-16.85352546858354
 30
0.0
  0
VERTEX
  5
18C
  8
LAYER_1
 10
23.33317946251848
 20
-16.85117035537647
 30
0.0
  0
VERTEX
  5
18D
  8
LAYER_1
 10
23.34578406431728
 20
-16.84946220600673
 30
0.0
  0
VERTEX
  5
18E
  8
LAYER_1
 10
23.35836523488349
 20
-16.84842172646779
 30
0.0
  0
VERTEX
  5
18F
  8
LAYER_1
 10
23.37090051657701
 20
-16.84806962275314
 30
0.0
  0
VERTEX
  5
190
  8
LAYER_1
 10
41.70518638997049
 20
-16.84658320886231
 30
0.0
  0
VERTEX
  5
191
  8
LAYER_1
 10
41.71300210046885
 20
-16.8465962359267
 30
0.0
 42
-0.3535584977823277
  0
VERTEX
  5
192
  8
LAYER_1
 10
41.83521856371063
 20
-16.94536388733438
 30
0.0
  0
VERTEX
  5
193
  8
LAYER_1
 10
41.84107834010465
 20
-16.97760114934939
 30
0.0
  0
VERTEX
  5
194
  8
LAYER_1
 10
42.93340051662689
 20
-23.03556962271281
 30
0.0
  0
VERTEX
  5
195
  8
LAYER_1
 10
42.93641036473968
 20
-23.04918058973659
 30
0.0
  0
VERTEX
  5
196
  8
LAYER_1
 10
42.94041318954838
 20
-23.06230258921866
 30
0.0
  0
VERTEX
  5
197
  8
LAYER_1
 10
42.94536587984718
 20
-23.07494710844852
 30
0.0
  0
VERTEX
  5
198
  8
LAYER_1
 10
42.95122532443028
 20
-23.08712563471567
 30
0.0
  0
VERTEX
  5
199
  8
LAYER_1
 10
42.95794841209187
 20
-23.09884965530962
 30
0.0
  0
VERTEX
  5
19A
  8
LAYER_1
 10
42.96549203162613
 20
-23.11013065751987
 30
0.0
  0
VERTEX
  5
19B
  8
LAYER_1
 10
42.97381307182729
 20
-23.12098012863593
 30
0.0
  0
VERTEX
  5
19C
  8
LAYER_1
 10
42.98286842148951
 20
-23.13140955594729
 30
0.0
  0
VERTEX
  5
19D
  8
LAYER_1
 10
42.992614969407
 20
-23.14143042674347
 30
0.0
  0
VERTEX
  5
19E
  8
LAYER_1
 10
43.00300960437396
 20
-23.15105422831395
 30
0.0
  0
VERTEX
  5
19F
  8
LAYER_1
 10
43.01400921518458
 20
-23.16029244794826
 30
0.0
  0
VERTEX
  5
1A0
  8
LAYER_1
 10
43.02557069063305
 20
-23.16915657293588
 30
0.0
  0
VERTEX
  5
1A1
  8
LAYER_1
 10
43.03765091951357
 20
-23.17765809056633
 30
0.0
  0
VERTEX
  5
1A2
  8
LAYER_1
 10
43.05020679062033
 20
-23.18580848812911
 30
0.0
  0
VERTEX
  5
1A3
  8
LAYER_1
 10
43.06319519274753
 20
-23.19361925291372
 30
0.0
  0
VERTEX
  5
1A4
  8
LAYER_1
 10
43.07657301468934
 20
-23.20110187220966
 30
0.0
  0
VERTEX
  5
1A5
  8
LAYER_1
 10
43.09029714523999
 20
-23.20826783330644
 30
0.0
  0
VERTEX
  5
1A6
  8
LAYER_1
 10
43.10432447319365
 20
-23.21512862349357
 30
0.0
  0
VERTEX
  5
1A7
  8
LAYER_1
 10
43.11861188734453
 20
-23.22169573006054
 30
0.0
  0
VERTEX
  5
1A8
  8
LAYER_1
 10
43.13311627648682
 20
-23.22798064029685
 30
0.0
  0
VERTEX
  5
1A9
  8
LAYER_1
 10
43.16260353492239
 20
-23.23974982093554
 30
0.0
  0
VERTEX
  5
1AA
  8
LAYER_1
 10
43.19244135885393
 20
-23.25052806372565
 30
0.0
  0
VERTEX
  5
1AB
  8
LAYER_1
 10
43.22228485863498
 20
-23.26040726698323
 30
0.0
  0
VERTEX
  5
1AC
  8
LAYER_1
 10
43.25178914461911
 20
-23.2694793290243
 30
0.0
  0
VERTEX
  5
1AD
  8
LAYER_1
 10
43.30840051661082
 20
-23.285569622721
 30
0.0
  0
VERTEX
  5
1AE
  8
LAYER_1
 10
59.74590051672883
 20
-27.79556962268551
 30
0.0
  0
VERTEX
  5
1AF
  8
LAYER_1
 10
59.75958160589887
 20
-27.79907998088941
 30
0.0
  0
VERTEX
  5
1B0
  8
LAYER_1
 10
59.77378833721685
 20
-27.80222045873609
 30
0.0
  0
VERTEX
  5
1B1
  8
LAYER_1
 10
59.78843678478066
 20
-27.80492695037184
 30
0.0
  0
VERTEX
  5
1B2
  8
LAYER_1
 10
59.80344302268817
 20
-27.807135349943
 30
0.0
  0
VERTEX
  5
1B3
  8
LAYER_1
 10
59.81872312503726
 20
-27.80878155159586
 30
0.0
  0
VERTEX
  5
1B4
  8
LAYER_1
 10
59.8341931659258
 20
-27.80980144947677
 30
0.0
  0
VERTEX
  5
1B5
  8
LAYER_1
 10
59.84976921945167
 20
-27.81013093773202
 30
0.0
  0
VERTEX
  5
1B6
  8
LAYER_1
 10
59.86536735971274
 20
-27.80970591050794
 30
0.0
  0
VERTEX
  5
1B7
  8
LAYER_1
 10
59.88090366080689
 20
-27.80846226195085
 30
0.0
  0
VERTEX
  5
1B8
  8
LAYER_1
 10
59.896294196832
 20
-27.80633588620706
 30
0.0
  0
VERTEX
  5
1B9
  8
LAYER_1
 10
59.91145504188594
 20
-27.80326267742288
 30
0.0
  0
VERTEX
  5
1BA
  8
LAYER_1
 10
59.92630227006659
 20
-27.79917852974465
 30
0.0
  0
VERTEX
  5
1BB
  8
LAYER_1
 10
59.93358205098501
 20
-27.79673732074098
 30
0.0
  0
VERTEX
  5
1BC
  8
LAYER_1
 10
59.94075195547182
 20
-27.79401933731867
 30
0.0
  0
VERTEX
  5
1BD
  8
LAYER_1
 10
59.94780149278924
 20
-27.79101656624599
 30
0.0
  0
VERTEX
  5
1BE
  8
LAYER_1
 10
59.95472017219951
 20
-27.78772099429125
 30
0.0
  0
VERTEX
  5
1BF
  8
LAYER_1
 10
59.96149750296486
 20
-27.78412460822273
 30
0.0
  0
VERTEX
  5
1C0
  8
LAYER_1
 10
59.96812299434753
 20
-27.78021939480873
 30
0.0
  0
VERTEX
  5
1C1
  8
LAYER_1
 10
59.97458615560976
 20
-27.77599734081752
 30
0.0
  0
VERTEX
  5
1C2
  8
LAYER_1
 10
59.98087649601376
 20
-27.77145043301741
 30
0.0
  0
VERTEX
  5
1C3
  8
LAYER_1
 10
59.9873164871924
 20
-27.76631463618143
 30
0.0
  0
VERTEX
  5
1C4
  8
LAYER_1
 10
59.99357219046687
 20
-27.76085028771712
 30
0.0
  0
VERTEX
  5
1C5
  8
LAYER_1
 10
59.99964871694662
 20
-27.75507582034549
 30
0.0
  0
VERTEX
  5
1C6
  8
LAYER_1
 10
60.00555117774115
 20
-27.74900966678755
 30
0.0
  0
VERTEX
  5
1C7
  8
LAYER_1
 10
60.01685434671235
 20
-27.73607603199681
 30
0.0
  0
VERTEX
  5
1C8
  8
LAYER_1
 10
60.02752258625625
 20
-27.72219684511304
 30
0.0
  0
VERTEX
  5
1C9
  8
LAYER_1
 10
60.03759678524858
 20
-27.70751956790436
 30
0.0
  0
VERTEX
  5
1CA
  8
LAYER_1
 10
60.04711783256511
 20
-27.69219166213891
 30
0.0
  0
VERTEX
  5
1CB
  8
LAYER_1
 10
60.0561266170816
 20
-27.6763605895848
 30
0.0
  0
VERTEX
  5
1CC
  8
LAYER_1
 10
60.06466402767381
 20
-27.66017381201016
 30
0.0
  0
VERTEX
  5
1CD
  8
LAYER_1
 10
60.07277095321749
 20
-27.64377879118313
 30
0.0
  0
VERTEX
  5
1CE
  8
LAYER_1
 10
60.08048828258838
 20
-27.62732298887183
 30
0.0
  0
VERTEX
  5
1CF
  8
LAYER_1
 10
60.09491770831486
 20
-27.59481888686893
 30
0.0
  0
VERTEX
  5
1D0
  8
LAYER_1
 10
60.10827941585933
 20
-27.56384120014647
 30
0.0
  0
SEQEND
  5
EED
  8
LAYER_1
  0
POLYLINE
  5
6D
  8
LAYER_1
 66
     1
 10
0.0
 20
0.0
 30
0.0
 70
     1
  0
VERTEX
  5
1D1
  8
LAYER_1
 10
0.8610648639324849
 20
-46.47306962273012
 30
0.0
  0
VERTEX
  5
1D2
  8
LAYER_1
 10
6.90014328032134
 20
-46.47306962273012
 30
0.0
  0
VERTEX
  5
1D3
  8
LAYER_1
 10
6.933400516593627
 20
-46.47306962273011
 30
0.0
 42
0.4142135623730951
  0
VERTEX
  5
1D4
  8
LAYER_1
 10
7.120900516593627
 20
-46.28556962273011
 30
0.0
 42
0.4142135623730951
  0
VERTEX
  5
1D5
  8
LAYER_1
 10
6.933400516593631
 20
-46.09806962273012
 30
0.0
  0
VERTEX
  5
1D6
  8
LAYER_1
 10
3.183660981528129
 20
-46.0976241110385
 30
0.0
  0
VERTEX
  5
1D7
  8
LAYER_1
 10
3.183400516593627
 20
-44.34806962273012
 30
0.0
  0
VERTEX
  5
1D8
  8
LAYER_1
 10
3.183479700804192
 20
-21.84830701818258
 30
0.0
  0
VERTEX
  5
1D9
  8
LAYER_1
 10
22.71460051662292
 20
-21.8480696226933
 30
0.0
  0
VERTEX
  5
1DA
  8
LAYER_1
 10
23.49588433043309
 20
-21.84806962270598
 30
0.0
  0
VERTEX
  5
1DB
  8
LAYER_1
 10
23.49590051661004
 20
-21.84812947744093
 30
0.0
  0
VERTEX
  5
1DC
  8
LAYER_1
 10
23.49590051658166
 20
-28.77833002711337
 30
0.0
  0
VERTEX
  5
1DD
  8
LAYER_1
 10
23.49590051659363
 20
-28.84806962273011
 30
0.0
 42
0.4142135623730951
  0
VERTEX
  5
1DE
  8
LAYER_1
 10
23.68340051659363
 20
-29.03556962273011
 30
0.0
 42
0.4142135623730951
  0
VERTEX
  5
1DF
  8
LAYER_1
 10
23.87090051659363
 20
-28.84806962273011
 30
0.0
  0
VERTEX
  5
1E0
  8
LAYER_1
 10
23.87090051658158
 20
-28.79784566621811
 30
0.0
  0
VERTEX
  5
1E1
  8
LAYER_1
 10
23.8709005166107
 20
-21.68916960176634
 30
0.0
  0
VERTEX
  5
1E2
  8
LAYER_1
 10
23.87090051661081
 20
-21.66056962270902
 30
0.0
  0
VERTEX
  5
1E3
  8
LAYER_1
 10
23.87090051661081
 20
-19.16057752982304
 30
0.0
  0
VERTEX
  5
1E4
  8
LAYER_1
 10
23.8709901303942
 20
-18.09807938265831
 30
0.0
  0
VERTEX
  5
1E5
  8
LAYER_1
 10
40.63937722440722
 20
-18.09806964825975
 30
0.0
  0
VERTEX
  5
1E6
  8
LAYER_1
 10
40.68340051659363
 20
-18.09806962273011
 30
0.0
 42
0.4142135623730951
  0
VERTEX
  5
1E7
  8
LAYER_1
 10
40.87090051659363
 20
-17.91056962273011
 30
0.0
 42
0.4142135623730951
  0
VERTEX
  5
1E8
  8
LAYER_1
 10
40.68340051659363
 20
-17.72306962273011
 30
0.0
  0
VERTEX
  5
1E9
  8
LAYER_1
 10
40.66919278359892
 20
-17.72306963095113
 30
0.0
  0
VERTEX
  5
1EA
  8
LAYER_1
 10
23.6835058350951
 20
-17.72307949149679
 30
0.0
  0
VERTEX
  5
1EB
  8
LAYER_1
 10
23.53887144250663
 20
-17.72553100803767
 30
0.0
 42
0.4142135623730951
  0
VERTEX
  5
1EC
  8
LAYER_1
 10
23.35137144250663
 20
-17.91303100803767
 30
0.0
 42
0.3451753060489715
  0
VERTEX
  5
1ED
  8
LAYER_1
 10
23.49406264861754
 20
-18.09509808905509
 30
0.0
  0
VERTEX
  5
1EE
  8
LAYER_1
 10
23.49599033550088
 20
-18.09563232406214
 30
0.0
  0
VERTEX
  5
1EF
  8
LAYER_1
 10
23.49590051694427
 20
-19.16056171559672
 30
0.0
  0
VERTEX
  5
1F0
  8
LAYER_1
 10
23.49590051661081
 20
-21.47306962270598
 30
0.0
  0
VERTEX
  5
1F1
  8
LAYER_1
 10
22.71460051662596
 20
-21.4730696226933
 30
0.0
  0
VERTEX
  5
1F2
  8
LAYER_1
 10
0.9221929837153127
 20
-21.4730696226933
 30
0.0
  0
VERTEX
  5
1F3
  8
LAYER_1
 10
0.9021005166244347
 20
-21.4730696226933
 30
0.0
 42
0.4142135623730951
  0
VERTEX
  5
1F4
  8
LAYER_1
 10
0.7146005166244347
 20
-21.6605696226933
 30
0.0
 42
0.4142135623730951
  0
VERTEX
  5
1F5
  8
LAYER_1
 10
0.9021005166244347
 20
-21.8480696226933
 30
0.0
  0
VERTEX
  5
1F6
  8
LAYER_1
 10
0.9254455902327674
 20
-21.8480696226933
 30
0.0
  0
VERTEX
  5
1F7
  8
LAYER_1
 10
2.808283918291613
 20
-21.84834077645653
 30
0.0
  0
VERTEX
  5
1F8
  8
LAYER_1
 10
2.808400516593627
 20
-44.34806962273012
 30
0.0
  0
VERTEX
  5
1F9
  8
LAYER_1
 10
2.808308169126275
 20
-46.09798591730878
 30
0.0
  0
VERTEX
  5
1FA
  8
LAYER_1
 10
0.8454523927784867
 20
-46.09806911191768
 30
0.0
  0
VERTEX
  5
1FB
  8
LAYER_1
 10
0.8334005165936347
 20
-46.09806962273012
 30
0.0
 42
0.4142135623730951
  0
VERTEX
  5
1FC
  8
LAYER_1
 10
0.6459005165936347
 20
-46.28556962273012
 30
0.0
 42
0.4142135623730951
  0
VERTEX
  5
1FD
  8
LAYER_1
 10
0.8334005165936347
 20
-46.47306962273012
 30
0.0
  0
SEQEND
  5
EEE
  8
LAYER_1
  0
POLYLINE
  5
6E
  8
LAYER_1
 66
     1
 10
0.0
 20
0.0
 30
0.0
 70
     1
  0
VERTEX
  5
1FE
  8
LAYER_1
 10
41.73610478066219
 20
-27.56025715425028
 30
0.0
 42
0.2786866093101811
  0
VERTEX
  5
1FF
  8
LAYER_1
 10
41.90210051659363
 20
-27.66056962273011
 30
0.0
 42
0.4142135623730951
  0
VERTEX
  5
200
  8
LAYER_1
 10
42.08960051659363
 20
-27.47306962273011
 30
0.0
  0
VERTEX
  5
201
  8
LAYER_1
 10
42.08940071111098
 20
-27.46443744983488
 30
0.0
  0
VERTEX
  5
202
  8
LAYER_1
 10
42.08880301914275
 20
-27.45581382465571
 30
0.0
  0
VERTEX
  5
203
  8
LAYER_1
 10
42.08781002740844
 20
-27.44722673467478
 30
0.0
  0
VERTEX
  5
204
  8
LAYER_1
 10
42.08642432262757
 20
-27.43870416737429
 30
0.0
  0
VERTEX
  5
205
  8
LAYER_1
 10
41.39892432263327
 20
-23.75120416737081
 30
0.0
  0
VERTEX
  5
206
  8
LAYER_1
 10
41.39672709038086
 20
-23.74101202303554
 30
0.0
  0
VERTEX
  5
207
  8
LAYER_1
 10
41.39396221421042
 20
-23.73094141434184
 30
0.0
  0
VERTEX
  5
208
  8
LAYER_1
 10
41.39064400664481
 20
-23.72103933384098
 30
0.0
  0
VERTEX
  5
209
  8
LAYER_1
 10
41.38678678020683
 20
-23.71135277408425
 30
0.0
 42
0.2994564616780787
  0
VERTEX
  5
20A
  8
LAYER_1
 10
41.21460051659363
 20
-23.59806962273011
 30
0.0
 42
0.4142135623730951
  0
VERTEX
  5
20B
  8
LAYER_1
 10
41.02710051659363
 20
-23.78556962273011
 30
0.0
  0
VERTEX
  5
20C
  8
LAYER_1
 10
41.02730032207138
 20
-23.79420179562897
 30
0.0
  0
VERTEX
  5
20D
  8
LAYER_1
 10
41.0278980140289
 20
-23.80282542081231
 30
0.0
  0
VERTEX
  5
20E
  8
LAYER_1
 10
41.02889100575266
 20
-23.8114125107974
 30
0.0
  0
VERTEX
  5
20F
  8
LAYER_1
 10
41.03027671052906
 20
-23.81993507810147
 30
0.0
  0
VERTEX
  5
210
  8
LAYER_1
 10
41.71777671052336
 20
-27.50743507810495
 30
0.0
  0
VERTEX
  5
211
  8
LAYER_1
 10
41.72086282073494
 20
-27.52109707916083
 30
0.0
  0
VERTEX
  5
212
  8
LAYER_1
 10
41.72497203668287
 20
-27.53452921380599
 30
0.0
  0
VERTEX
  5
213
  8
LAYER_1
 10
41.73006560708576
 20
-27.54761979963696
 30
0.0
  0
SEQEND
  5
EEF
  8
LAYER_1
  0
POLYLINE
  5
6F
  8
LAYER_1
 66
     1
 10
0.0
 20
0.0
 30
0.0
 70
     1
  0
VERTEX
  5
214
  8
LAYER_1
 10
38.90779949235728
 20
-44.31764748296537
 30
0.0
 42
-0.2665815525003791
  0
VERTEX
  5
215
  8
LAYER_1
 10
38.74590051659363
 20
-44.41056962273011
 30
0.0
 42
-0.4142135623730951
  0
VERTEX
  5
216
  8
LAYER_1
 10
38.55840051659363
 20
-44.22306962273011
 30
0.0
  0
VERTEX
  5
217
  8
LAYER_1
 10
38.55881145116984
 20
-44.21072435644396
 30
0.0
  0
VERTEX
  5
218
  8
LAYER_1
 10
38.5600371251452
 20
-44.19840519704389
 30
0.0
  0
VERTEX
  5
219
  8
LAYER_1
 10
38.56206684388975
 20
-44.18619273591455
 30
0.0
  0
VERTEX
  5
21A
  8
LAYER_1
 10
38.56488991277354
 20
-44.17416756444057
 30
0.0
  0
VERTEX
  5
21B
  8
LAYER_1
 10
42.75238991274755
 20
-28.67416756445143
 30
0.0
  0
VERTEX
  5
21C
  8
LAYER_1
 10
42.75535492284348
 20
-28.66428809906841
 30
0.0
  0
VERTEX
  5
21D
  8
LAYER_1
 10
42.75886433160782
 20
-28.65457117368939
 30
0.0
  0
VERTEX
  5
21E
  8
LAYER_1
 10
42.76290075601239
 20
-28.64506108080178
 30
0.0
  0
VERTEX
  5
21F
  8
LAYER_1
 10
42.76744681302898
 20
-28.63580211289297
 30
0.0
 42
-0.2785567897804863
  0
VERTEX
  5
220
  8
LAYER_1
 10
42.93340051659363
 20
-28.53556962273011
 30
0.0
 42
-0.4142135623730951
  0
VERTEX
  5
221
  8
LAYER_1
 10
43.12090051659363
 20
-28.72306962273011
 30
0.0
  0
VERTEX
  5
222
  8
LAYER_1
 10
43.12048958201329
 20
-28.73541488901937
 30
0.0
  0
VERTEX
  5
223
  8
LAYER_1
 10
43.11926390802878
 20
-28.74773404842191
 30
0.0
  0
VERTEX
  5
224
  8
LAYER_1
 10
43.11723418927485
 20
-28.7599465095537
 30
0.0
  0
VERTEX
  5
225
  8
LAYER_1
 10
43.11441112038622
 20
-28.77197168103069
 30
0.0
  0
VERTEX
  5
226
  8
LAYER_1
 10
38.92691112041221
 20
-44.27197168101983
 30
0.0
  0
VERTEX
  5
227
  8
LAYER_1
 10
38.92327973626466
 20
-44.28382580701278
 30
0.0
  0
VERTEX
  5
228
  8
LAYER_1
 10
38.91886285171897
 20
-44.2954403677583
 30
0.0
  0
VERTEX
  5
229
  8
LAYER_1
 10
38.91369219450617
 20
-44.30673953562098
 30
0.0
  0
SEQEND
  5
EF0
  8
LAYER_1
  0
POLYLINE
  5
70
  8
LAYER_1
 66
     1
 10
0.0
 20
0.0
 30
0.0
 70
     1
  0
VERTEX
  5
22A
  8
LAYER_1
 10
70.2711500836626
 20
-22.42623117078487
 30
0.0
  0
VERTEX
  5
22B
  8
LAYER_1
 10
65.8022346776882
 20
-39.73956568999198
 30
0.0
  0
VERTEX
  5
22C
  8
LAYER_1
 10
65.64976467930649
 20
-40.3085914705823
 30
0.0
  0
VERTEX
  5
22D
  8
LAYER_1
 10
65.64597593917878
 20
-40.31854273098156
 30
0.0
 42
-0.127823177649428
  0
VERTEX
  5
22E
  8
LAYER_1
 10
65.59131874753098
 20
-40.39541941924341
 30
0.0
  0
VERTEX
  5
22F
  8
LAYER_1
 10
65.17863436655699
 20
-40.74194549479704
 30
0.0
  0
VERTEX
  5
230
  8
LAYER_1
 10
58.86682116001394
 20
-45.99137430024344
 30
0.0
  0
VERTEX
  5
231
  8
LAYER_1
 10
58.35680525460199
 20
-46.42798133035937
 30
0.0
 42
-0.1249182544257676
  0
VERTEX
  5
232
  8
LAYER_1
 10
58.27412287293767
 20
-46.46889019660368
 30
0.0
  0
VERTEX
  5
233
  8
LAYER_1
 10
58.25460111739405
 20
-46.47306962273012
 30
0.0
  0
VERTEX
  5
234
  8
LAYER_1
 10
57.99590051659278
 20
-46.47306962273012
 30
0.0
  0
VERTEX
  5
235
  8
LAYER_1
 10
54.67883962801871
 20
-46.47306962273008
 30
0.0
  0
VERTEX
  5
236
  8
LAYER_1
 10
54.65210051659363
 20
-46.47306962273011
 30
0.0
 42
-0.4142135623730951
  0
VERTEX
  5
237
  8
LAYER_1
 10
54.46460051659363
 20
-46.28556962273011
 30
0.0
 42
-0.4142135623730951
  0
VERTEX
  5
238
  8
LAYER_1
 10
54.65210051659363
 20
-46.09806962273011
 30
0.0
  0
VERTEX
  5
239
  8
LAYER_1
 10
54.66528710086264
 20
-46.09806962273008
 30
0.0
  0
VERTEX
  5
23A
  8
LAYER_1
 10
57.99590051659278
 20
-46.09806962273012
 30
0.0
  0
VERTEX
  5
23B
  8
LAYER_1
 10
58.16554695668165
 20
-46.09806962273012
 30
0.0
  0
VERTEX
  5
23C
  8
LAYER_1
 10
58.62497987316721
 20
-45.70476494521732
 30
0.0
  0
VERTEX
  5
23D
  8
LAYER_1
 10
64.93816666661161
 20
-40.45419375066527
 30
0.0
  0
VERTEX
  5
23E
  8
LAYER_1
 10
65.30507391418013
 20
-40.14610617949997
 30
0.0
  0
VERTEX
  5
23F
  8
LAYER_1
 10
65.439566355442
 20
-39.64417355547675
 30
0.0
  0
VERTEX
  5
240
  8
LAYER_1
 10
69.90805094945853
 20
-22.33250807469726
 30
0.0
  0
VERTEX
  5
241
  8
LAYER_1
 10
69.91203281580812
 20
-22.31915605069271
 30
0.0
  0
VERTEX
  5
242
  8
LAYER_1
 10
69.9169937623823
 20
-22.30613603480329
 30
0.0
 42
-0.3010108570047031
  0
VERTEX
  5
243
  8
LAYER_1
 10
70.08960051659363
 20
-22.19186962273011
 30
0.0
 42
-0.4142135623730951
  0
VERTEX
  5
244
  8
LAYER_1
 10
70.27710051659363
 20
-22.37936962273011
 30
0.0
  0
VERTEX
  5
245
  8
LAYER_1
 10
70.27672411553685
 20
-22.39119010743189
 30
0.0
  0
VERTEX
  5
246
  8
LAYER_1
 10
70.27560091103129
 20
-22.40298776836661
 30
0.0
  0
VERTEX
  5
247
  8
LAYER_1
 10
70.27373990107414
 20
-22.41469174349678
 30
0.0
  0
SEQEND
  5
EF1
  8
LAYER_1
  0
POLYLINE
  5
71
  8
LAYER_1
 66
     1
 10
0.0
 20
0.0
 30
0.0
 70
     1
  0
VERTEX
  5
248
  8
LAYER_1
 10
91.57386701628053
 20
-46.57324182060113
 30
0.0
  0
VERTEX
  5
249
  8
LAYER_1
 10
91.57386701628056
 20
-21.57324182060112
 30
0.0
  0
VERTEX
  5
24A
  8
LAYER_1
 10
71.94886701628056
 20
-21.57324182060112
 30
0.0
  0
VERTEX
  5
24B
  8
LAYER_1
 10
71.94886701628056
 20
-46.57324182060113
 30
0.0
  0
SEQEND
  5
EF2
  8
LAYER_1
  0
POLYLINE
  5
72
  8
LAYER_1
 66
     1
 10
0.0
 20
0.0
 30
0.0
 70
     1
  0
VERTEX
  5
24C
  8
LAYER_1
 10
91.69886701628053
 20
-46.63574182060113
 30
0.0
  0
VERTEX
  5
24D
  8
LAYER_1
 10
91.69886701628053
 20
-46.32324182060113
 30
0.0
  0
VERTEX
  5
24E
  8
LAYER_1
 10
71.82386701628056
 20
-46.32324182060113
 30
0.0
  0
VERTEX
  5
24F
  8
LAYER_1
 10
71.82386701628056
 20
-46.63574182060113
 30
0.0
  0
SEQEND
  5
EF3
  8
LAYER_1
  0
POLYLINE
  5
73
  8
LAYER_1
 66
     1
 10
0.0
 20
0.0
 30
0.0
 70
     1
  0
VERTEX
  5
250
  8
LAYER_1
 10
91.69886701628056
 20
-21.82324182060112
 30
0.0
  0
VERTEX
  5
251
  8
LAYER_1
 10
91.69886701628056
 20
-21.51074182060112
 30
0.0
  0
VERTEX
  5
252
  8
LAYER_1
 10
71.82386701628056
 20
-21.51074182060112
 30
0.0
  0
VERTEX
  5
253
  8
LAYER_1
 10
71.82386701628056
 20
-21.82324182060112
 30
0.0
  0
SEQEND
  5
EF4
  8
LAYER_1
  0
POLYLINE
  5
74
  8
LAYER_1
 66
     1
 10
0.0
 20
0.0
 30
0.0
 70
     1
  0
VERTEX
  5
254
  8
LAYER_1
 10
69.26136701628056
 20
-19.97563693644332
 30
0.0
  0
VERTEX
  5
255
  8
LAYER_1
 10
94.26136701628056
 20
-19.97563693644332
 30
0.0
  0
VERTEX
  5
256
  8
LAYER_1
 10
94.26136701628056
 20
-2.725636936443323
 30
0.0
  0
VERTEX
  5
257
  8
LAYER_1
 10
69.26136701628056
 20
-2.725636936443323
 30
0.0
  0
SEQEND
  5
EF5
  8
LAYER_1
  0
POLYLINE
  5
75
  8
LAYER_1
 66
     1
 10
0.0
 20
0.0
 30
0.0
 70
     1
  0
VERTEX
  5
258
  8
LAYER_1
 10
69.13636701628056
 20
-19.60063693644332
 30
0.0
  0
VERTEX
  5
259
  8
LAYER_1
 10
94.38636701628056
 20
-19.60063693644332
 30
0.0
  0
VERTEX
  5
25A
  8
LAYER_1
 10
94.38636701628056
 20
-19.22563693644332
 30
0.0
  0
VERTEX
  5
25B
  8
LAYER_1
 10
69.13636701628056
 20
-19.22563693644332
 30
0.0
  0
SEQEND
  5
EF6
  8
LAYER_1
  0
POLYLINE
  5
76
  8
LAYER_1
 66
     1
 10
0.0
 20
0.0
 30
0.0
 70
     1
  0
VERTEX
  5
25C
  8
LAYER_1
 10
75.32386701628056
 20
-13.53763693644332
 30
0.0
 42
0.4142135623730951
  0
VERTEX
  5
25D
  8
LAYER_1
 10
75.19836701628054
 20
-13.66313693644332
 30
0.0
 42
0.4142135623730951
  0
VERTEX
  5
25E
  8
LAYER_1
 10
75.32386701628056
 20
-13.78863693644332
 30
0.0
 42
0.4142135623730951
  0
VERTEX
  5
25F
  8
LAYER_1
 10
75.44936701628055
 20
-13.66313693644332
 30
0.0
 42
0.4142135623730951
  0
SEQEND
  5
EF7
  8
LAYER_1
  0
POLYLINE
  5
77
  8
LAYER_1
 66
     1
 10
0.0
 20
0.0
 30
0.0
 70
     1
  0
VERTEX
  5
260
  8
LAYER_1
 10
75.32386701628056
 20
-9.28763693644332
 30
0.0
 42
0.4142135623730951
  0
VERTEX
  5
261
  8
LAYER_1
 10
75.19836701628054
 20
-9.413136936443323
 30
0.0
 42
0.4142135623730951
  0
VERTEX
  5
262
  8
LAYER_1
 10
75.32386701628056
 20
-9.538636936443325
 30
0.0
 42
0.4142135623730951
  0
VERTEX
  5
263
  8
LAYER_1
 10
75.44936701628055
 20
-9.413136936443323
 30
0.0
 42
0.4142135623730951
  0
SEQEND
  5
EF8
  8
LAYER_1
  0
POLYLINE
  5
78
  8
LAYER_1
 66
     1
 10
0.0
 20
0.0
 30
0.0
 70
     1
  0
VERTEX
  5
264
  8
LAYER_1
 10
75.32386701628056
 20
-4.97513693644332
 30
0.0
 42
0.4142135623730951
  0
VERTEX
  5
265
  8
LAYER_1
 10
75.19836701628054
 20
-5.100636936443323
 30
0.0
 42
0.4142135623730951
  0
VERTEX
  5
266
  8
LAYER_1
 10
75.32386701628056
 20
-5.226136936443325
 30
0.0
 42
0.4142135623730951
  0
VERTEX
  5
267
  8
LAYER_1
 10
75.44936701628055
 20
-5.100636936443323
 30
0.0
 42
0.4142135623730951
  0
SEQEND
  5
EF9
  8
LAYER_1
  0
POLYLINE
  5
79
  8
LAYER_1
 66
     1
 10
0.0
 20
0.0
 30
0.0
 70
     1
  0
VERTEX
  5
268
  8
LAYER_1
 10
75.82386701628056
 20
-14.47513693644332
 30
0.0
 42
0.4142135623730951
  0
VERTEX
  5
269
  8
LAYER_1
 10
75.69836701628054
 20
-14.60063693644332
 30
0.0
 42
0.4142135623730951
  0
VERTEX
  5
26A
  8
LAYER_1
 10
75.82386701628056
 20
-14.72613693644332
 30
0.0
 42
0.4142135623730951
  0
VERTEX
  5
26B
  8
LAYER_1
 10
75.94936701628055
 20
-14.60063693644332
 30
0.0
 42
0.4142135623730951
  0
SEQEND
  5
EFA
  8
LAYER_1
  0
POLYLINE
  5
7A
  8
LAYER_1
 66
     1
 10
0.0
 20
0.0
 30
0.0
 70
     1
  0
VERTEX
  5
26C
  8
LAYER_1
 10
75.82386701628056
 20
-4.03763693644332
 30
0.0
 42
0.4142135623730951
  0
VERTEX
  5
26D
  8
LAYER_1
 10
75.69836701628054
 20
-4.163136936443323
 30
0.0
 42
0.4142135623730951
  0
VERTEX
  5
26E
  8
LAYER_1
 10
75.82386701628056
 20
-4.288636936443325
 30
0.0
 42
0.4142135623730951
  0
VERTEX
  5
26F
  8
LAYER_1
 10
75.94936701628055
 20
-4.163136936443323
 30
0.0
 42
0.4142135623730951
  0
SEQEND
  5
EFB
  8
LAYER_1
  0
POLYLINE
  5
7B
  8
LAYER_1
 66
     1
 10
0.0
 20
0.0
 30
0.0
 70
     1
  0
VERTEX
  5
270
  8
LAYER_1
 10
75.82386701628056
 20
-3.788136936443323
 30
0.0
 42
0.4142135623730951
  0
VERTEX
  5
271
  8
LAYER_1
 10
75.44886701628056
 20
-4.163136936443323
 30
0.0
 42
0.4142135623730951
  0
VERTEX
  5
272
  8
LAYER_1
 10
75.82386701628056
 20
-4.538136936443323
 30
0.0
 42
0.4142135623730951
  0
VERTEX
  5
273
  8
LAYER_1
 10
76.19886701628056
 20
-4.163136936443323
 30
0.0
 42
0.4142135623730951
  0
SEQEND
  5
EFC
  8
LAYER_1
  0
POLYLINE
  5
7C
  8
LAYER_1
 66
     1
 10
0.0
 20
0.0
 30
0.0
 70
     1
  0
VERTEX
  5
274
  8
LAYER_1
 10
87.76136701628056
 20
-3.788136936443323
 30
0.0
 42
0.4142135623730951
  0
VERTEX
  5
275
  8
LAYER_1
 10
87.38636701628056
 20
-4.163136936443323
 30
0.0
 42
0.4142135623730951
  0
VERTEX
  5
276
  8
LAYER_1
 10
87.76136701628056
 20
-4.538136936443323
 30
0.0
 42
0.4142135623730951
  0
VERTEX
  5
277
  8
LAYER_1
 10
88.13636701628056
 20
-4.163136936443323
 30
0.0
 42
0.4142135623730951
  0
SEQEND
  5
EFD
  8
LAYER_1
  0
POLYLINE
  5
7D
  8
LAYER_1
 66
     1
 10
0.0
 20
0.0
 30
0.0
 70
     1
  0
VERTEX
  5
278
  8
LAYER_1
 10
87.76136701628056
 20
-4.03763693644332
 30
0.0
 42
0.4142135623730951
  0
VERTEX
  5
279
  8
LAYER_1
 10
87.63586701628054
 20
-4.163136936443323
 30
0.0
 42
0.4142135623730951
  0
VERTEX
  5
27A
  8
LAYER_1
 10
87.76136701628056
 20
-4.288636936443325
 30
0.0
 42
0.4142135623730951
  0
VERTEX
  5
27B
  8
LAYER_1
 10
87.88686701628055
 20
-4.163136936443323
 30
0.0
 42
0.4142135623730951
  0
SEQEND
  5
EFE
  8
LAYER_1
  0
POLYLINE
  5
7E
  8
LAYER_1
 66
     1
 10
0.0
 20
0.0
 30
0.0
 70
     1
  0
VERTEX
  5
27C
  8
LAYER_1
 10
88.13636701628056
 20
-4.97513693644332
 30
0.0
 42
0.4142135623730951
  0
VERTEX
  5
27D
  8
LAYER_1
 10
88.01086701628054
 20
-5.100636936443323
 30
0.0
 42
0.4142135623730951
  0
VERTEX
  5
27E
  8
LAYER_1
 10
88.13636701628056
 20
-5.226136936443325
 30
0.0
 42
0.4142135623730951
  0
VERTEX
  5
27F
  8
LAYER_1
 10
88.26186701628055
 20
-5.100636936443323
 30
0.0
 42
0.4142135623730951
  0
SEQEND
  5
EFF
  8
LAYER_1
  0
POLYLINE
  5
7F
  8
LAYER_1
 66
     1
 10
0.0
 20
0.0
 30
0.0
 70
     1
  0
VERTEX
  5
280
  8
LAYER_1
 10
88.13636701628056
 20
-9.28763693644332
 30
0.0
 42
0.4142135623730951
  0
VERTEX
  5
281
  8
LAYER_1
 10
88.01086701628054
 20
-9.413136936443323
 30
0.0
 42
0.4142135623730951
  0
VERTEX
  5
282
  8
LAYER_1
 10
88.13636701628056
 20
-9.538636936443325
 30
0.0
 42
0.4142135623730951
  0
VERTEX
  5
283
  8
LAYER_1
 10
88.26186701628055
 20
-9.413136936443323
 30
0.0
 42
0.4142135623730951
  0
SEQEND
  5
F00
  8
LAYER_1
  0
POLYLINE
  5
80
  8
LAYER_1
 66
     1
 10
0.0
 20
0.0
 30
0.0
 70
     1
  0
VERTEX
  5
284
  8
LAYER_1
 10
88.13636701628056
 20
-13.53763693644332
 30
0.0
 42
0.4142135623730951
  0
VERTEX
  5
285
  8
LAYER_1
 10
88.01086701628054
 20
-13.66313693644332
 30
0.0
 42
0.4142135623730951
  0
VERTEX
  5
286
  8
LAYER_1
 10
88.13636701628056
 20
-13.78863693644332
 30
0.0
 42
0.4142135623730951
  0
VERTEX
  5
287
  8
LAYER_1
 10
88.26186701628055
 20
-13.66313693644332
 30
0.0
 42
0.4142135623730951
  0
SEQEND
  5
F01
  8
LAYER_1
  0
POLYLINE
  5
81
  8
LAYER_1
 66
     1
 10
0.0
 20
0.0
 30
0.0
 70
     1
  0
VERTEX
  5
288
  8
LAYER_1
 10
87.76136701628056
 20
-14.47513693644332
 30
0.0
 42
0.4142135623730951
  0
VERTEX
  5
289
  8
LAYER_1
 10
87.63586701628054
 20
-14.60063693644332
 30
0.0
 42
0.4142135623730951
  0
VERTEX
  5
28A
  8
LAYER_1
 10
87.76136701628056
 20
-14.72613693644332
 30
0.0
 42
0.4142135623730951
  0
VERTEX
  5
28B
  8
LAYER_1
 10
87.88686701628055
 20
-14.60063693644332
 30
0.0
 42
0.4142135623730951
  0
SEQEND
  5
F02
  8
LAYER_1
  0
POLYLINE
  5
82
  8
LAYER_1
 66
     1
 10
0.0
 20
0.0
 30
0.0
 70
     1
  0
VERTEX
  5
28C
  8
LAYER_1
 10
81.76136701628056
 20
-4.03763693644332
 30
0.0
 42
0.4142135623730951
  0
VERTEX
  5
28D
  8
LAYER_1
 10
81.63586701628054
 20
-4.163136936443323
 30
0.0
 42
0.4142135623730951
  0
VERTEX
  5
28E
  8
LAYER_1
 10
81.76136701628056
 20
-4.288636936443325
 30
0.0
 42
0.4142135623730951
  0
VERTEX
  5
28F
  8
LAYER_1
 10
81.88686701628055
 20
-4.163136936443323
 30
0.0
 42
0.4142135623730951
  0
SEQEND
  5
F03
  8
LAYER_1
  0
POLYLINE
  5
83
  8
LAYER_1
 66
     1
 10
0.0
 20
0.0
 30
0.0
 70
     1
  0
VERTEX
  5
290
  8
LAYER_1
 10
81.76136701628056
 20
-14.47513693644332
 30
0.0
 42
0.4142135623730951
  0
VERTEX
  5
291
  8
LAYER_1
 10
81.63586701628054
 20
-14.60063693644332
 30
0.0
 42
0.4142135623730951
  0
VERTEX
  5
292
  8
LAYER_1
 10
81.76136701628056
 20
-14.72613693644332
 30
0.0
 42
0.4142135623730951
  0
VERTEX
  5
293
  8
LAYER_1
 10
81.88686701628055
 20
-14.60063693644332
 30
0.0
 42
0.4142135623730951
  0
SEQEND
  5
F04
  8
LAYER_1
  0
POLYLINE
  5
84
  8
LAYER_1
 66
     1
 10
0.0
 20
0.0
 30
0.0
 70
     1
  0
VERTEX
  5
294
  8
LAYER_1
 10
87.88636701628056
 20
-13.96811814024904
 30
0.0
  0
VERTEX
  5
295
  8
LAYER_1
 10
87.88636701628056
 20
-4.725481941625276
 30
0.0
  0
VERTEX
  5
296
  8
LAYER_1
 10
87.88776404268464
 20
-4.724937768734897
 30
0.0
 42
0.4142135623730951
  0
VERTEX
  5
297
  8
LAYER_1
 10
88.01276404268464
 20
-4.599937768734897
 30
0.0
 42
0.4142135623730951
  0
VERTEX
  5
298
  8
LAYER_1
 10
87.88776404268464
 20
-4.474937768734897
 30
0.0
  0
VERTEX
  5
299
  8
LAYER_1
 10
87.88636701628056
 20
-4.475636936443323
 30
0.0
  0
VERTEX
  5
29A
  8
LAYER_1
 10
75.64720217029242
 20
-4.475636936443323
 30
0.0
  0
VERTEX
  5
29B
  8
LAYER_1
 10
75.63450693643952
 20
-4.475730989405335
 30
0.0
 42
0.4142135623730951
  0
VERTEX
  5
29C
  8
LAYER_1
 10
75.50950693643952
 20
-4.600730989405335
 30
0.0
 42
0.4142135623730951
  0
VERTEX
  5
29D
  8
LAYER_1
 10
75.63450693643952
 20
-4.725730989405335
 30
0.0
  0
VERTEX
  5
29E
  8
LAYER_1
 10
75.63567565013315
 20
-4.725708303552483
 30
0.0
  0
VERTEX
  5
29F
  8
LAYER_1
 10
75.6361658814703
 20
-4.725826961026025
 30
0.0
  0
VERTEX
  5
2A0
  8
LAYER_1
 10
75.63636701628056
 20
-4.726162965245862
 30
0.0
  0
VERTEX
  5
2A1
  8
LAYER_1
 10
75.63636701628056
 20
-13.96235938915058
 30
0.0
  0
VERTEX
  5
2A2
  8
LAYER_1
 10
75.63636701628056
 20
-13.97563693644332
 30
0.0
 42
0.4142135623730951
  0
VERTEX
  5
2A3
  8
LAYER_1
 10
75.51136701628056
 20
-14.10063693644332
 30
0.0
 42
0.4142135623730951
  0
VERTEX
  5
2A4
  8
LAYER_1
 10
75.63636701628056
 20
-14.22563693644332
 30
0.0
  0
VERTEX
  5
2A5
  8
LAYER_1
 10
87.88636701628056
 20
-14.22563693644332
 30
0.0
 42
0.4142135623730951
  0
VERTEX
  5
2A6
  8
LAYER_1
 10
88.01136701628056
 20
-14.10063693644332
 30
0.0
 42
0.4142135623730951
  0
VERTEX
  5
2A7
  8
LAYER_1
 10
87.88636701628056
 20
-13.97563693644332
 30
0.0
  0
SEQEND
  5
F05
  8
LAYER_1
  0
POLYLINE
  5
85
  8
LAYER_1
 66
     1
 10
0.0
 20
0.0
 30
0.0
 70
     1
  0
VERTEX
  5
2A8
  8
LAYER_1
 10
43.00413470569821
 20
-18.08826999843456
 30
0.0
  0
VERTEX
  5
2A9
  8
LAYER_1
 10
68.00413470569819
 20
-18.08826999843456
 30
0.0
  0
VERTEX
  5
2AA
  8
LAYER_1
 10
68.00413470569819
 20
-2.088269998434562
 30
0.0
  0
VERTEX
  5
2AB
  8
LAYER_1
 10
43.00413470569821
 20
-2.088269998434562
 30
0.0
  0
SEQEND
  5
F06
  8
LAYER_1
  0
POLYLINE
  5
86
  8
LAYER_1
 66
     1
 10
0.0
 20
0.0
 30
0.0
 70
     1
  0
VERTEX
  5
2AC
  8
LAYER_1
 10
42.94163470569821
 20
-18.21326999843456
 30
0.0
  0
VERTEX
  5
2AD
  8
LAYER_1
 10
43.25413470569821
 20
-18.21326999843456
 30
0.0
  0
VERTEX
  5
2AE
  8
LAYER_1
 10
43.25413470569821
 20
-1.963269998434562
 30
0.0
  0
VERTEX
  5
2AF
  8
LAYER_1
 10
42.94163470569821
 20
-1.963269998434562
 30
0.0
  0
SEQEND
  5
F07
  8
LAYER_1
  0
POLYLINE
  5
87
  8
LAYER_1
 66
     1
 10
0.0
 20
0.0
 30
0.0
 70
     1
  0
VERTEX
  5
2B0
  8
LAYER_1
 10
67.75413470569819
 20
-18.21326999843456
 30
0.0
  0
VERTEX
  5
2B1
  8
LAYER_1
 10
68.06663470569819
 20
-18.21326999843456
 30
0.0
  0
VERTEX
  5
2B2
  8
LAYER_1
 10
68.06663470569819
 20
-1.963269998434562
 30
0.0
  0
VERTEX
  5
2B3
  8
LAYER_1
 10
67.75413470569819
 20
-1.963269998434562
 30
0.0
  0
SEQEND
  5
F08
  8
LAYER_1
  0
POLYLINE
  5
88
  8
LAYER_1
 66
     1
 10
0.0
 20
0.0
 30
0.0
 70
     1
  0
VERTEX
  5
2B4
  8
LAYER_1
 10
45.44163470569821
 20
-13.08776999843456
 30
0.0
 42
0.4142135623730951
  0
VERTEX
  5
2B5
  8
LAYER_1
 10
45.3161347056982
 20
-13.21326999843456
 30
0.0
 42
0.4142135623730951
  0
VERTEX
  5
2B6
  8
LAYER_1
 10
45.44163470569821
 20
-13.33876999843456
 30
0.0
 42
0.4142135623730951
  0
VERTEX
  5
2B7
  8
LAYER_1
 10
45.56713470569821
 20
-13.21326999843456
 30
0.0
 42
0.4142135623730951
  0
SEQEND
  5
F09
  8
LAYER_1
  0
POLYLINE
  5
89
  8
LAYER_1
 66
     1
 10
0.0
 20
0.0
 30
0.0
 70
     1
  0
VERTEX
  5
2B8
  8
LAYER_1
 10
45.44163470569821
 20
-5.08776999843456
 30
0.0
 42
0.4142135623730951
  0
VERTEX
  5
2B9
  8
LAYER_1
 10
45.3161347056982
 20
-5.213269998434562
 30
0.0
 42
0.4142135623730951
  0
VERTEX
  5
2BA
  8
LAYER_1
 10
45.44163470569821
 20
-5.338769998434564
 30
0.0
 42
0.4142135623730951
  0
VERTEX
  5
2BB
  8
LAYER_1
 10
45.56713470569821
 20
-5.213269998434562
 30
0.0
 42
0.4142135623730951
  0
SEQEND
  5
F0A
  8
LAYER_1
  0
POLYLINE
  5
8A
  8
LAYER_1
 66
     1
 10
0.0
 20
0.0
 30
0.0
 70
     1
  0
VERTEX
  5
2BC
  8
LAYER_1
 10
65.12913470569819
 20
-5.08776999843456
 30
0.0
 42
0.4142135623730951
  0
VERTEX
  5
2BD
  8
LAYER_1
 10
65.0036347056982
 20
-5.213269998434562
 30
0.0
 42
0.4142135623730951
  0
VERTEX
  5
2BE
  8
LAYER_1
 10
65.12913470569819
 20
-5.338769998434564
 30
0.0
 42
0.4142135623730951
  0
VERTEX
  5
2BF
  8
LAYER_1
 10
65.25463470569821
 20
-5.213269998434562
 30
0.0
 42
0.4142135623730951
  0
SEQEND
  5
F0B
  8
LAYER_1
  0
POLYLINE
  5
8B
  8
LAYER_1
 66
     1
 10
0.0
 20
0.0
 30
0.0
 70
     1
  0
VERTEX
  5
2C0
  8
LAYER_1
 10
65.12913470569819
 20
-13.08776999843456
 30
0.0
 42
0.4142135623730951
  0
VERTEX
  5
2C1
  8
LAYER_1
 10
65.0036347056982
 20
-13.21326999843456
 30
0.0
 42
0.4142135623730951
  0
VERTEX
  5
2C2
  8
LAYER_1
 10
65.12913470569819
 20
-13.33876999843456
 30
0.0
 42
0.4142135623730951
  0
VERTEX
  5
2C3
  8
LAYER_1
 10
65.25463470569821
 20
-13.21326999843456
 30
0.0
 42
0.4142135623730951
  0
SEQEND
  5
F0C
  8
LAYER_1
  0
POLYLINE
  5
8C
  8
LAYER_1
 66
     1
 10
0.0
 20
0.0
 30
0.0
 70
     1
  0
VERTEX
  5
2C4
  8
LAYER_1
 10
16.68378404821542
 20
-4.493283304633685
 30
0.0
  0
VERTEX
  5
2C5
  8
LAYER_1
 10
41.68378404821542
 20
-4.493283304633685
 30
0.0
  0
VERTEX
  5
2C6
  8
LAYER_1
 10
41.68378404821542
 20
-15.49328330463369
 30
0.0
  0
VERTEX
  5
2C7
  8
LAYER_1
 10
16.68378404821542
 20
-15.49328330463369
 30
0.0
  0
SEQEND
  5
F0D
  8
LAYER_1
  0
POLYLINE
  5
8D
  8
LAYER_1
 66
     1
 10
0.0
 20
0.0
 30
0.0
 70
     1
  0
VERTEX
  5
2C8
  8
LAYER_1
 10
16.55878404821542
 20
-8.555783304633685
 30
0.0
  0
VERTEX
  5
2C9
  8
LAYER_1
 10
41.80878404821542
 20
-8.555783304633685
 30
0.0
  0
VERTEX
  5
2CA
  8
LAYER_1
 10
41.80878404821542
 20
-8.180783304633685
 30
0.0
  0
VERTEX
  5
2CB
  8
LAYER_1
 10
16.55878404821542
 20
-8.180783304633685
 30
0.0
  0
SEQEND
  5
F0E
  8
LAYER_1
  0
POLYLINE
  5
8E
  8
LAYER_1
 66
     1
 10
0.0
 20
0.0
 30
0.0
 70
     1
  0
VERTEX
  5
2CC
  8
LAYER_1
 10
16.55878404821542
 20
-4.743283304633685
 30
0.0
  0
VERTEX
  5
2CD
  8
LAYER_1
 10
41.80878404821542
 20
-4.743283304633685
 30
0.0
  0
VERTEX
  5
2CE
  8
LAYER_1
 10
41.80878404821542
 20
-4.430783304633685
 30
0.0
  0
VERTEX
  5
2CF
  8
LAYER_1
 10
16.55878404821542
 20
-4.430783304633685
 30
0.0
  0
SEQEND
  5
F0F
  8
LAYER_1
  0
POLYLINE
  5
8F
  8
LAYER_1
 66
     1
 10
0.0
 20
0.0
 30
0.0
 70
     1
  0
VERTEX
  5
2D0
  8
LAYER_1
 10
18.37128404821542
 20
-7.368283304633685
 30
0.0
 42
-0.4142135623730951
  0
VERTEX
  5
2D1
  8
LAYER_1
 10
17.68378404821542
 20
-6.680783304633685
 30
0.0
 42
-0.4142135623730951
  0
VERTEX
  5
2D2
  8
LAYER_1
 10
18.37128404821542
 20
-5.993283304633685
 30
0.0
 42
-0.4142135623730951
  0
VERTEX
  5
2D3
  8
LAYER_1
 10
19.05878404821542
 20
-6.680783304633685
 30
0.0
 42
-0.4142135623730951
  0
SEQEND
  5
F10
  8
LAYER_1
  0
POLYLINE
  5
90
  8
LAYER_1
 66
     1
 10
0.0
 20
0.0
 30
0.0
 70
     1
  0
VERTEX
  5
2D4
  8
LAYER_1
 10
35.7277500003658
 20
21.21633531609855
 30
0.0
  0
VERTEX
  5
2D5
  8
LAYER_1
 10
32.94655000014407
 20
27.18503531615957
 30
0.0
  0
VERTEX
  5
2D6
  8
LAYER_1
 10
32.94124345005403
 20
27.19552501315334
 30
0.0
  0
VERTEX
  5
2D7
  8
LAYER_1
 10
32.93531054865791
 20
27.20560433699244
 30
0.0
  0
VERTEX
  5
2D8
  8
LAYER_1
 10
32.92877885237718
 20
27.21527816162465
 30
0.0
  0
VERTEX
  5
2D9
  8
LAYER_1
 10
32.92167591763331
 20
27.22455136099776
 30
0.0
  0
VERTEX
  5
2DA
  8
LAYER_1
 10
32.91402930084774
 20
27.23342880905955
 30
0.0
  0
VERTEX
  5
2DB
  8
LAYER_1
 10
32.90586655844197
 20
27.24191537975781
 30
0.0
  0
VERTEX
  5
2DC
  8
LAYER_1
 10
32.89721524683743
 20
27.25001594704032
 30
0.0
  0
VERTEX
  5
2DD
  8
LAYER_1
 10
32.88810292245559
 20
27.25773538485488
 30
0.0
  0
VERTEX
  5
2DE
  8
LAYER_1
 10
32.87855714171791
 20
27.26507856714925
 30
0.0
  0
VERTEX
  5
2DF
  8
LAYER_1
 10
32.86860546104586
 20
27.27205036787123
 30
0.0
  0
VERTEX
  5
2E0
  8
LAYER_1
 10
32.85827543686091
 20
27.2786556609686
 30
0.0
  0
VERTEX
  5
2E1
  8
LAYER_1
 10
32.84759462558451
 20
27.28489932038916
 30
0.0
  0
VERTEX
  5
2E2
  8
LAYER_1
 10
32.83659058363813
 20
27.29078622008067
 30
0.0
  0
VERTEX
  5
2E3
  8
LAYER_1
 10
32.82529086744323
 20
27.29632123399094
 30
0.0
  0
VERTEX
  5
2E4
  8
LAYER_1
 10
32.81372303342127
 20
27.30150923606774
 30
0.0
  0
VERTEX
  5
2E5
  8
LAYER_1
 10
32.80191463799372
 20
27.30635510025887
 30
0.0
  0
VERTEX
  5
2E6
  8
LAYER_1
 10
32.78989323758204
 20
27.31086370051209
 30
0.0
  0
VERTEX
  5
2E7
  8
LAYER_1
 10
32.77768638860768
 20
27.31503991077521
 30
0.0
  0
VERTEX
  5
2E8
  8
LAYER_1
 10
32.76532164749212
 20
27.318888604996
 30
0.0
  0
VERTEX
  5
2E9
  8
LAYER_1
 10
32.75282657065681
 20
27.32241465712226
 30
0.0
  0
VERTEX
  5
2EA
  8
LAYER_1
 10
32.74022871452323
 20
27.32562294110176
 30
0.0
  0
VERTEX
  5
2EB
  8
LAYER_1
 10
32.72755563551281
 20
27.3285183308823
 30
0.0
  0
VERTEX
  5
2EC
  8
LAYER_1
 10
32.7020940345474
 20
27.3333899236376
 30
0.0
  0
VERTEX
  5
2ED
  8
LAYER_1
 10
32.67666221913227
 20
27.33706842697045
 30
0.0
  0
VERTEX
  5
2EE
  8
LAYER_1
 10
32.65148064063911
 20
27.33959283246314
 30
0.0
  0
VERTEX
  5
2EF
  8
LAYER_1
 10
32.62676975043964
 20
27.34100213169793
 30
0.0
  0
VERTEX
  5
2F0
  8
LAYER_1
 10
32.60274999990554
 20
27.34133531625713
 30
0.0
  0
VERTEX
  5
2F1
  8
LAYER_1
 10
24.91524999978638
 20
27.27883531629704
 30
0.0
  0
VERTEX
  5
2F2
  8
LAYER_1
 10
29.79025000010125
 20
8.403835316207545
 30
0.0
  0
VERTEX
  5
2F3
  8
LAYER_1
 10
29.79532496207322
 20
8.383209410868965
 30
0.0
  0
VERTEX
  5
2F4
  8
LAYER_1
 10
29.8001218428608
 20
8.362145862380814
 30
0.0
  0
VERTEX
  5
2F5
  8
LAYER_1
 10
29.80943257767247
 20
8.319206062122717
 30
0.0
  0
VERTEX
  5
2F6
  8
LAYER_1
 10
29.81422204009143
 20
8.297579923436228
 30
0.0
  0
VERTEX
  5
2F7
  8
LAYER_1
 10
29.81928463811571
 20
8.276016367767077
 30
0.0
  0
VERTEX
  5
2F8
  8
LAYER_1
 10
29.82475817594274
 20
8.254640451656996
 30
0.0
  0
VERTEX
  5
2F9
  8
LAYER_1
 10
29.83078045776995
 20
8.233577231647711
 30
0.0
  0
VERTEX
  5
2FA
  8
LAYER_1
 10
29.83748928779477
 20
8.212951764280952
 30
0.0
  0
VERTEX
  5
2FB
  8
LAYER_1
 10
29.84502247021463
 20
8.192889106098441
 30
0.0
  0
VERTEX
  5
2FC
  8
LAYER_1
 10
29.84914125738439
 20
8.18310791062057
 30
0.0
  0
VERTEX
  5
2FD
  8
LAYER_1
 10
29.85351780922695
 20
8.173514313641913
 30
0.0
  0
VERTEX
  5
2FE
  8
LAYER_1
 10
29.85816935126698
 20
8.16412394723018
 30
0.0
  0
VERTEX
  5
2FF
  8
LAYER_1
 10
29.86311310902916
 20
8.154952443453091
 30
0.0
  0
VERTEX
  5
300
  8
LAYER_1
 10
29.86836630803818
 20
8.14601543437836
 30
0.0
  0
VERTEX
  5
301
  8
LAYER_1
 10
29.87394617381871
 20
8.137328552073704
 30
0.0
  0
VERTEX
  5
302
  8
LAYER_1
 10
29.87986993189542
 20
8.128907428606837
 30
0.0
  0
VERTEX
  5
303
  8
LAYER_1
 10
29.886154807793
 20
8.120767696045476
 30
0.0
  0
VERTEX
  5
304
  8
LAYER_1
 10
29.89281802703612
 20
8.112924986457339
 30
0.0
  0
VERTEX
  5
305
  8
LAYER_1
 10
29.89987681514948
 20
8.10539493191014
 30
0.0
  0
VERTEX
  5
306
  8
LAYER_1
 10
29.90734839765773
 20
8.098193164471596
 30
0.0
  0
VERTEX
  5
307
  8
LAYER_1
 10
29.91525000008556
 20
8.09133531620942
 30
0.0
  0
VERTEX
  5
308
  8
LAYER_1
 10
37.13404999999477
 20
2.153835316217929
 30
0.0
  0
VERTEX
  5
309
  8
LAYER_1
 10
37.18618683848744
 20
2.110802202972897
 30
0.0
  0
VERTEX
  5
30A
  8
LAYER_1
 10
37.21290858303479
 20
2.088999998194379
 30
0.0
  0
VERTEX
  5
30B
  8
LAYER_1
 10
37.24007363511684
 20
2.067324925327268
 30
0.0
  0
VERTEX
  5
30C
  8
LAYER_1
 10
37.26768781273412
 20
2.046015157383119
 30
0.0
  0
VERTEX
  5
30D
  8
LAYER_1
 10
37.29575693388713
 20
2.025308867373487
 30
0.0
  0
VERTEX
  5
30E
  8
LAYER_1
 10
37.3242868165764
 20
2.005444228309929
 30
0.0
  0
VERTEX
  5
30F
  8
LAYER_1
 10
37.33872636162229
 20
1.995901956949039
 30
0.0
  0
VERTEX
  5
310
  8
LAYER_1
 10
37.35328327880246
 20
1.986659413204
 30
0.0
  0
VERTEX
  5
311
  8
LAYER_1
 10
37.36795829536695
 20
1.977746368701258
 30
0.0
  0
VERTEX
  5
312
  8
LAYER_1
 10
37.38275213856582
 20
1.969192595067256
 30
0.0
  0
VERTEX
  5
313
  8
LAYER_1
 10
37.39766553564915
 20
1.96102786392844
 30
0.0
  0
VERTEX
  5
314
  8
LAYER_1
 10
37.412699213867
 20
1.953281946911253
 30
0.0
  0
VERTEX
  5
315
  8
LAYER_1
 10
37.42785390046944
 20
1.945984615642141
 30
0.0
  0
VERTEX
  5
316
  8
LAYER_1
 10
37.44313032270652
 20
1.939165641747546
 30
0.0
  0
VERTEX
  5
317
  8
LAYER_1
 10
37.45852920782832
 20
1.932854796853916
 30
0.0
  0
VERTEX
  5
318
  8
LAYER_1
 10
37.4740512830849
 20
1.927081852587692
 30
0.0
  0
VERTEX
  5
319
  8
LAYER_1
 10
37.48969727572633
 20
1.92187658057532
 30
0.0
  0
VERTEX
  5
31A
  8
LAYER_1
 10
37.50546791300266
 20
1.917268752443245
 30
0.0
  0
VERTEX
  5
31B
  8
LAYER_1
 10
37.52136392216397
 20
1.91328813981791
 30
0.0
  0
VERTEX
  5
31C
  8
LAYER_1
 10
37.53738603046033
 20
1.909964514325761
 30
0.0
  0
VERTEX
  5
31D
  8
LAYER_1
 10
37.55353496514179
 20
1.907327647593242
 30
0.0
  0
VERTEX
  5
31E
  8
LAYER_1
 10
37.56981145345843
 20
1.905407311246797
 30
0.0
  0
VERTEX
  5
31F
  8
LAYER_1
 10
37.5862162226603
 20
1.904233276912871
 30
0.0
  0
VERTEX
  5
320
  8
LAYER_1
 10
37.60274999999746
 20
1.903835316217908
 30
0.0
  0
VERTEX
  5
321
  8
LAYER_1
 10
94.91525000000001
 20
1.903835316217904
 30
0.0
  0
VERTEX
  5
322
  8
LAYER_1
 10
94.91525000000001
 20
28.09133531621837
 30
0.0
  0
VERTEX
  5
323
  8
LAYER_1
 10
73.91524999996676
 20
28.09133531625842
 30
0.0
  0
VERTEX
  5
324
  8
LAYER_1
 10
73.9042504886966
 20
28.09172912629159
 30
0.0
  0
VERTEX
  5
325
  8
LAYER_1
 10
73.89335369201504
 20
28.09289124420934
 30
0.0
  0
VERTEX
  5
326
  8
LAYER_1
 10
73.88256989982628
 20
28.09479270173911
 30
0.0
  0
VERTEX
  5
327
  8
LAYER_1
 10
73.87190940203452
 20
28.09740453060832
 30
0.0
  0
VERTEX
  5
328
  8
LAYER_1
 10
73.86138248854394
 20
28.1006977625444
 30
0.0
  0
VERTEX
  5
329
  8
LAYER_1
 10
73.85099944925872
 20
28.10464342927479
 30
0.0
  0
VERTEX
  5
32A
  8
LAYER_1
 10
73.8407705740831
 20
28.10921256252691
 30
0.0
  0
VERTEX
  5
32B
  8
LAYER_1
 10
73.83070615292124
 20
28.11437619402819
 30
0.0
  0
VERTEX
  5
32C
  8
LAYER_1
 10
73.82081647567735
 20
28.12010535550607
 30
0.0
  0
VERTEX
  5
32D
  8
LAYER_1
 10
73.81111183225562
 20
28.12637107868797
 30
0.0
  0
VERTEX
  5
32E
  8
LAYER_1
 10
73.80160251256022
 20
28.13314439530133
 30
0.0
  0
VERTEX
  5
32F
  8
LAYER_1
 10
73.7922988064954
 20
28.14039633707356
 30
0.0
  0
VERTEX
  5
330
  8
LAYER_1
 10
73.7832110039653
 20
28.14809793573211
 30
0.0
  0
VERTEX
  5
331
  8
LAYER_1
 10
73.77434939487416
 20
28.15622022300441
 30
0.0
  0
VERTEX
  5
332
  8
LAYER_1
 10
73.76572426912615
 20
28.16473423061787
 30
0.0
  0
VERTEX
  5
333
  8
LAYER_1
 10
73.75734591662545
 20
28.17361099029994
 30
0.0
  0
VERTEX
  5
334
  8
LAYER_1
 10
73.74922462727628
 20
28.18282153377805
 30
0.0
  0
VERTEX
  5
335
  8
LAYER_1
 10
73.74137069098283
 20
28.19233689277961
 30
0.0
  0
VERTEX
  5
336
  8
LAYER_1
 10
73.7337943976493
 20
28.20212809903206
 30
0.0
  0
VERTEX
  5
337
  8
LAYER_1
 10
73.72650603717989
 20
28.21216618426284
 30
0.0
  0
VERTEX
  5
338
  8
LAYER_1
 10
73.71951589947878
 20
28.22242218019937
 30
0.0
  0
VERTEX
  5
339
  8
LAYER_1
 10
73.71283427445015
 20
28.23286711856909
 30
0.0
  0
VERTEX
  5
33A
  8
LAYER_1
 10
73.70647145199821
 20
28.24347203109942
 30
0.0
  0
VERTEX
  5
33B
  8
LAYER_1
 10
73.70043772202717
 20
28.25420794951778
 30
0.0
  0
VERTEX
  5
33C
  8
LAYER_1
 10
73.69474337444123
 20
28.26504590555162
 30
0.0
  0
VERTEX
  5
33D
  8
LAYER_1
 10
73.68939869914453
 20
28.27595693092836
 30
0.0
  0
VERTEX
  5
33E
  8
LAYER_1
 10
73.68441398604133
 20
28.28691205737544
 30
0.0
  0
VERTEX
  5
33F
  8
LAYER_1
 10
73.67979952503579
 20
28.29788231662027
 30
0.0
  0
VERTEX
  5
340
  8
LAYER_1
 10
73.6755656060321
 20
28.3088387403903
 30
0.0
  0
VERTEX
  5
341
  8
LAYER_1
 10
73.67172251893447
 20
28.31975236041296
 30
0.0
  0
VERTEX
  5
342
  8
LAYER_1
 10
73.66828055364712
 20
28.33059420841566
 30
0.0
  0
VERTEX
  5
343
  8
LAYER_1
 10
73.6652500000742
 20
28.34133531612585
 30
0.0
  0
VERTEX
  5
344
  8
LAYER_1
 10
72.79025000006044
 20
31.65383531613782
 30
0.0
  0
VERTEX
  5
345
  8
LAYER_1
 10
72.78673496597025
 20
31.66589878343741
 30
0.0
  0
VERTEX
  5
346
  8
LAYER_1
 10
72.7825920915491
 20
31.67789505471711
 30
0.0
  0
VERTEX
  5
347
  8
LAYER_1
 10
72.77784383443709
 20
31.68980342398342
 30
0.0
  0
VERTEX
  5
348
  8
LAYER_1
 10
72.77251265227433
 20
31.70160318524287
 30
0.0
  0
VERTEX
  5
349
  8
LAYER_1
 10
72.76662100270096
 20
31.71327363250198
 30
0.0
  0
VERTEX
  5
34A
  8
LAYER_1
 10
72.76019134335709
 20
31.72479405976727
 30
0.0
  0
VERTEX
  5
34B
  8
LAYER_1
 10
72.75324613188286
 20
31.73614376104526
 30
0.0
  0
VERTEX
  5
34C
  8
LAYER_1
 10
72.74580782591838
 20
31.74730203034247
 30
0.0
  0
VERTEX
  5
34D
  8
LAYER_1
 10
72.73789888310378
 20
31.75824816166542
 30
0.0
  0
VERTEX
  5
34E
  8
LAYER_1
 10
72.72954176107918
 20
31.76896144902063
 30
0.0
  0
VERTEX
  5
34F
  8
LAYER_1
 10
72.72075891748469
 20
31.77942118641462
 30
0.0
  0
VERTEX
  5
350
  8
LAYER_1
 10
72.71157280996046
 20
31.78960666785391
 30
0.0
  0
VERTEX
  5
351
  8
LAYER_1
 10
72.7020058961466
 20
31.79949718734503
 30
0.0
  0
VERTEX
  5
352
  8
LAYER_1
 10
72.69208063368322
 20
31.80907203889449
 30
0.0
  0
VERTEX
  5
353
  8
LAYER_1
 10
72.68181948021046
 20
31.81831051650882
 30
0.0
  0
VERTEX
  5
354
  8
LAYER_1
 10
72.67124489336845
 20
31.82719191419452
 30
0.0
  0
VERTEX
  5
355
  8
LAYER_1
 10
72.6603793307973
 20
31.83569552595813
 30
0.0
  0
VERTEX
  5
356
  8
LAYER_1
 10
72.64924525013711
 20
31.84380064580617
 30
0.0
  0
VERTEX
  5
357
  8
LAYER_1
 10
72.63786510902804
 20
31.85148656774516
 30
0.0
  0
VERTEX
  5
358
  8
LAYER_1
 10
72.6262613651102
 20
31.85873258578161
 30
0.0
  0
VERTEX
  5
359
  8
LAYER_1
 10
72.6144564760237
 20
31.86551799392204
 30
0.0
  0
VERTEX
  5
35A
  8
LAYER_1
 10
72.60247289940868
 20
31.87182208617299
 30
0.0
  0
VERTEX
  5
35B
  8
LAYER_1
 10
72.59033309290527
 20
31.87762415654096
 30
0.0
  0
VERTEX
  5
35C
  8
LAYER_1
 10
72.57805951415355
 20
31.88290349903249
 30
0.0
  0
VERTEX
  5
35D
  8
LAYER_1
 10
72.56567462079369
 20
31.88763940765408
 30
0.0
  0
VERTEX
  5
35E
  8
LAYER_1
 10
72.5532008704658
 20
31.89181117641226
 30
0.0
  0
VERTEX
  5
35F
  8
LAYER_1
 10
72.54066072081
 20
31.89539809931355
 30
0.0
  0
VERTEX
  5
360
  8
LAYER_1
 10
72.52807662946641
 20
31.89837947036447
 30
0.0
  0
VERTEX
  5
361
  8
LAYER_1
 10
72.51547105407515
 20
31.90073458357154
 30
0.0
  0
VERTEX
  5
362
  8
LAYER_1
 10
72.50286645227635
 20
31.90244273294129
 30
0.0
  0
VERTEX
  5
363
  8
LAYER_1
 10
72.49028528171013
 20
31.90348321248023
 30
0.0
  0
VERTEX
  5
364
  8
LAYER_1
 10
72.47775000001661
 20
31.90383531619487
 30
0.0
  0
VERTEX
  5
365
  8
LAYER_1
 10
54.14346412662314
 20
31.9053217300857
 30
0.0
  0
VERTEX
  5
366
  8
LAYER_1
 10
54.13564841612475
 20
31.90530870302132
 30
0.0
 42
0.3535584977823277
  0
VERTEX
  5
367
  8
LAYER_1
 10
54.01343195288297
 20
31.80654105161364
 30
0.0
  0
VERTEX
  5
368
  8
LAYER_1
 10
54.00757217648896
 20
31.77430378959863
 30
0.0
  0
VERTEX
  5
369
  8
LAYER_1
 10
52.91524999996676
 20
25.7163353162352
 30
0.0
  0
VERTEX
  5
36A
  8
LAYER_1
 10
52.91224015185397
 20
25.70272434921142
 30
0.0
  0
VERTEX
  5
36B
  8
LAYER_1
 10
52.90823732704527
 20
25.68960234972935
 30
0.0
  0
VERTEX
  5
36C
  8
LAYER_1
 10
52.90328463674646
 20
25.67695783049949
 30
0.0
  0
VERTEX
  5
36D
  8
LAYER_1
 10
52.89742519216337
 20
25.66477930423234
 30
0.0
  0
VERTEX
  5
36E
  8
LAYER_1
 10
52.89070210450178
 20
25.65305528363839
 30
0.0
  0
VERTEX
  5
36F
  8
LAYER_1
 10
52.8831584849675
 20
25.64177428142814
 30
0.0
  0
VERTEX
  5
370
  8
LAYER_1
 10
52.87483744476634
 20
25.63092481031209
 30
0.0
  0
VERTEX
  5
371
  8
LAYER_1
 10
52.86578209510412
 20
25.62049538300072
 30
0.0
  0
VERTEX
  5
372
  8
LAYER_1
 10
52.85603554718662
 20
25.61047451220455
 30
0.0
  0
VERTEX
  5
373
  8
LAYER_1
 10
52.84564091221966
 20
25.60085071063406
 30
0.0
  0
VERTEX
  5
374
  8
LAYER_1
 10
52.83464130140904
 20
25.59161249099976
 30
0.0
  0
VERTEX
  5
375
  8
LAYER_1
 10
52.82307982596057
 20
25.58274836601213
 30
0.0
  0
VERTEX
  5
376
  8
LAYER_1
 10
52.81099959708006
 20
25.57424684838168
 30
0.0
  0
VERTEX
  5
377
  8
LAYER_1
 10
52.79844372597329
 20
25.5660964508189
 30
0.0
  0
VERTEX
  5
378
  8
LAYER_1
 10
52.78545532384609
 20
25.5582856860343
 30
0.0
  0
VERTEX
  5
379
  8
LAYER_1
 10
52.77207750190428
 20
25.55080306673835
 30
0.0
  0
VERTEX
  5
37A
  8
LAYER_1
 10
52.75835337135364
 20
25.54363710564157
 30
0.0
  0
VERTEX
  5
37B
  8
LAYER_1
 10
52.74432604339997
 20
25.53677631545445
 30
0.0
  0
VERTEX
  5
37C
  8
LAYER_1
 10
52.73003862924909
 20
25.53020920888748
 30
0.0
  0
VERTEX
  5
37D
  8
LAYER_1
 10
52.7155342401068
 20
25.52392429865117
 30
0.0
  0
VERTEX
  5
37E
  8
LAYER_1
 10
52.68604698167123
 20
25.51215511801248
 30
0.0
  0
VERTEX
  5
37F
  8
LAYER_1
 10
52.65620915773969
 20
25.50137687522236
 30
0.0
  0
VERTEX
  5
380
  8
LAYER_1
 10
52.62636565795863
 20
25.49149767196478
 30
0.0
  0
VERTEX
  5
381
  8
LAYER_1
 10
52.5968613719745
 20
25.48242560992371
 30
0.0
  0
VERTEX
  5
382
  8
LAYER_1
 10
52.54024999998279
 20
25.46633531622701
 30
0.0
  0
VERTEX
  5
383
  8
LAYER_1
 10
36.10274999986478
 20
20.95633531626252
 30
0.0
  0
VERTEX
  5
384
  8
LAYER_1
 10
36.08906891069476
 20
20.95282495805861
 30
0.0
  0
VERTEX
  5
385
  8
LAYER_1
 10
36.07486217937677
 20
20.94968448021194
 30
0.0
  0
VERTEX
  5
386
  8
LAYER_1
 10
36.06021373181296
 20
20.94697798857619
 30
0.0
  0
VERTEX
  5
387
  8
LAYER_1
 10
36.04520749390546
 20
20.94476958900503
 30
0.0
  0
VERTEX
  5
388
  8
LAYER_1
 10
36.02992739155637
 20
20.94312338735216
 30
0.0
  0
VERTEX
  5
389
  8
LAYER_1
 10
36.01445735066783
 20
20.94210348947126
 30
0.0
  0
VERTEX
  5
38A
  8
LAYER_1
 10
35.99888129714196
 20
20.941774001216
 30
0.0
  0
VERTEX
  5
38B
  8
LAYER_1
 10
35.98328315688089
 20
20.94219902844008
 30
0.0
  0
VERTEX
  5
38C
  8
LAYER_1
 10
35.96774685578674
 20
20.94344267699717
 30
0.0
  0
VERTEX
  5
38D
  8
LAYER_1
 10
35.95235631976163
 20
20.94556905274096
 30
0.0
  0
VERTEX
  5
38E
  8
LAYER_1
 10
35.9371954747077
 20
20.94864226152514
 30
0.0
  0
VERTEX
  5
38F
  8
LAYER_1
 10
35.92234824652705
 20
20.95272640920338
 30
0.0
  0
VERTEX
  5
390
  8
LAYER_1
 10
35.91506846560863
 20
20.95516761820704
 30
0.0
  0
VERTEX
  5
391
  8
LAYER_1
 10
35.90789856112182
 20
20.95788560162936
 30
0.0
  0
VERTEX
  5
392
  8
LAYER_1
 10
35.9008490238044
 20
20.96088837270203
 30
0.0
  0
VERTEX
  5
393
  8
LAYER_1
 10
35.89393034439413
 20
20.96418394465677
 30
0.0
  0
VERTEX
  5
394
  8
LAYER_1
 10
35.88715301362878
 20
20.96778033072529
 30
0.0
  0
VERTEX
  5
395
  8
LAYER_1
 10
35.8805275222461
 20
20.9716855441393
 30
0.0
  0
VERTEX
  5
396
  8
LAYER_1
 10
35.87406436098388
 20
20.9759075981305
 30
0.0
  0
VERTEX
  5
397
  8
LAYER_1
 10
35.86777402057987
 20
20.98045450593062
 30
0.0
  0
VERTEX
  5
398
  8
LAYER_1
 10
35.86133402940123
 20
20.9855903027666
 30
0.0
  0
VERTEX
  5
399
  8
LAYER_1
 10
35.85507832612677
 20
20.9910546512309
 30
0.0
  0
VERTEX
  5
39A
  8
LAYER_1
 10
35.84900179964701
 20
20.99682911860254
 30
0.0
  0
VERTEX
  5
39B
  8
LAYER_1
 10
35.84309933885248
 20
21.00289527216048
 30
0.0
  0
VERTEX
  5
39C
  8
LAYER_1
 10
35.83179616988127
 20
21.01582890695121
 30
0.0
  0
VERTEX
  5
39D
  8
LAYER_1
 10
35.82112793033738
 20
21.02970809383498
 30
0.0
  0
VERTEX
  5
39E
  8
LAYER_1
 10
35.81105373134503
 20
21.04438537104366
 30
0.0
  0
VERTEX
  5
39F
  8
LAYER_1
 10
35.8015326840285
 20
21.05971327680912
 30
0.0
  0
VERTEX
  5
3A0
  8
LAYER_1
 10
35.79252389951201
 20
21.07554434936323
 30
0.0
  0
VERTEX
  5
3A1
  8
LAYER_1
 10
35.78398648891981
 20
21.09173112693786
 30
0.0
  0
VERTEX
  5
3A2
  8
LAYER_1
 10
35.77587956337614
 20
21.10812614776489
 30
0.0
  0
VERTEX
  5
3A3
  8
LAYER_1
 10
35.76816223400525
 20
21.12458195007619
 30
0.0
  0
VERTEX
  5
3A4
  8
LAYER_1
 10
35.75373280827876
 20
21.15708605207909
 30
0.0
  0
VERTEX
  5
3A5
  8
LAYER_1
 10
35.74037110073429
 20
21.18806373880155
 30
0.0
  0
SEQEND
  5
F11
  8
LAYER_1
  0
POLYLINE
  5
91
  8
LAYER_1
 66
     1
 10
0.0
 20
0.0
 30
0.0
 70
     1
  0
VERTEX
  5
3A6
  8
LAYER_1
 10
94.98758565266115
 20
2.278835316217897
 30
0.0
  0
VERTEX
  5
3A7
  8
LAYER_1
 10
88.94850723627229
 20
2.278835316217897
 30
0.0
  0
VERTEX
  5
3A8
  8
LAYER_1
 10
88.91525000000001
 20
2.278835316217904
 30
0.0
 42
-0.4142135623730951
  0
VERTEX
  5
3A9
  8
LAYER_1
 10
88.72775000000001
 20
2.466335316217904
 30
0.0
 42
-0.4142135623730951
  0
VERTEX
  5
3AA
  8
LAYER_1
 10
88.91525000000001
 20
2.653835316217897
 30
0.0
  0
VERTEX
  5
3AB
  8
LAYER_1
 10
92.6649895350655
 20
2.654280827909513
 30
0.0
  0
VERTEX
  5
3AC
  8
LAYER_1
 10
92.66525000000001
 20
4.403835316217897
 30
0.0
  0
VERTEX
  5
3AD
  8
LAYER_1
 10
92.66517081578945
 20
26.90359792076543
 30
0.0
  0
VERTEX
  5
3AE
  8
LAYER_1
 10
73.13404999997073
 20
26.90383531625471
 30
0.0
  0
VERTEX
  5
3AF
  8
LAYER_1
 10
72.35276618616052
 20
26.90383531624203
 30
0.0
  0
VERTEX
  5
3B0
  8
LAYER_1
 10
72.35274999998359
 20
26.90377546150708
 30
0.0
  0
VERTEX
  5
3B1
  8
LAYER_1
 10
72.35275000001195
 20
19.97357491183464
 30
0.0
  0
VERTEX
  5
3B2
  8
LAYER_1
 10
72.35275000000001
 20
19.9038353162179
 30
0.0
 42
-0.4142135623730951
  0
VERTEX
  5
3B3
  8
LAYER_1
 10
72.16525000000001
 20
19.7163353162179
 30
0.0
 42
-0.4142135623730951
  0
VERTEX
  5
3B4
  8
LAYER_1
 10
71.97775000000001
 20
19.9038353162179
 30
0.0
  0
VERTEX
  5
3B5
  8
LAYER_1
 10
71.97775000001207
 20
19.9540592727299
 30
0.0
  0
VERTEX
  5
3B6
  8
LAYER_1
 10
71.9777499999829
 20
27.06273533718167
 30
0.0
  0
VERTEX
  5
3B7
  8
LAYER_1
 10
71.97774999998279
 20
27.09133531623899
 30
0.0
  0
VERTEX
  5
3B8
  8
LAYER_1
 10
71.97774999998279
 20
29.59132740912497
 30
0.0
  0
VERTEX
  5
3B9
  8
LAYER_1
 10
71.97766038619943
 20
30.6538255562897
 30
0.0
  0
VERTEX
  5
3BA
  8
LAYER_1
 10
55.20927329218642
 20
30.65383529068826
 30
0.0
  0
VERTEX
  5
3BB
  8
LAYER_1
 10
55.16525000000001
 20
30.6538353162179
 30
0.0
 42
-0.4142135623730951
  0
VERTEX
  5
3BC
  8
LAYER_1
 10
54.97775000000001
 20
30.8413353162179
 30
0.0
 42
-0.4142135623730951
  0
VERTEX
  5
3BD
  8
LAYER_1
 10
55.16525000000001
 20
31.0288353162179
 30
0.0
  0
VERTEX
  5
3BE
  8
LAYER_1
 10
55.17945773299471
 20
31.02883530799688
 30
0.0
  0
VERTEX
  5
3BF
  8
LAYER_1
 10
72.16514468149853
 20
31.02882544745122
 30
0.0
  0
VERTEX
  5
3C0
  8
LAYER_1
 10
72.30977907408698
 20
31.02637393091034
 30
0.0
 42
-0.4142135623730951
  0
VERTEX
  5
3C1
  8
LAYER_1
 10
72.49727907408698
 20
30.83887393091034
 30
0.0
 42
-0.3451753060489715
  0
VERTEX
  5
3C2
  8
LAYER_1
 10
72.35458786797608
 20
30.65680684989292
 30
0.0
  0
VERTEX
  5
3C3
  8
LAYER_1
 10
72.35266018109274
 20
30.65627261488588
 30
0.0
  0
VERTEX
  5
3C4
  8
LAYER_1
 10
72.35274999964935
 20
29.59134322335128
 30
0.0
  0
VERTEX
  5
3C5
  8
LAYER_1
 10
72.35274999998279
 20
27.27883531624203
 30
0.0
  0
VERTEX
  5
3C6
  8
LAYER_1
 10
73.13404999996766
 20
27.27883531625471
 30
0.0
  0
VERTEX
  5
3C7
  8
LAYER_1
 10
94.92645753287832
 20
27.27883531625471
 30
0.0
  0
VERTEX
  5
3C8
  8
LAYER_1
 10
94.94654999996919
 20
27.27883531625471
 30
0.0
 42
-0.4142135623730951
  0
VERTEX
  5
3C9
  8
LAYER_1
 10
95.13404999996919
 20
27.09133531625471
 30
0.0
 42
-0.4142135623730951
  0
VERTEX
  5
3CA
  8
LAYER_1
 10
94.94654999996919
 20
26.90383531625471
 30
0.0
  0
VERTEX
  5
3CB
  8
LAYER_1
 10
94.92320492636088
 20
26.90383531625471
 30
0.0
  0
VERTEX
  5
3CC
  8
LAYER_1
 10
93.040366598302
 20
26.90356416249147
 30
0.0
  0
VERTEX
  5
3CD
  8
LAYER_1
 10
93.04025000000001
 20
4.403835316217897
 30
0.0
  0
VERTEX
  5
3CE
  8
LAYER_1
 10
93.04034234746734
 20
2.653919021639236
 30
0.0
  0
VERTEX
  5
3CF
  8
LAYER_1
 10
95.00319812381514
 20
2.653835827030331
 30
0.0
  0
VERTEX
  5
3D0
  8
LAYER_1
 10
95.01524999999998
 20
2.653835316217897
 30
0.0
 42
-0.4142135623730951
  0
VERTEX
  5
3D1
  8
LAYER_1
 10
95.20274999999998
 20
2.466335316217897
 30
0.0
 42
-0.4142135623730951
  0
VERTEX
  5
3D2
  8
LAYER_1
 10
95.01524999999998
 20
2.278835316217897
 30
0.0
  0
SEQEND
  5
F12
  8
LAYER_1
  0
POLYLINE
  5
92
  8
LAYER_1
 66
     1
 10
0.0
 20
0.0
 30
0.0
 70
     1
  0
VERTEX
  5
3D3
  8
LAYER_1
 10
54.11254573593146
 20
21.19164778469773
 30
0.0
 42
-0.2786866093101811
  0
VERTEX
  5
3D4
  8
LAYER_1
 10
53.94655
 20
21.0913353162179
 30
0.0
 42
-0.4142135623730951
  0
VERTEX
  5
3D5
  8
LAYER_1
 10
53.75905
 20
21.2788353162179
 30
0.0
  0
VERTEX
  5
3D6
  8
LAYER_1
 10
53.75924980548264
 20
21.28746748911313
 30
0.0
  0
VERTEX
  5
3D7
  8
LAYER_1
 10
53.75984749745088
 20
21.2960911142923
 30
0.0
  0
VERTEX
  5
3D8
  8
LAYER_1
 10
53.7608404891852
 20
21.30467820427323
 30
0.0
  0
VERTEX
  5
3D9
  8
LAYER_1
 10
53.76222619396606
 20
21.31320077157372
 30
0.0
  0
VERTEX
  5
3DA
  8
LAYER_1
 10
54.44972619396037
 20
25.0007007715772
 30
0.0
  0
VERTEX
  5
3DB
  8
LAYER_1
 10
54.45192342621277
 20
25.01089291591247
 30
0.0
  0
VERTEX
  5
3DC
  8
LAYER_1
 10
54.45468830238322
 20
25.02096352460617
 30
0.0
  0
VERTEX
  5
3DD
  8
LAYER_1
 10
54.45800650994885
 20
25.03086560510703
 30
0.0
  0
VERTEX
  5
3DE
  8
LAYER_1
 10
54.46186373638682
 20
25.04055216486377
 30
0.0
 42
-0.2994564616780787
  0
VERTEX
  5
3DF
  8
LAYER_1
 10
54.63405
 20
25.1538353162179
 30
0.0
 42
-0.4142135623730951
  0
VERTEX
  5
3E0
  8
LAYER_1
 10
54.82155
 20
24.9663353162179
 30
0.0
  0
VERTEX
  5
3E1
  8
LAYER_1
 10
54.82135019452226
 20
24.95770314331904
 30
0.0
  0
VERTEX
  5
3E2
  8
LAYER_1
 10
54.82075250256474
 20
24.9490795181357
 30
0.0
  0
VERTEX
  5
3E3
  8
LAYER_1
 10
54.819759510841
 20
24.94049242815062
 30
0.0
  0
VERTEX
  5
3E4
  8
LAYER_1
 10
54.81837380606459
 20
24.93196986084655
 30
0.0
  0
VERTEX
  5
3E5
  8
LAYER_1
 10
54.13087380607027
 20
21.24446986084306
 30
0.0
  0
VERTEX
  5
3E6
  8
LAYER_1
 10
54.12778769585869
 20
21.23080785978718
 30
0.0
  0
VERTEX
  5
3E7
  8
LAYER_1
 10
54.12367847991077
 20
21.21737572514202
 30
0.0
  0
VERTEX
  5
3E8
  8
LAYER_1
 10
54.11858490950789
 20
21.20428513931105
 30
0.0
  0
SEQEND
  5
F13
  8
LAYER_1
  0
POLYLINE
  5
93
  8
LAYER_1
 66
     1
 10
0.0
 20
0.0
 30
0.0
 70
     1
  0
VERTEX
  5
3E9
  8
LAYER_1
 10
56.94085102423634
 20
4.434257455982642
 30
0.0
 42
0.2665815525003791
  0
VERTEX
  5
3EA
  8
LAYER_1
 10
57.10275000000001
 20
4.341335316217904
 30
0.0
 42
0.4142135623730951
  0
VERTEX
  5
3EB
  8
LAYER_1
 10
57.29025000000001
 20
4.528835316217904
 30
0.0
  0
VERTEX
  5
3EC
  8
LAYER_1
 10
57.28983906542379
 20
4.541180582504055
 30
0.0
  0
VERTEX
  5
3ED
  8
LAYER_1
 10
57.28861339144843
 20
4.553499741904126
 30
0.0
  0
VERTEX
  5
3EE
  8
LAYER_1
 10
57.28658367270388
 20
4.565712203033472
 30
0.0
  0
VERTEX
  5
3EF
  8
LAYER_1
 10
57.2837606038201
 20
4.577737374507446
 30
0.0
  0
VERTEX
  5
3F0
  8
LAYER_1
 10
53.09626060384608
 20
20.07773737449658
 30
0.0
  0
VERTEX
  5
3F1
  8
LAYER_1
 10
53.09329559375014
 20
20.08761683987961
 30
0.0
  0
VERTEX
  5
3F2
  8
LAYER_1
 10
53.0897861849858
 20
20.09733376525863
 30
0.0
  0
VERTEX
  5
3F3
  8
LAYER_1
 10
53.08574976058124
 20
20.10684385814624
 30
0.0
  0
VERTEX
  5
3F4
  8
LAYER_1
 10
53.08120370356465
 20
20.11610282605504
 30
0.0
 42
0.2785567897804863
  0
VERTEX
  5
3F5
  8
LAYER_1
 10
52.91525000000001
 20
20.2163353162179
 30
0.0
 42
0.4142135623730951
  0
VERTEX
  5
3F6
  8
LAYER_1
 10
52.72775000000001
 20
20.0288353162179
 30
0.0
  0
VERTEX
  5
3F7
  8
LAYER_1
 10
52.72816093458034
 20
20.01649004992864
 30
0.0
  0
VERTEX
  5
3F8
  8
LAYER_1
 10
52.72938660856484
 20
20.0041708905261
 30
0.0
  0
VERTEX
  5
3F9
  8
LAYER_1
 10
52.73141632731876
 20
19.99195842939431
 30
0.0
  0
VERTEX
  5
3FA
  8
LAYER_1
 10
52.73423939620739
 20
19.97993325791732
 30
0.0
  0
VERTEX
  5
3FB
  8
LAYER_1
 10
56.92173939618141
 20
4.479933257928192
 30
0.0
  0
VERTEX
  5
3FC
  8
LAYER_1
 10
56.92537078032896
 20
4.468079131935237
 30
0.0
  0
VERTEX
  5
3FD
  8
LAYER_1
 10
56.92978766487465
 20
4.456464571189706
 30
0.0
  0
VERTEX
  5
3FE
  8
LAYER_1
 10
56.93495832208745
 20
4.44516540332703
 30
0.0
  0
SEQEND
  5
F14
  8
LAYER_1
  0
POLYLINE
  5
94
  8
LAYER_1
 66
     1
 10
0.0
 20
0.0
 30
0.0
 70
     1
  0
VERTEX
  5
3FF
  8
LAYER_1
 10
25.57750043293103
 20
26.32567376816315
 30
0.0
  0
VERTEX
  5
400
  8
LAYER_1
 10
30.04641583890543
 20
9.01233924895605
 30
0.0
  0
VERTEX
  5
401
  8
LAYER_1
 10
30.19888583728715
 20
8.443313468365726
 30
0.0
  0
VERTEX
  5
402
  8
LAYER_1
 10
30.20267457741485
 20
8.433362207966464
 30
0.0
 42
0.127823177649428
  0
VERTEX
  5
403
  8
LAYER_1
 10
30.25733176906266
 20
8.356485519704616
 30
0.0
  0
VERTEX
  5
404
  8
LAYER_1
 10
30.67001615003664
 20
8.00995944415099
 30
0.0
  0
VERTEX
  5
405
  8
LAYER_1
 10
36.98182935657968
 20
2.760530638704587
 30
0.0
  0
VERTEX
  5
406
  8
LAYER_1
 10
37.49184526199161
 20
2.32392360858865
 30
0.0
 42
0.1249182544257676
  0
VERTEX
  5
407
  8
LAYER_1
 10
37.57452764365593
 20
2.283014742344342
 30
0.0
  0
VERTEX
  5
408
  8
LAYER_1
 10
37.59404939919955
 20
2.278835316217901
 30
0.0
  0
VERTEX
  5
409
  8
LAYER_1
 10
37.85275000000081
 20
2.278835316217901
 30
0.0
  0
VERTEX
  5
40A
  8
LAYER_1
 10
41.16981088857489
 20
2.278835316217936
 30
0.0
  0
VERTEX
  5
40B
  8
LAYER_1
 10
41.19655
 20
2.278835316217908
 30
0.0
 42
0.4142135623730951
  0
VERTEX
  5
40C
  8
LAYER_1
 10
41.38405
 20
2.466335316217908
 30
0.0
 42
0.4142135623730951
  0
VERTEX
  5
40D
  8
LAYER_1
 10
41.19655
 20
2.653835316217908
 30
0.0
  0
VERTEX
  5
40E
  8
LAYER_1
 10
41.18336341573098
 20
2.653835316217936
 30
0.0
  0
VERTEX
  5
40F
  8
LAYER_1
 10
37.85275000000081
 20
2.653835316217901
 30
0.0
  0
VERTEX
  5
410
  8
LAYER_1
 10
37.68310355991196
 20
2.653835316217901
 30
0.0
  0
VERTEX
  5
411
  8
LAYER_1
 10
37.22367064342637
 20
3.047139993730706
 30
0.0
  0
VERTEX
  5
412
  8
LAYER_1
 10
30.91048384998203
 20
8.297711188282758
 30
0.0
  0
VERTEX
  5
413
  8
LAYER_1
 10
30.54357660241351
 20
8.60579875944806
 30
0.0
  0
VERTEX
  5
414
  8
LAYER_1
 10
30.40908416115164
 20
9.107731383471272
 30
0.0
  0
VERTEX
  5
415
  8
LAYER_1
 10
25.94059956713511
 20
26.41939686425077
 30
0.0
  0
VERTEX
  5
416
  8
LAYER_1
 10
25.93661770078551
 20
26.43274888825532
 30
0.0
  0
VERTEX
  5
417
  8
LAYER_1
 10
25.93165675421132
 20
26.44576890414474
 30
0.0
 42
0.3010108570047031
  0
VERTEX
  5
418
  8
LAYER_1
 10
25.75905
 20
26.56003531621792
 30
0.0
 42
0.4142135623730951
  0
VERTEX
  5
419
  8
LAYER_1
 10
25.57155
 20
26.37253531621792
 30
0.0
  0
VERTEX
  5
41A
  8
LAYER_1
 10
25.57192640105679
 20
26.36071483151614
 30
0.0
  0
VERTEX
  5
41B
  8
LAYER_1
 10
25.57304960556235
 20
26.34891717058142
 30
0.0
  0
VERTEX
  5
41C
  8
LAYER_1
 10
25.57491061551949
 20
26.33721319545125
 30
0.0
  0
SEQEND
  5
F15
  8
LAYER_1
  0
POLYLINE
  5
95
  8
LAYER_1
 66
     1
 10
0.0
 20
0.0
 30
0.0
 70
     1
  0
VERTEX
  5
41D
  8
LAYER_1
 10
1.015249999999995
 20
2.028835316217904
 30
0.0
  0
VERTEX
  5
41E
  8
LAYER_1
 10
26.01524999999999
 20
2.028835316217904
 30
0.0
  0
VERTEX
  5
41F
  8
LAYER_1
 10
26.01524999999999
 20
11.6538353162179
 30
0.0
  0
VERTEX
  5
420
  8
LAYER_1
 10
1.015249999999995
 20
11.6538353162179
 30
0.0
  0
SEQEND
  5
F16
  8
LAYER_1
  0
POLYLINE
  5
96
  8
LAYER_1
 66
     1
 10
0.0
 20
0.0
 30
0.0
 70
     1
  0
VERTEX
  5
421
  8
LAYER_1
 10
0.9527499999999947
 20
1.903835316217904
 30
0.0
  0
VERTEX
  5
422
  8
LAYER_1
 10
1.265249999999995
 20
1.903835316217904
 30
0.0
  0
VERTEX
  5
423
  8
LAYER_1
 10
1.265249999999995
 20
11.7788353162179
 30
0.0
  0
VERTEX
  5
424
  8
LAYER_1
 10
0.9527499999999947
 20
11.7788353162179
 30
0.0
  0
SEQEND
  5
F17
  8
LAYER_1
  0
POLYLINE
  5
97
  8
LAYER_1
 66
     1
 10
0.0
 20
0.0
 30
0.0
 70
     1
  0
VERTEX
  5
425
  8
LAYER_1
 10
25.76524999999999
 20
1.903835316217904
 30
0.0
  0
VERTEX
  5
426
  8
LAYER_1
 10
26.07774999999999
 20
1.903835316217904
 30
0.0
  0
VERTEX
  5
427
  8
LAYER_1
 10
26.07774999999999
 20
11.7788353162179
 30
0.0
  0
VERTEX
  5
428
  8
LAYER_1
 10
25.76524999999999
 20
11.7788353162179
 30
0.0
  0
SEQEND
  5
F18
  8
LAYER_1
  0
POLYLINE
  5
98
  8
LAYER_1
 66
     1
 10
0.0
 20
0.0
 30
0.0
 70
     1
  0
VERTEX
  5
429
  8
LAYER_1
 10
4.265249999999995
 20
6.903835316217904
 30
0.0
 42
0.4142135623730951
  0
VERTEX
  5
42A
  8
LAYER_1
 10
5.265249999999995
 20
5.903835316217904
 30
0.0
  0
VERTEX
  5
42B
  8
LAYER_1
 10
9.265249999999995
 20
5.903835316217904
 30
0.0
 42
0.4142135623730951
  0
VERTEX
  5
42C
  8
LAYER_1
 10
10.26524999999999
 20
6.903835316217904
 30
0.0
 42
0.4142135623730951
  0
VERTEX
  5
42D
  8
LAYER_1
 10
9.265249999999995
 20
7.903835316217904
 30
0.0
  0
VERTEX
  5
42E
  8
LAYER_1
 10
5.265249999999995
 20
7.903835316217904
 30
0.0
 42
0.4142135623730951
  0
SEQEND
  5
F19
  8
LAYER_1
  0
POLYLINE
  5
99
  8
LAYER_1
 66
     1
 10
0.0
 20
0.0
 30
0.0
 70
     1
  0
VERTEX
  5
42F
  8
LAYER_1
 10
16.26524999999999
 20
6.903835316217904
 30
0.0
 42
0.4142135623730951
  0
VERTEX
  5
430
  8
LAYER_1
 10
17.26524999999999
 20
5.903835316217904
 30
0.0
  0
VERTEX
  5
431
  8
LAYER_1
 10
21.26524999999999
 20
5.903835316217904
 30
0.0
 42
0.4142135623730951
  0
VERTEX
  5
432
  8
LAYER_1
 10
22.26524999999999
 20
6.903835316217904
 30
0.0
 42
0.4142135623730951
  0
VERTEX
  5
433
  8
LAYER_1
 10
21.26524999999999
 20
7.903835316217904
 30
0.0
  0
VERTEX
  5
434
  8
LAYER_1
 10
17.26524999999999
 20
7.903835316217904
 30
0.0
 42
0.4142135623730951
  0
SEQEND
  5
F1A
  8
LAYER_1
  0
POLYLINE
  5
9A
  8
LAYER_1
 66
     1
 10
0.0
 20
0.0
 30
0.0
 70
     1
  0
VERTEX
  5
435
  8
LAYER_1
 10
0.7972499999999911
 20
30.53561892060538
 30
0.0
  0
VERTEX
  5
436
  8
LAYER_1
 10
26.04724999999999
 20
30.53561892060538
 30
0.0
  0
VERTEX
  5
437
  8
LAYER_1
 10
26.04724999999999
 20
30.91061892060538
 30
0.0
  0
VERTEX
  5
438
  8
LAYER_1
 10
0.7972499999999911
 20
30.91061892060538
 30
0.0
  0
SEQEND
  5
F1B
  8
LAYER_1
  0
POLYLINE
  5
9B
  8
LAYER_1
 66
     1
 10
0.0
 20
0.0
 30
0.0
 70
     1
  0
VERTEX
  5
439
  8
LAYER_1
 10
0.7972499999999911
 20
34.59811892060539
 30
0.0
  0
VERTEX
  5
43A
  8
LAYER_1
 10
26.04724999999999
 20
34.59811892060539
 30
0.0
  0
VERTEX
  5
43B
  8
LAYER_1
 10
26.04724999999999
 20
35.09811892060539
 30
0.0
  0
VERTEX
  5
43C
  8
LAYER_1
 10
0.7972499999999911
 20
35.09811892060539
 30
0.0
  0
SEQEND
  5
F1C
  8
LAYER_1
  0
POLYLINE
  5
9C
  8
LAYER_1
 66
     1
 10
0.0
 20
0.0
 30
0.0
 70
     1
  0
VERTEX
  5
43D
  8
LAYER_1
 10
25.92224999999999
 20
34.97311892060539
 30
0.0
  0
VERTEX
  5
43E
  8
LAYER_1
 10
25.92224999999999
 20
28.59811892060538
 30
0.0
  0
VERTEX
  5
43F
  8
LAYER_1
 10
0.9222499999999911
 20
28.59811892060538
 30
0.0
  0
VERTEX
  5
440
  8
LAYER_1
 10
0.9222499999999911
 20
34.97311892060539
 30
0.0
  0
VERTEX
  5
441
  8
LAYER_1
 10
3.234749999999991
 20
34.97311892060539
 30
0.0
  0
VERTEX
  5
442
  8
LAYER_1
 10
3.234749999999991
 20
34.16061892060539
 30
0.0
  0
VERTEX
  5
443
  8
LAYER_1
 10
3.609749999999991
 20
34.16061892060539
 30
0.0
  0
VERTEX
  5
444
  8
LAYER_1
 10
3.609749999999991
 20
34.97311892060539
 30
0.0
  0
SEQEND
  5
F1D
  8
LAYER_1
  0
POLYLINE
  5
9D
  8
LAYER_1
 66
     1
 10
0.0
 20
0.0
 30
0.0
 70
     1
  0
VERTEX
  5
445
  8
LAYER_1
 10
4.047249999999991
 20
32.59811892060539
 30
0.0
 42
0.4142135623730951
  0
VERTEX
  5
446
  8
LAYER_1
 10
5.047249999999991
 20
31.59811892060539
 30
0.0
  0
VERTEX
  5
447
  8
LAYER_1
 10
9.047249999999991
 20
31.59811892060539
 30
0.0
 42
0.4142135623730951
  0
VERTEX
  5
448
  8
LAYER_1
 10
10.04724999999999
 20
32.59811892060539
 30
0.0
 42
0.4142135623730951
  0
VERTEX
  5
449
  8
LAYER_1
 10
9.047249999999991
 20
33.59811892060539
 30
0.0
  0
VERTEX
  5
44A
  8
LAYER_1
 10
5.047249999999991
 20
33.59811892060539
 30
0.0
 42
0.4142135623730951
  0
SEQEND
  5
F1E
  8
LAYER_1
  0
POLYLINE
  5
9E
  8
LAYER_1
 66
     1
 10
0.0
 20
0.0
 30
0.0
 70
     1
  0
VERTEX
  5
44B
  8
LAYER_1
 10
16.17224999999999
 20
32.59811892060539
 30
0.0
 42
0.4142135623730951
  0
VERTEX
  5
44C
  8
LAYER_1
 10
17.17224999999999
 20
31.59811892060539
 30
0.0
  0
VERTEX
  5
44D
  8
LAYER_1
 10
21.17224999999999
 20
31.59811892060539
 30
0.0
 42
0.4142135623730951
  0
VERTEX
  5
44E
  8
LAYER_1
 10
22.17224999999999
 20
32.59811892060539
 30
0.0
 42
0.4142135623730951
  0
VERTEX
  5
44F
  8
LAYER_1
 10
21.17224999999999
 20
33.59811892060539
 30
0.0
  0
VERTEX
  5
450
  8
LAYER_1
 10
17.17224999999999
 20
33.59811892060539
 30
0.0
 42
0.4142135623730951
  0
SEQEND
  5
F1F
  8
LAYER_1
  0
POLYLINE
  5
9F
  8
LAYER_1
 66
     1
 10
0.0
 20
0.0
 30
0.0
 70
     1
  0
VERTEX
  5
451
  8
LAYER_1
 10
1.073032969717062
 20
13.2788353162179
 30
0.0
  0
VERTEX
  5
452
  8
LAYER_1
 10
25.54173296971706
 20
13.2788353162179
 30
0.0
  0
VERTEX
  5
453
  8
LAYER_1
 10
25.54173296971706
 20
21.2163353162179
 30
0.0
  0
VERTEX
  5
454
  8
LAYER_1
 10
1.073032969717062
 20
21.2163353162179
 30
0.0
  0
SEQEND
  5
F20
  8
LAYER_1
  0
POLYLINE
  5
A0
  8
LAYER_1
 66
     1
 10
0.0
 20
0.0
 30
0.0
 70
     1
  0
VERTEX
  5
455
  8
LAYER_1
 10
6.635532969717062
 20
19.4663353162179
 30
0.0
 42
0.4142135623730951
  0
VERTEX
  5
456
  8
LAYER_1
 10
6.073032969717062
 20
18.9038353162179
 30
0.0
 42
0.4142135623730951
  0
VERTEX
  5
457
  8
LAYER_1
 10
6.635532969717062
 20
18.3413353162179
 30
0.0
 42
0.4142135623730951
  0
VERTEX
  5
458
  8
LAYER_1
 10
7.198032969717062
 20
18.9038353162179
 30
0.0
 42
0.4142135623730951
  0
SEQEND
  5
F21
  8
LAYER_1
  0
POLYLINE
  5
A1
  8
LAYER_1
 66
     1
 10
0.0
 20
0.0
 30
0.0
 70
     1
  0
VERTEX
  5
459
  8
LAYER_1
 10
6.635532969717062
 20
19.2788353162179
 30
0.0
 42
0.4142135623730951
  0
VERTEX
  5
45A
  8
LAYER_1
 10
6.260532969717062
 20
18.9038353162179
 30
0.0
 42
0.4142135623730951
  0
VERTEX
  5
45B
  8
LAYER_1
 10
6.635532969717062
 20
18.5288353162179
 30
0.0
 42
0.4142135623730951
  0
VERTEX
  5
45C
  8
LAYER_1
 10
7.010532969717062
 20
18.9038353162179
 30
0.0
 42
0.4142135623730951
  0
SEQEND
  5
F22
  8
LAYER_1
  0
POLYLINE
  5
A2
  8
LAYER_1
 66
     1
 10
0.0
 20
0.0
 30
0.0
 70
     1
  0
VERTEX
  5
45D
  8
LAYER_1
 10
8.105032969717058
 20
19.2788353162179
 30
0.0
 42
0.4142135623730951
  0
VERTEX
  5
45E
  8
LAYER_1
 10
7.730032969717058
 20
18.9038353162179
 30
0.0
 42
0.4142135623730951
  0
VERTEX
  5
45F
  8
LAYER_1
 10
8.105032969717058
 20
18.5288353162179
 30
0.0
 42
0.4142135623730951
  0
VERTEX
  5
460
  8
LAYER_1
 10
8.480032969717058
 20
18.9038353162179
 30
0.0
 42
0.4142135623730951
  0
SEQEND
  5
F23
  8
LAYER_1
  0
POLYLINE
  5
A3
  8
LAYER_1
 66
     1
 10
0.0
 20
0.0
 30
0.0
 70
     1
  0
VERTEX
  5
461
  8
LAYER_1
 10
8.105032969717058
 20
19.4663353162179
 30
0.0
 42
0.4142135623730951
  0
VERTEX
  5
462
  8
LAYER_1
 10
7.542532969717058
 20
18.9038353162179
 30
0.0
 42
0.4142135623730951
  0
VERTEX
  5
463
  8
LAYER_1
 10
8.105032969717058
 20
18.3413353162179
 30
0.0
 42
0.4142135623730951
  0
VERTEX
  5
464
  8
LAYER_1
 10
8.667532969717058
 20
18.9038353162179
 30
0.0
 42
0.4142135623730951
  0
SEQEND
  5
F24
  8
LAYER_1
  0
POLYLINE
  5
A4
  8
LAYER_1
 66
     1
 10
0.0
 20
0.0
 30
0.0
 70
     1
  0
VERTEX
  5
465
  8
LAYER_1
 10
9.385532969717062
 20
18.0913353162179
 30
0.0
 42
0.4142135623730951
  0
VERTEX
  5
466
  8
LAYER_1
 10
8.823032969717062
 20
17.5288353162179
 30
0.0
 42
0.4142135623730951
  0
VERTEX
  5
467
  8
LAYER_1
 10
9.385532969717062
 20
16.9663353162179
 30
0.0
 42
0.4142135623730951
  0
VERTEX
  5
468
  8
LAYER_1
 10
9.948032969717062
 20
17.5288353162179
 30
0.0
 42
0.4142135623730951
  0
SEQEND
  5
F25
  8
LAYER_1
  0
POLYLINE
  5
A5
  8
LAYER_1
 66
     1
 10
0.0
 20
0.0
 30
0.0
 70
     1
  0
VERTEX
  5
469
  8
LAYER_1
 10
9.385532969717062
 20
17.9038353162179
 30
0.0
 42
0.4142135623730951
  0
VERTEX
  5
46A
  8
LAYER_1
 10
9.010532969717062
 20
17.5288353162179
 30
0.0
 42
0.4142135623730951
  0
VERTEX
  5
46B
  8
LAYER_1
 10
9.385532969717062
 20
17.1538353162179
 30
0.0
 42
0.4142135623730951
  0
VERTEX
  5
46C
  8
LAYER_1
 10
9.760532969717062
 20
17.5288353162179
 30
0.0
 42
0.4142135623730951
  0
SEQEND
  5
F26
  8
LAYER_1
  0
POLYLINE
  5
A6
  8
LAYER_1
 66
     1
 10
0.0
 20
0.0
 30
0.0
 70
     1
  0
VERTEX
  5
46D
  8
LAYER_1
 10
11.88553296971706
 20
19.4038353162179
 30
0.0
 42
0.4142135623730951
  0
VERTEX
  5
46E
  8
LAYER_1
 10
11.51053296971706
 20
19.0288353162179
 30
0.0
 42
0.4142135623730951
  0
VERTEX
  5
46F
  8
LAYER_1
 10
11.88553296971706
 20
18.6538353162179
 30
0.0
 42
0.4142135623730951
  0
VERTEX
  5
470
  8
LAYER_1
 10
12.26053296971706
 20
19.0288353162179
 30
0.0
 42
0.4142135623730951
  0
SEQEND
  5
F27
  8
LAYER_1
  0
POLYLINE
  5
A7
  8
LAYER_1
 66
     1
 10
0.0
 20
0.0
 30
0.0
 70
     1
  0
VERTEX
  5
471
  8
LAYER_1
 10
11.88553296971706
 20
19.5913353162179
 30
0.0
 42
0.4142135623730951
  0
VERTEX
  5
472
  8
LAYER_1
 10
11.32303296971706
 20
19.0288353162179
 30
0.0
 42
0.4142135623730951
  0
VERTEX
  5
473
  8
LAYER_1
 10
11.88553296971706
 20
18.4663353162179
 30
0.0
 42
0.4142135623730951
  0
VERTEX
  5
474
  8
LAYER_1
 10
12.44803296971706
 20
19.0288353162179
 30
0.0
 42
0.4142135623730951
  0
SEQEND
  5
F28
  8
LAYER_1
  0
POLYLINE
  5
A8
  8
LAYER_1
 66
     1
 10
0.0
 20
0.0
 30
0.0
 70
     1
  0
VERTEX
  5
475
  8
LAYER_1
 10
14.88553296971706
 20
19.5913353162179
 30
0.0
 42
0.4142135623730951
  0
VERTEX
  5
476
  8
LAYER_1
 10
14.32303296971706
 20
19.0288353162179
 30
0.0
 42
0.4142135623730951
  0
VERTEX
  5
477
  8
LAYER_1
 10
14.88553296971706
 20
18.4663353162179
 30
0.0
 42
0.4142135623730951
  0
VERTEX
  5
478
  8
LAYER_1
 10
15.44803296971706
 20
19.0288353162179
 30
0.0
 42
0.4142135623730951
  0
SEQEND
  5
F29
  8
LAYER_1
  0
POLYLINE
  5
A9
  8
LAYER_1
 66
     1
 10
0.0
 20
0.0
 30
0.0
 70
     1
  0
VERTEX
  5
479
  8
LAYER_1
 10
14.88553296971706
 20
19.4038353162179
 30
0.0
 42
0.4142135623730951
  0
VERTEX
  5
47A
  8
LAYER_1
 10
14.51053296971706
 20
19.0288353162179
 30
0.0
 42
0.4142135623730951
  0
VERTEX
  5
47B
  8
LAYER_1
 10
14.88553296971706
 20
18.6538353162179
 30
0.0
 42
0.4142135623730951
  0
VERTEX
  5
47C
  8
LAYER_1
 10
15.26053296971706
 20
19.0288353162179
 30
0.0
 42
0.4142135623730951
  0
SEQEND
  5
F2A
  8
LAYER_1
  0
POLYLINE
  5
AA
  8
LAYER_1
 66
     1
 10
0.0
 20
0.0
 30
0.0
 70
     1
  0
VERTEX
  5
47D
  8
LAYER_1
 10
13.38553296971706
 20
15.5288353162179
 30
0.0
 42
0.4142135623730951
  0
VERTEX
  5
47E
  8
LAYER_1
 10
13.01053296971706
 20
15.1538353162179
 30
0.0
 42
0.4142135623730951
  0
VERTEX
  5
47F
  8
LAYER_1
 10
13.38553296971706
 20
14.7788353162179
 30
0.0
 42
0.4142135623730951
  0
VERTEX
  5
480
  8
LAYER_1
 10
13.76053296971706
 20
15.1538353162179
 30
0.0
 42
0.4142135623730951
  0
SEQEND
  5
F2B
  8
LAYER_1
  0
POLYLINE
  5
AB
  8
LAYER_1
 66
     1
 10
0.0
 20
0.0
 30
0.0
 70
     1
  0
VERTEX
  5
481
  8
LAYER_1
 10
13.38553296971706
 20
15.7163353162179
 30
0.0
 42
0.4142135623730951
  0
VERTEX
  5
482
  8
LAYER_1
 10
12.82303296971706
 20
15.1538353162179
 30
0.0
 42
0.4142135623730951
  0
VERTEX
  5
483
  8
LAYER_1
 10
13.38553296971706
 20
14.5913353162179
 30
0.0
 42
0.4142135623730951
  0
VERTEX
  5
484
  8
LAYER_1
 10
13.94803296971706
 20
15.1538353162179
 30
0.0
 42
0.4142135623730951
  0
SEQEND
  5
F2C
  8
LAYER_1
  0
POLYLINE
  5
AC
  8
LAYER_1
 66
     1
 10
0.0
 20
0.0
 30
0.0
 70
     1
  0
VERTEX
  5
485
  8
LAYER_1
 10
18.19803296971706
 20
17.9663353162179
 30
0.0
 42
0.4142135623730951
  0
VERTEX
  5
486
  8
LAYER_1
 10
17.63553296971706
 20
17.4038353162179
 30
0.0
 42
0.4142135623730951
  0
VERTEX
  5
487
  8
LAYER_1
 10
18.19803296971706
 20
16.8413353162179
 30
0.0
 42
0.4142135623730951
  0
VERTEX
  5
488
  8
LAYER_1
 10
18.76053296971706
 20
17.4038353162179
 30
0.0
 42
0.4142135623730951
  0
SEQEND
  5
F2D
  8
LAYER_1
  0
POLYLINE
  5
AD
  8
LAYER_1
 66
     1
 10
0.0
 20
0.0
 30
0.0
 70
     1
  0
VERTEX
  5
489
  8
LAYER_1
 10
18.19803296971706
 20
17.7788353162179
 30
0.0
 42
0.4142135623730951
  0
VERTEX
  5
48A
  8
LAYER_1
 10
17.82303296971706
 20
17.4038353162179
 30
0.0
 42
0.4142135623730951
  0
VERTEX
  5
48B
  8
LAYER_1
 10
18.19803296971706
 20
17.0288353162179
 30
0.0
 42
0.4142135623730951
  0
VERTEX
  5
48C
  8
LAYER_1
 10
18.57303296971706
 20
17.4038353162179
 30
0.0
 42
0.4142135623730951
  0
SEQEND
  5
F2E
  8
LAYER_1
  0
POLYLINE
  5
AE
  8
LAYER_1
 66
     1
 10
0.0
 20
0.0
 30
0.0
 70
     1
  0
VERTEX
  5
48D
  8
LAYER_1
 10
19.57303296971706
 20
17.5288353162179
 30
0.0
  0
VERTEX
  5
48E
  8
LAYER_1
 10
20.38553296971706
 20
17.5288353162179
 30
0.0
  0
VERTEX
  5
48F
  8
LAYER_1
 10
20.38553296971706
 20
20.0288353162179
 30
0.0
  0
VERTEX
  5
490
  8
LAYER_1
 10
19.57303296971706
 20
20.0288353162179
 30
0.0
  0
SEQEND
  5
F2F
  8
LAYER_1
  0
POLYLINE
  5
AF
  8
LAYER_1
 66
     1
 10
0.0
 20
0.0
 30
0.0
 70
     1
  0
VERTEX
  5
491
  8
LAYER_1
 10
1.207336725109556
 20
37.22116468378209
 30
0.0
 42
0.4142135623730951
  0
VERTEX
  5
492
  8
LAYER_1
 10
1.832336725109556
 20
36.59616468378209
 30
0.0
  0
VERTEX
  5
493
  8
LAYER_1
 10
24.83233672510957
 20
36.59616468378209
 30
0.0
 42
0.4142135623730951
  0
VERTEX
  5
494
  8
LAYER_1
 10
25.45733672510957
 20
37.22116468378209
 30
0.0
  0
VERTEX
  5
495
  8
LAYER_1
 10
25.45733672510957
 20
45.47116468378209
 30
0.0
 42
0.4142135623730951
  0
VERTEX
  5
496
  8
LAYER_1
 10
24.83233672510957
 20
46.09616468378209
 30
0.0
  0
VERTEX
  5
497
  8
LAYER_1
 10
1.832336725109556
 20
46.09616468378209
 30
0.0
 42
0.4142135623730951
  0
VERTEX
  5
498
  8
LAYER_1
 10
1.207336725109556
 20
45.47116468378209
 30
0.0
  0
SEQEND
  5
F30
  8
LAYER_1
  0
POLYLINE
  5
B0
  8
LAYER_1
 66
     1
 10
0.0
 20
0.0
 30
0.0
 70
     1
  0
VERTEX
  5
499
  8
LAYER_1
 10
13.33233672510956
 20
45.03366468378209
 30
0.0
 42
0.4142135623730951
  0
VERTEX
  5
49A
  8
LAYER_1
 10
10.58233672510956
 20
42.28366468378209
 30
0.0
 42
0.4142135623730951
  0
VERTEX
  5
49B
  8
LAYER_1
 10
13.33233672510956
 20
39.53366468378209
 30
0.0
 42
0.4142135623730951
  0
VERTEX
  5
49C
  8
LAYER_1
 10
16.08233672510956
 20
42.28366468378209
 30
0.0
 42
0.4142135623730951
  0
SEQEND
  5
F31
  8
LAYER_1
  0
POLYLINE
  5
B1
  8
LAYER_1
 66
     1
 10
0.0
 20
0.0
 30
0.0
 70
     1
  0
VERTEX
  5
49D
  8
LAYER_1
 10
27.10534862241703
 20
34.31726591689915
 30
0.0
  0
VERTEX
  5
49E
  8
LAYER_1
 10
52.10534862241701
 20
34.31726591689915
 30
0.0
  0
VERTEX
  5
49F
  8
LAYER_1
 10
52.10534862241701
 20
38.12976591689915
 30
0.0
  0
VERTEX
  5
4A0
  8
LAYER_1
 10
27.10534862241703
 20
38.12976591689915
 30
0.0
  0
SEQEND
  5
F32
  8
LAYER_1
  0
POLYLINE
  5
B2
  8
LAYER_1
 66
     1
 10
0.0
 20
0.0
 30
0.0
 70
     1
  0
VERTEX
  5
4A1
  8
LAYER_1
 10
27.04284862241703
 20
34.19226591689915
 30
0.0
  0
VERTEX
  5
4A2
  8
LAYER_1
 10
27.35534862241703
 20
34.19226591689915
 30
0.0
  0
VERTEX
  5
4A3
  8
LAYER_1
 10
27.35534862241703
 20
38.25476591689915
 30
0.0
  0
VERTEX
  5
4A4
  8
LAYER_1
 10
27.04284862241703
 20
38.25476591689915
 30
0.0
  0
SEQEND
  5
F33
  8
LAYER_1
  0
POLYLINE
  5
B3
  8
LAYER_1
 66
     1
 10
0.0
 20
0.0
 30
0.0
 70
     1
  0
VERTEX
  5
4A5
  8
LAYER_1
 10
51.85534862241701
 20
34.19226591689915
 30
0.0
  0
VERTEX
  5
4A6
  8
LAYER_1
 10
52.16784862241701
 20
34.19226591689915
 30
0.0
  0
VERTEX
  5
4A7
  8
LAYER_1
 10
52.16784862241701
 20
38.25476591689915
 30
0.0
  0
VERTEX
  5
4A8
  8
LAYER_1
 10
51.85534862241701
 20
38.25476591689915
 30
0.0
  0
SEQEND
  5
F34
  8
LAYER_1
  0
POLYLINE
  5
B4
  8
LAYER_1
 66
     1
 10
0.0
 20
0.0
 30
0.0
 70
     1
  0
VERTEX
  5
4A9
  8
LAYER_1
 10
26.98034862241703
 20
34.19226591689915
 30
0.0
  0
VERTEX
  5
4AA
  8
LAYER_1
 10
52.23034862241701
 20
34.19226591689915
 30
0.0
  0
VERTEX
  5
4AB
  8
LAYER_1
 10
52.23034862241701
 20
34.81726591689915
 30
0.0
  0
VERTEX
  5
4AC
  8
LAYER_1
 10
26.98034862241703
 20
34.81726591689915
 30
0.0
  0
SEQEND
  5
F35
  8
LAYER_1
  0
POLYLINE
  5
B5
  8
LAYER_1
 66
     1
 10
0.0
 20
0.0
 30
0.0
 70
     1
  0
VERTEX
  5
4AD
  8
LAYER_1
 10
27.00465391433114
 20
28.65488499105324
 30
0.0
  0
VERTEX
  5
4AE
  8
LAYER_1
 10
27.31715391433114
 20
28.65488499105324
 30
0.0
  0
VERTEX
  5
4AF
  8
LAYER_1
 10
27.31715391433114
 20
32.65488499105324
 30
0.0
  0
VERTEX
  5
4B0
  8
LAYER_1
 10
27.00465391433114
 20
32.65488499105324
 30
0.0
  0
SEQEND
  5
F36
  8
LAYER_1
  0
POLYLINE
  5
B6
  8
LAYER_1
 66
     1
 10
0.0
 20
0.0
 30
0.0
 70
     1
  0
VERTEX
  5
4B1
  8
LAYER_1
 10
51.81715391433113
 20
28.65488499105324
 30
0.0
  0
VERTEX
  5
4B2
  8
LAYER_1
 10
52.12965391433113
 20
28.65488499105324
 30
0.0
  0
VERTEX
  5
4B3
  8
LAYER_1
 10
52.12965391433113
 20
32.65488499105324
 30
0.0
  0
VERTEX
  5
4B4
  8
LAYER_1
 10
51.81715391433113
 20
32.65488499105324
 30
0.0
  0
SEQEND
  5
F37
  8
LAYER_1
  0
POLYLINE
  5
B7
  8
LAYER_1
 66
     1
 10
0.0
 20
0.0
 30
0.0
 70
     1
  0
VERTEX
  5
4B5
  8
LAYER_1
 10
52.06715391433113
 20
28.77988499105324
 30
0.0
  0
VERTEX
  5
4B6
  8
LAYER_1
 10
52.06715391433113
 20
32.52988499105324
 30
0.0
  0
VERTEX
  5
4B7
  8
LAYER_1
 10
27.06715391433114
 20
32.52988499105324
 30
0.0
  0
VERTEX
  5
4B8
  8
LAYER_1
 10
27.06715391433114
 20
28.77988499105324
 30
0.0
  0
VERTEX
  5
4B9
  8
LAYER_1
 10
31.30715391433114
 20
28.77988499105324
 30
0.0
  0
VERTEX
  5
4BA
  8
LAYER_1
 10
31.30715391433114
 20
29.77988499105324
 30
0.0
  0
VERTEX
  5
4BB
  8
LAYER_1
 10
34.30715391433114
 20
29.77988499105324
 30
0.0
  0
VERTEX
  5
4BC
  8
LAYER_1
 10
34.30715391433114
 20
28.77988499105324
 30
0.0
  0
SEQEND
  5
F38
  8
LAYER_1
  0
POLYLINE
  5
B8
  8
LAYER_1
 66
     1
 10
0.0
 20
0.0
 30
0.0
 70
     1
  0
VERTEX
  5
4BD
  8
LAYER_1
 10
97.96196167431702
 20
-29.10782219224522
 30
0.0
  0
VERTEX
  5
4BE
  8
LAYER_1
 10
122.961961674317
 20
-29.10782219224522
 30
0.0
  0
VERTEX
  5
4BF
  8
LAYER_1
 10
122.961961674317
 20
-4.295322192245223
 30
0.0
  0
VERTEX
  5
4C0
  8
LAYER_1
 10
97.96196167431702
 20
-4.295322192245223
 30
0.0
  0
SEQEND
  5
F39
  8
LAYER_1
  0
POLYLINE
  5
B9
  8
LAYER_1
 66
     1
 10
0.0
 20
0.0
 30
0.0
 70
     1
  0
VERTEX
  5
4C1
  8
LAYER_1
 10
97.89946167431702
 20
-29.23282219224522
 30
0.0
  0
VERTEX
  5
4C2
  8
LAYER_1
 10
98.21196167431702
 20
-29.23282219224522
 30
0.0
  0
VERTEX
  5
4C3
  8
LAYER_1
 10
98.21196167431702
 20
-4.170322192245223
 30
0.0
  0
VERTEX
  5
4C4
  8
LAYER_1
 10
97.89946167431702
 20
-4.170322192245223
 30
0.0
  0
SEQEND
  5
F3A
  8
LAYER_1
  0
POLYLINE
  5
BA
  8
LAYER_1
 66
     1
 10
0.0
 20
0.0
 30
0.0
 70
     1
  0
VERTEX
  5
4C5
  8
LAYER_1
 10
122.711961674317
 20
-29.23282219224522
 30
0.0
  0
VERTEX
  5
4C6
  8
LAYER_1
 10
123.024461674317
 20
-29.23282219224522
 30
0.0
  0
VERTEX
  5
4C7
  8
LAYER_1
 10
123.024461674317
 20
-4.170322192245223
 30
0.0
  0
VERTEX
  5
4C8
  8
LAYER_1
 10
122.711961674317
 20
-4.170322192245223
 30
0.0
  0
SEQEND
  5
F3B
  8
LAYER_1
  0
POLYLINE
  5
BB
  8
LAYER_1
 66
     1
 10
0.0
 20
0.0
 30
0.0
 70
     1
  0
VERTEX
  5
4C9
  8
LAYER_1
 10
97.83696167431702
 20
-29.17032219224522
 30
0.0
  0
VERTEX
  5
4CA
  8
LAYER_1
 10
123.086961674317
 20
-29.17032219224522
 30
0.0
  0
VERTEX
  5
4CB
  8
LAYER_1
 10
123.086961674317
 20
-28.85782219224522
 30
0.0
  0
VERTEX
  5
4CC
  8
LAYER_1
 10
97.83696167431702
 20
-28.85782219224522
 30
0.0
  0
SEQEND
  5
F3C
  8
LAYER_1
  0
POLYLINE
  5
BC
  8
LAYER_1
 66
     1
 10
0.0
 20
0.0
 30
0.0
 70
     1
  0
VERTEX
  5
4CD
  8
LAYER_1
 10
97.83696167431702
 20
-4.545322192245223
 30
0.0
  0
VERTEX
  5
4CE
  8
LAYER_1
 10
123.086961674317
 20
-4.545322192245223
 30
0.0
  0
VERTEX
  5
4CF
  8
LAYER_1
 10
123.086961674317
 20
-4.232822192245223
 30
0.0
  0
VERTEX
  5
4D0
  8
LAYER_1
 10
97.83696167431702
 20
-4.232822192245223
 30
0.0
  0
SEQEND
  5
F3D
  8
LAYER_1
  0
POLYLINE
  5
BD
  8
LAYER_1
 66
     1
 10
0.0
 20
0.0
 30
0.0
 70
     1
  0
VERTEX
  5
4D1
  8
LAYER_1
 10
124.8332273811522
 20
22.20151316976104
 30
0.0
  0
VERTEX
  5
4D2
  8
LAYER_1
 10
149.8332273811522
 20
22.20151316976104
 30
0.0
  0
VERTEX
  5
4D3
  8
LAYER_1
 10
149.8332273811522
 20
45.13901316976104
 30
0.0
  0
VERTEX
  5
4D4
  8
LAYER_1
 10
124.8332273811522
 20
45.13901316976104
 30
0.0
  0
SEQEND
  5
F3E
  8
LAYER_1
  0
POLYLINE
  5
BE
  8
LAYER_1
 66
     1
 10
0.0
 20
0.0
 30
0.0
 70
     1
  0
VERTEX
  5
4D5
  8
LAYER_1
 10
124.7707273811522
 20
22.07651316976104
 30
0.0
  0
VERTEX
  5
4D6
  8
LAYER_1
 10
125.0832273811522
 20
22.07651316976104
 30
0.0
  0
VERTEX
  5
4D7
  8
LAYER_1
 10
125.0832273811522
 20
45.26401316976104
 30
0.0
  0
VERTEX
  5
4D8
  8
LAYER_1
 10
124.7707273811522
 20
45.26401316976104
 30
0.0
  0
SEQEND
  5
F3F
  8
LAYER_1
  0
POLYLINE
  5
BF
  8
LAYER_1
 66
     1
 10
0.0
 20
0.0
 30
0.0
 70
     1
  0
VERTEX
  5
4D9
  8
LAYER_1
 10
149.5832273811522
 20
22.07651316976104
 30
0.0
  0
VERTEX
  5
4DA
  8
LAYER_1
 10
149.8957273811522
 20
22.07651316976104
 30
0.0
  0
VERTEX
  5
4DB
  8
LAYER_1
 10
149.8957273811522
 20
45.26401316976104
 30
0.0
  0
VERTEX
  5
4DC
  8
LAYER_1
 10
149.5832273811522
 20
45.26401316976104
 30
0.0
  0
SEQEND
  5
F40
  8
LAYER_1
  0
POLYLINE
  5
C0
  8
LAYER_1
 66
     1
 10
0.0
 20
0.0
 30
0.0
 70
     1
  0
VERTEX
  5
4DD
  8
LAYER_1
 10
124.7082273811522
 20
44.88901316976104
 30
0.0
  0
VERTEX
  5
4DE
  8
LAYER_1
 10
149.9582273811522
 20
44.88901316976104
 30
0.0
  0
VERTEX
  5
4DF
  8
LAYER_1
 10
149.9582273811522
 20
45.20151316976104
 30
0.0
  0
VERTEX
  5
4E0
  8
LAYER_1
 10
124.7082273811522
 20
45.20151316976104
 30
0.0
  0
SEQEND
  5
F41
  8
LAYER_1
  0
POLYLINE
  5
C1
  8
LAYER_1
 66
     1
 10
0.0
 20
0.0
 30
0.0
 70
     1
  0
VERTEX
  5
4E1
  8
LAYER_1
 10
96.8846666863049
 20
-36.8957126309103
 30
0.0
 42
0.4142135623730951
  0
VERTEX
  5
4E2
  8
LAYER_1
 10
96.79464488489843
 20
-37.04785097345265
 30
0.0
 42
0.4142135623730951
  0
VERTEX
  5
4E3
  8
LAYER_1
 10
96.94678322744079
 20
-37.13787277485911
 30
0.0
 42
0.4142135623730951
  0
VERTEX
  5
4E4
  8
LAYER_1
 10
97.03680502884725
 20
-36.98573443231675
 30
0.0
 42
0.4142135623730951
  0
SEQEND
  5
F42
  8
LAYER_1
  0
POLYLINE
  5
C2
  8
LAYER_1
 66
     1
 10
0.0
 20
0.0
 30
0.0
 70
     1
  0
VERTEX
  5
4E5
  8
LAYER_1
 10
97.5800888475834
 20
-36.58828293552819
 30
0.0
 42
0.4142135623730951
  0
VERTEX
  5
4E6
  8
LAYER_1
 10
97.49006704617693
 20
-36.74042127807055
 30
0.0
 42
0.4142135623730951
  0
VERTEX
  5
4E7
  8
LAYER_1
 10
97.6422053887193
 20
-36.83044307947701
 30
0.0
 42
0.4142135623730951
  0
VERTEX
  5
4E8
  8
LAYER_1
 10
97.73222719012576
 20
-36.67830473693465
 30
0.0
 42
0.4142135623730951
  0
SEQEND
  5
F43
  8
LAYER_1
  0
POLYLINE
  5
C3
  8
LAYER_1
 66
     1
 10
0.0
 20
0.0
 30
0.0
 70
     1
  0
VERTEX
  5
4E9
  8
LAYER_1
 10
98.44475445250647
 20
-38.51733884951855
 30
0.0
 42
0.4142135623730951
  0
VERTEX
  5
4EA
  8
LAYER_1
 10
98.35473265110001
 20
-38.66947719206091
 30
0.0
 42
0.4142135623730951
  0
VERTEX
  5
4EB
  8
LAYER_1
 10
98.50687099364237
 20
-38.75949899346737
 30
0.0
 42
0.4142135623730951
  0
VERTEX
  5
4EC
  8
LAYER_1
 10
98.59689279504883
 20
-38.60736065092501
 30
0.0
 42
0.4142135623730951
  0
SEQEND
  5
F44
  8
LAYER_1
  0
POLYLINE
  5
C4
  8
LAYER_1
 66
     1
 10
0.0
 20
0.0
 30
0.0
 70
     1
  0
VERTEX
  5
4ED
  8
LAYER_1
 10
101.7256602197957
 20
-45.20341427508962
 30
0.0
 42
0.4142135623730951
  0
VERTEX
  5
4EE
  8
LAYER_1
 10
101.6356384183893
 20
-45.35555261763198
 30
0.0
 42
0.4142135623730951
  0
VERTEX
  5
4EF
  8
LAYER_1
 10
101.7877767609316
 20
-45.44557441903844
 30
0.0
 42
0.4142135623730951
  0
VERTEX
  5
4F0
  8
LAYER_1
 10
101.8777985623381
 20
-45.29343607649608
 30
0.0
 42
0.4142135623730951
  0
SEQEND
  5
F45
  8
LAYER_1
  0
POLYLINE
  5
C5
  8
LAYER_1
 66
     1
 10
0.0
 20
0.0
 30
0.0
 70
     1
  0
VERTEX
  5
4F1
  8
LAYER_1
 10
101.7415086009723
 20
-44.45358174122015
 30
0.0
 42
0.4142135623730951
  0
VERTEX
  5
4F2
  8
LAYER_1
 10
101.6514867995658
 20
-44.60572008376251
 30
0.0
 42
0.4142135623730951
  0
VERTEX
  5
4F3
  8
LAYER_1
 10
101.8036251421082
 20
-44.69574188516896
 30
0.0
 42
0.4142135623730951
  0
VERTEX
  5
4F4
  8
LAYER_1
 10
101.8936469435147
 20
-44.54360354262661
 30
0.0
 42
0.4142135623730951
  0
SEQEND
  5
F46
  8
LAYER_1
  0
POLYLINE
  5
C6
  8
LAYER_1
 66
     1
 10
0.0
 20
0.0
 30
0.0
 70
     1
  0
VERTEX
  5
4F5
  8
LAYER_1
 10
102.4299017910659
 20
-42.60007167167333
 30
0.0
 42
0.4142135623730951
  0
VERTEX
  5
4F6
  8
LAYER_1
 10
102.3398799896595
 20
-42.75221001421568
 30
0.0
 42
0.4142135623730951
  0
VERTEX
  5
4F7
  8
LAYER_1
 10
102.4920183322018
 20
-42.84223181562215
 30
0.0
 42
0.4142135623730951
  0
VERTEX
  5
4F8
  8
LAYER_1
 10
102.5820401336083
 20
-42.69009347307979
 30
0.0
 42
0.4142135623730951
  0
SEQEND
  5
F47
  8
LAYER_1
  0
POLYLINE
  5
C7
  8
LAYER_1
 66
     1
 10
0.0
 20
0.0
 30
0.0
 70
     1
  0
VERTEX
  5
4F9
  8
LAYER_1
 10
102.4116233501821
 20
-43.34984890431076
 30
0.0
 42
0.4142135623730951
  0
VERTEX
  5
4FA
  8
LAYER_1
 10
102.3216015487756
 20
-43.50198724685312
 30
0.0
 42
0.4142135623730951
  0
VERTEX
  5
4FB
  8
LAYER_1
 10
102.473739891318
 20
-43.59200904825958
 30
0.0
 42
0.4142135623730951
  0
VERTEX
  5
4FC
  8
LAYER_1
 10
102.5637616927244
 20
-43.43987070571723
 30
0.0
 42
0.4142135623730951
  0
SEQEND
  5
F48
  8
LAYER_1
  0
POLYLINE
  5
C8
  8
LAYER_1
 66
     1
 10
0.0
 20
0.0
 30
0.0
 70
     1
  0
VERTEX
  5
4FD
  8
LAYER_1
 10
117.5908746906684
 20
-42.96967338139964
 30
0.0
 42
0.4142135623730951
  0
VERTEX
  5
4FE
  8
LAYER_1
 10
117.5008528892619
 20
-43.121811723942
 30
0.0
 42
0.4142135623730951
  0
VERTEX
  5
4FF
  8
LAYER_1
 10
117.6529912318043
 20
-43.21183352534847
 30
0.0
 42
0.4142135623730951
  0
VERTEX
  5
500
  8
LAYER_1
 10
117.7430130332107
 20
-43.05969518280611
 30
0.0
 42
0.4142135623730951
  0
SEQEND
  5
F49
  8
LAYER_1
  0
POLYLINE
  5
C9
  8
LAYER_1
 66
     1
 10
0.0
 20
0.0
 30
0.0
 70
     1
  0
VERTEX
  5
501
  8
LAYER_1
 10
117.5725962499079
 20
-43.71945061396639
 30
0.0
 42
0.4142135623730951
  0
VERTEX
  5
502
  8
LAYER_1
 10
117.4825744485014
 20
-43.87158895650875
 30
0.0
 42
0.4142135623730951
  0
VERTEX
  5
503
  8
LAYER_1
 10
117.6347127910438
 20
-43.96161075791521
 30
0.0
 42
0.4142135623730951
  0
VERTEX
  5
504
  8
LAYER_1
 10
117.7247345924502
 20
-43.80947241537285
 30
0.0
 42
0.4142135623730951
  0
SEQEND
  5
F4A
  8
LAYER_1
  0
POLYLINE
  5
CA
  8
LAYER_1
 66
     1
 10
0.0
 20
0.0
 30
0.0
 70
     1
  0
VERTEX
  5
505
  8
LAYER_1
 10
118.7063064553405
 20
-44.81214791483549
 30
0.0
 42
0.4142135623730951
  0
VERTEX
  5
506
  8
LAYER_1
 10
118.6162846539341
 20
-44.96428625737784
 30
0.0
 42
0.4142135623730951
  0
VERTEX
  5
507
  8
LAYER_1
 10
118.7684229964764
 20
-45.0543080587843
 30
0.0
 42
0.4142135623730951
  0
VERTEX
  5
508
  8
LAYER_1
 10
118.8584447978829
 20
-44.90216971624194
 30
0.0
 42
0.4142135623730951
  0
SEQEND
  5
F4B
  8
LAYER_1
  0
POLYLINE
  5
CB
  8
LAYER_1
 66
     1
 10
0.0
 20
0.0
 30
0.0
 70
     1
  0
VERTEX
  5
509
  8
LAYER_1
 10
118.6904580741511
 20
-45.56198044870439
 30
0.0
 42
0.4142135623730951
  0
VERTEX
  5
50A
  8
LAYER_1
 10
118.6004362727446
 20
-45.71411879124675
 30
0.0
 42
0.4142135623730951
  0
VERTEX
  5
50B
  8
LAYER_1
 10
118.752574615287
 20
-45.80414059265321
 30
0.0
 42
0.4142135623730951
  0
VERTEX
  5
50C
  8
LAYER_1
 10
118.8425964166934
 20
-45.65200225011085
 30
0.0
 42
0.4142135623730951
  0
SEQEND
  5
F4C
  8
LAYER_1
  0
POLYLINE
  5
CC
  8
LAYER_1
 66
     1
 10
0.0
 20
0.0
 30
0.0
 70
     1
  0
VERTEX
  5
50D
  8
LAYER_1
 10
120.6593982646872
 20
-42.7986076515709
 30
0.0
 42
0.4142135623730951
  0
VERTEX
  5
50E
  8
LAYER_1
 10
120.5693764632807
 20
-42.95074599411326
 30
0.0
 42
0.4142135623730951
  0
VERTEX
  5
50F
  8
LAYER_1
 10
120.7215148058231
 20
-43.04076779551972
 30
0.0
 42
0.4142135623730951
  0
VERTEX
  5
510
  8
LAYER_1
 10
120.8115366072295
 20
-42.88862945297736
 30
0.0
 42
0.4142135623730951
  0
SEQEND
  5
F4D
  8
LAYER_1
  0
POLYLINE
  5
CD
  8
LAYER_1
 66
     1
 10
0.0
 20
0.0
 30
0.0
 70
     1
  0
VERTEX
  5
511
  8
LAYER_1
 10
120.6182801948494
 20
-43.51891244422045
 30
0.0
 42
0.4142135623730951
  0
VERTEX
  5
512
  8
LAYER_1
 10
120.528258393443
 20
-43.67105078676281
 30
0.0
 42
0.4142135623730951
  0
VERTEX
  5
513
  8
LAYER_1
 10
120.6803967359853
 20
-43.76107258816927
 30
0.0
 42
0.4142135623730951
  0
VERTEX
  5
514
  8
LAYER_1
 10
120.7704185373918
 20
-43.60893424562691
 30
0.0
 42
0.4142135623730951
  0
SEQEND
  5
F4E
  8
LAYER_1
  0
POLYLINE
  5
CE
  8
LAYER_1
 66
     1
 10
0.0
 20
0.0
 30
0.0
 70
     1
  0
VERTEX
  5
515
  8
LAYER_1
 10
126.6313134683262
 20
-42.914700068286
 30
0.0
 42
0.4142135623730951
  0
VERTEX
  5
516
  8
LAYER_1
 10
126.5412916669197
 20
-43.06683841082835
 30
0.0
 42
0.4142135623730951
  0
VERTEX
  5
517
  8
LAYER_1
 10
126.6934300094621
 20
-43.15686021223482
 30
0.0
 42
0.4142135623730951
  0
VERTEX
  5
518
  8
LAYER_1
 10
126.7834518108685
 20
-43.00472186969246
 30
0.0
 42
0.4142135623730951
  0
SEQEND
  5
F4F
  8
LAYER_1
  0
POLYLINE
  5
CF
  8
LAYER_1
 66
     1
 10
0.0
 20
0.0
 30
0.0
 70
     1
  0
VERTEX
  5
519
  8
LAYER_1
 10
126.622039473078
 20
-43.65649594281188
 30
0.0
 42
0.4142135623730951
  0
VERTEX
  5
51A
  8
LAYER_1
 10
126.5320176716715
 20
-43.80863428535424
 30
0.0
 42
0.4142135623730951
  0
VERTEX
  5
51B
  8
LAYER_1
 10
126.6841560142139
 20
-43.8986560867607
 30
0.0
 42
0.4142135623730951
  0
VERTEX
  5
51C
  8
LAYER_1
 10
126.7741778156203
 20
-43.74651774421834
 30
0.0
 42
0.4142135623730951
  0
SEQEND
  5
F50
  8
LAYER_1
  0
POLYLINE
  5
D0
  8
LAYER_1
 66
     1
 10
0.0
 20
0.0
 30
0.0
 70
     1
  0
VERTEX
  5
51D
  8
LAYER_1
 10
126.4534283304398
 20
-33.44052308005533
 30
0.0
 42
0.4142135623730951
  0
VERTEX
  5
51E
  8
LAYER_1
 10
126.3634065290333
 20
-33.59266142259769
 30
0.0
 42
0.4142135623730951
  0
VERTEX
  5
51F
  8
LAYER_1
 10
126.5155448715757
 20
-33.68268322400414
 30
0.0
 42
0.4142135623730951
  0
VERTEX
  5
520
  8
LAYER_1
 10
126.6055666729821
 20
-33.53054488146179
 30
0.0
 42
0.4142135623730951
  0
SEQEND
  5
F51
  8
LAYER_1
  0
POLYLINE
  5
D1
  8
LAYER_1
 66
     1
 10
0.0
 20
0.0
 30
0.0
 70
     1
  0
VERTEX
  5
521
  8
LAYER_1
 10
126.3001388703059
 20
-32.85918736476528
 30
0.0
 42
0.4142135623730951
  0
VERTEX
  5
522
  8
LAYER_1
 10
126.2101170688995
 20
-33.01132570730763
 30
0.0
 42
0.4142135623730951
  0
VERTEX
  5
523
  8
LAYER_1
 10
126.3622554114418
 20
-33.10134750871409
 30
0.0
 42
0.4142135623730951
  0
VERTEX
  5
524
  8
LAYER_1
 10
126.4522772128483
 20
-32.94920916617173
 30
0.0
 42
0.4142135623730951
  0
SEQEND
  5
F52
  8
LAYER_1
  0
POLYLINE
  5
D2
  8
LAYER_1
 66
     1
 10
0.0
 20
0.0
 30
0.0
 70
     1
  0
VERTEX
  5
525
  8
LAYER_1
 10
120.6415848756682
 20
-34.9313200673169
 30
0.0
 42
0.4142135623730951
  0
VERTEX
  5
526
  8
LAYER_1
 10
120.5515630742617
 20
-35.08345840985926
 30
0.0
 42
0.4142135623730951
  0
VERTEX
  5
527
  8
LAYER_1
 10
120.7037014168041
 20
-35.17348021126572
 30
0.0
 42
0.4142135623730951
  0
VERTEX
  5
528
  8
LAYER_1
 10
120.7937232182105
 20
-35.02134186872336
 30
0.0
 42
0.4142135623730951
  0
SEQEND
  5
F53
  8
LAYER_1
  0
POLYLINE
  5
D3
  8
LAYER_1
 66
     1
 10
0.0
 20
0.0
 30
0.0
 70
     1
  0
VERTEX
  5
529
  8
LAYER_1
 10
120.4849963160565
 20
-34.35071076258444
 30
0.0
 42
0.4142135623730951
  0
VERTEX
  5
52A
  8
LAYER_1
 10
120.39497451465
 20
-34.5028491051268
 30
0.0
 42
0.4142135623730951
  0
VERTEX
  5
52B
  8
LAYER_1
 10
120.5471128571924
 20
-34.59287090653326
 30
0.0
 42
0.4142135623730951
  0
VERTEX
  5
52C
  8
LAYER_1
 10
120.6371346585988
 20
-34.4407325639909
 30
0.0
 42
0.4142135623730951
  0
SEQEND
  5
F54
  8
LAYER_1
  0
POLYLINE
  5
D4
  8
LAYER_1
 66
     1
 10
0.0
 20
0.0
 30
0.0
 70
     1
  0
VERTEX
  5
52D
  8
LAYER_1
 10
120.6479830408751
 20
-43.65998250259226
 30
0.0
  0
VERTEX
  5
52E
  8
LAYER_1
 10
126.6466675881347
 20
-43.78561570866786
 30
0.0
  0
VERTEX
  5
52F
  8
LAYER_1
 10
126.6623717388941
 20
-43.03578014026041
 30
0.0
  0
VERTEX
  5
530
  8
LAYER_1
 10
120.6636871916345
 20
-42.9101469341848
 30
0.0
  0
SEQEND
  5
F55
  8
LAYER_1
  0
POLYLINE
  5
D5
  8
LAYER_1
 66
     1
 10
0.0
 20
0.0
 30
0.0
 70
     1
  0
VERTEX
  5
531
  8
LAYER_1
 10
120.6737666247698
 20
-35.0772063698576
 30
0.0
  0
VERTEX
  5
532
  8
LAYER_1
 10
126.4856100795414
 20
-33.58640938259603
 30
0.0
  0
VERTEX
  5
533
  8
LAYER_1
 10
126.2992604561337
 20
-32.85992895074958
 30
0.0
  0
VERTEX
  5
534
  8
LAYER_1
 10
120.4874170013621
 20
-34.35072593801114
 30
0.0
  0
SEQEND
  5
F56
  8
LAYER_1
  0
POLYLINE
  5
D6
  8
LAYER_1
 66
     1
 10
0.0
 20
0.0
 30
0.0
 70
     1
  0
VERTEX
  5
535
  8
LAYER_1
 10
101.7567184903911
 20
-45.32449434704125
 30
0.0
  0
VERTEX
  5
536
  8
LAYER_1
 10
118.7215163447594
 20
-45.68306052065658
 30
0.0
  0
VERTEX
  5
537
  8
LAYER_1
 10
118.7373647259085
 20
-44.9332279868099
 30
0.0
  0
VERTEX
  5
538
  8
LAYER_1
 10
101.7725668715402
 20
-44.57466181319455
 30
0.0
  0
SEQEND
  5
F57
  8
LAYER_1
  0
POLYLINE
  5
D7
  8
LAYER_1
 66
     1
 10
0.0
 20
0.0
 30
0.0
 70
     1
  0
VERTEX
  5
539
  8
LAYER_1
 10
102.4426816207359
 20
-43.47092897629643
 30
0.0
  0
VERTEX
  5
53A
  8
LAYER_1
 10
117.6036545203384
 20
-43.84053068602275
 30
0.0
  0
VERTEX
  5
53B
  8
LAYER_1
 10
117.6219329612363
 20
-43.09075345337406
 30
0.0
  0
VERTEX
  5
53C
  8
LAYER_1
 10
102.4609600616339
 20
-42.72115174364774
 30
0.0
  0
SEQEND
  5
F58
  8
LAYER_1
  0
POLYLINE
  5
D8
  8
LAYER_1
 66
     1
 10
0.0
 20
0.0
 30
0.0
 70
     1
  0
VERTEX
  5
53D
  8
LAYER_1
 10
98.47581272307443
 20
-38.63841892149296
 30
0.0
  0
VERTEX
  5
53E
  8
LAYER_1
 10
97.59621921835631
 20
-36.70082695241403
 30
0.0
  0
VERTEX
  5
53F
  8
LAYER_1
 10
96.91329438728332
 20
-37.01084900824867
 30
0.0
  0
VERTEX
  5
540
  8
LAYER_1
 10
98.25672329590006
 20
-39.97018994289829
 30
0.0
  0
VERTEX
  5
541
  8
LAYER_1
 10
98.36721807322127
 20
-39.92002949116848
 30
0.0
  0
SEQEND
  5
F59
  8
LAYER_1
  0
POLYLINE
  5
D9
  8
LAYER_1
 66
     1
 10
0.0
 20
0.0
 30
0.0
 70
     1
  0
VERTEX
  5
542
  8
LAYER_1
 10
98.23658734378105
 20
-39.72756052179437
 30
0.0
 42
0.4142135623730951
  0
VERTEX
  5
543
  8
LAYER_1
 10
98.1465655423746
 20
-39.87969886433674
 30
0.0
 42
0.4142135623730951
  0
VERTEX
  5
544
  8
LAYER_1
 10
98.29870388491696
 20
-39.9697206657432
 30
0.0
 42
0.4142135623730951
  0
VERTEX
  5
545
  8
LAYER_1
 10
98.38872568632343
 20
-39.81758232320084
 30
0.0
 42
0.4142135623730951
  0
SEQEND
  5
F5A
  8
LAYER_1
  0
POLYLINE
  5
DA
  8
LAYER_1
 66
     1
 10
0.0
 20
0.0
 30
0.0
 70
     1
  0
VERTEX
  5
546
  8
LAYER_1
 10
95.02554391469265
 20
-35.82276100340183
 30
0.0
  0
VERTEX
  5
547
  8
LAYER_1
 10
98.04620169654893
 20
-35.04767053193406
 30
0.0
  0
VERTEX
  5
548
  8
LAYER_1
 10
98.05377554765103
 20
-35.0457412108665
 30
0.0
 42
-0.3535584977823277
  0
VERTEX
  5
549
  8
LAYER_1
 10
98.19669979250345
 20
-35.11104490973021
 30
0.0
  0
VERTEX
  5
54A
  8
LAYER_1
 10
98.21038567853205
 20
-35.14081527360479
 30
0.0
  0
VERTEX
  5
54B
  8
LAYER_1
 10
100.7736534520551
 20
-40.73740424214675
 30
0.0
  0
VERTEX
  5
54C
  8
LAYER_1
 10
100.7799507778363
 20
-40.74984053166535
 30
0.0
  0
VERTEX
  5
54D
  8
LAYER_1
 10
100.7870884492462
 20
-40.76155646627168
 30
0.0
  0
VERTEX
  5
54E
  8
LAYER_1
 10
100.7950275612246
 20
-40.77257388469644
 30
0.0
  0
VERTEX
  5
54F
  8
LAYER_1
 10
100.8037292087107
 20
-40.78291462567027
 30
0.0
  0
VERTEX
  5
550
  8
LAYER_1
 10
100.8131544866444
 20
-40.79260052792387
 30
0.0
  0
VERTEX
  5
551
  8
LAYER_1
 10
100.8232644899651
 20
-40.80165343018789
 30
0.0
  0
VERTEX
  5
552
  8
LAYER_1
 10
100.8340203136123
 20
-40.81009517119303
 30
0.0
  0
VERTEX
  5
553
  8
LAYER_1
 10
100.8453830525255
 20
-40.81794758966994
 30
0.0
  0
VERTEX
  5
554
  8
LAYER_1
 10
100.8573138016445
 20
-40.82523252434932
 30
0.0
  0
VERTEX
  5
555
  8
LAYER_1
 10
100.8697736559086
 20
-40.83197181396182
 30
0.0
  0
VERTEX
  5
556
  8
LAYER_1
 10
100.8827237102575
 20
-40.83818729723814
 30
0.0
  0
VERTEX
  5
557
  8
LAYER_1
 10
100.8961250596306
 20
-40.84390081290893
 30
0.0
  0
VERTEX
  5
558
  8
LAYER_1
 10
100.9099387989676
 20
-40.84913419970486
 30
0.0
  0
VERTEX
  5
559
  8
LAYER_1
 10
100.924126023208
 20
-40.85390929635663
 30
0.0
  0
VERTEX
  5
55A
  8
LAYER_1
 10
100.9386478272913
 20
-40.85824794159491
 30
0.0
  0
VERTEX
  5
55B
  8
LAYER_1
 10
100.9534653061571
 20
-40.86217197415036
 30
0.0
  0
VERTEX
  5
55C
  8
LAYER_1
 10
100.968539554745
 20
-40.86570323275365
 30
0.0
  0
VERTEX
  5
55D
  8
LAYER_1
 10
100.9838316679944
 20
-40.86886355613547
 30
0.0
  0
VERTEX
  5
55E
  8
LAYER_1
 10
100.999302740845
 20
-40.8716747830265
 30
0.0
  0
VERTEX
  5
55F
  8
LAYER_1
 10
101.0149138682363
 20
-40.87415875215739
 30
0.0
  0
VERTEX
  5
560
  8
LAYER_1
 10
101.0464006663991
 20
-40.8782322720615
 30
0.0
  0
VERTEX
  5
561
  8
LAYER_1
 10
101.0779808219991
 20
-40.88125882569318
 30
0.0
  0
VERTEX
  5
562
  8
LAYER_1
 10
101.109343094553
 20
-40.88341312289784
 30
0.0
  0
VERTEX
  5
563
  8
LAYER_1
 10
101.1401762435769
 20
-40.88486987352088
 30
0.0
  0
VERTEX
  5
564
  8
LAYER_1
 10
101.1990102091007
 20
-40.88638957440364
 30
0.0
  0
VERTEX
  5
565
  8
LAYER_1
 10
118.2416220759326
 20
-41.17079599149127
 30
0.0
  0
VERTEX
  5
566
  8
LAYER_1
 10
118.2557463392629
 20
-41.17079697913029
 30
0.0
  0
VERTEX
  5
567
  8
LAYER_1
 10
118.2702878581523
 20
-41.17030908135868
 30
0.0
  0
VERTEX
  5
568
  8
LAYER_1
 10
118.2851494104311
 20
-41.16929105539243
 30
0.0
  0
VERTEX
  5
569
  8
LAYER_1
 10
118.3002337739296
 20
-41.16770165844751
 30
0.0
  0
VERTEX
  5
56A
  8
LAYER_1
 10
118.315443726478
 20
-41.16549964773991
 30
0.0
  0
VERTEX
  5
56B
  8
LAYER_1
 10
118.3306820459065
 20
-41.16264378048561
 30
0.0
  0
VERTEX
  5
56C
  8
LAYER_1
 10
118.3458515100455
 20
-41.1590928139006
 30
0.0
  0
VERTEX
  5
56D
  8
LAYER_1
 10
118.3608548967251
 20
-41.15480550520086
 30
0.0
  0
VERTEX
  5
56E
  8
LAYER_1
 10
118.3755949837756
 20
-41.14974061160237
 30
0.0
  0
VERTEX
  5
56F
  8
LAYER_1
 10
118.3899745490274
 20
-41.14385689032112
 30
0.0
  0
VERTEX
  5
570
  8
LAYER_1
 10
118.4038963703105
 20
-41.13711309857308
 30
0.0
  0
VERTEX
  5
571
  8
LAYER_1
 10
118.4172632254553
 20
-41.12946799357425
 30
0.0
  0
VERTEX
  5
572
  8
LAYER_1
 10
118.4237081587978
 20
-41.12529456023579
 30
0.0
  0
VERTEX
  5
573
  8
LAYER_1
 10
118.4299778922921
 20
-41.12088033254062
 30
0.0
  0
VERTEX
  5
574
  8
LAYER_1
 10
118.4360602731669
 20
-41.11622015514074
 30
0.0
  0
VERTEX
  5
575
  8
LAYER_1
 10
118.441943148651
 20
-41.11130887268814
 30
0.0
  0
VERTEX
  5
576
  8
LAYER_1
 10
118.4476143659733
 20
-41.10614132983484
 30
0.0
  0
VERTEX
  5
577
  8
LAYER_1
 10
118.4530617723624
 20
-41.10071237123282
 30
0.0
  0
VERTEX
  5
578
  8
LAYER_1
 10
118.4582732150472
 20
-41.09501684153409
 30
0.0
  0
VERTEX
  5
579
  8
LAYER_1
 10
118.4632365412565
 20
-41.08904958539064
 30
0.0
  0
VERTEX
  5
57A
  8
LAYER_1
 10
118.4681985062782
 20
-41.08247472427843
 30
0.0
  0
VERTEX
  5
57B
  8
LAYER_1
 10
118.4729003285953
 20
-41.07562740403648
 30
0.0
  0
VERTEX
  5
57C
  8
LAYER_1
 10
118.4773515389434
 20
-41.06852420940854
 30
0.0
  0
VERTEX
  5
57D
  8
LAYER_1
 10
118.4815616680579
 20
-41.06118172513833
 30
0.0
  0
VERTEX
  5
57E
  8
LAYER_1
 10
118.4892968055284
 20
-41.04584522664604
 30
0.0
  0
VERTEX
  5
57F
  8
LAYER_1
 10
118.4961819868909
 20
-41.02975058650946
 30
0.0
  0
VERTEX
  5
580
  8
LAYER_1
 10
118.5022934580296
 20
-41.01303048267847
 30
0.0
  0
VERTEX
  5
581
  8
LAYER_1
 10
118.5077074648284
 20
-40.99581759310291
 30
0.0
  0
VERTEX
  5
582
  8
LAYER_1
 10
118.5125002531715
 20
-40.97824459573263
 30
0.0
  0
VERTEX
  5
583
  8
LAYER_1
 10
118.5167480689431
 20
-40.96044416851749
 30
0.0
  0
VERTEX
  5
584
  8
LAYER_1
 10
118.5205271580271
 20
-40.94254898940734
 30
0.0
  0
VERTEX
  5
585
  8
LAYER_1
 10
118.5239137663078
 20
-40.92469173635205
 30
0.0
  0
VERTEX
  5
586
  8
LAYER_1
 10
118.5298145239953
 20
-40.88962172020542
 30
0.0
  0
VERTEX
  5
587
  8
LAYER_1
 10
118.5350603090784
 20
-40.85629554367645
 30
0.0
  0
VERTEX
  5
588
  8
LAYER_1
 10
118.5402610886299
 20
-40.82577463036396
 30
0.0
  0
VERTEX
  5
589
  8
LAYER_1
 10
119.75122426192
 20
-34.35321552867188
 30
0.0
  0
VERTEX
  5
58A
  8
LAYER_1
 10
119.7537580668754
 20
-34.34173628438809
 30
0.0
  0
VERTEX
  5
58B
  8
LAYER_1
 10
119.7570005449644
 20
-34.33049891708644
 30
0.0
  0
VERTEX
  5
58C
  8
LAYER_1
 10
119.7609237929079
 20
-34.31950555250172
 30
0.0
  0
VERTEX
  5
58D
  8
LAYER_1
 10
119.7654999074267
 20
-34.30875831636867
 30
0.0
  0
VERTEX
  5
58E
  8
LAYER_1
 10
119.7707009852419
 20
-34.29825933442206
 30
0.0
  0
VERTEX
  5
58F
  8
LAYER_1
 10
119.7764991230744
 20
-34.28801073239664
 30
0.0
  0
VERTEX
  5
590
  8
LAYER_1
 10
119.7828664176451
 20
-34.27801463602719
 30
0.0
  0
VERTEX
  5
591
  8
LAYER_1
 10
119.7897749656749
 20
-34.26827317104846
 30
0.0
  0
VERTEX
  5
592
  8
LAYER_1
 10
119.7971968638849
 20
-34.2587884631952
 30
0.0
  0
VERTEX
  5
593
  8
LAYER_1
 10
119.8051042089958
 20
-34.24956263820219
 30
0.0
  0
VERTEX
  5
594
  8
LAYER_1
 10
119.8134690977287
 20
-34.24059782180417
 30
0.0
  0
VERTEX
  5
595
  8
LAYER_1
 10
119.8222636268045
 20
-34.23189613973592
 30
0.0
  0
VERTEX
  5
596
  8
LAYER_1
 10
119.8314598929441
 20
-34.22345971773218
 30
0.0
  0
VERTEX
  5
597
  8
LAYER_1
 10
119.8410299928685
 20
-34.21529068152773
 30
0.0
  0
VERTEX
  5
598
  8
LAYER_1
 10
119.8509460232985
 20
-34.20739115685732
 30
0.0
  0
VERTEX
  5
599
  8
LAYER_1
 10
119.8611800809553
 20
-34.1997632694557
 30
0.0
  0
VERTEX
  5
59A
  8
LAYER_1
 10
119.8717042625595
 20
-34.19240914505765
 30
0.0
  0
VERTEX
  5
59B
  8
LAYER_1
 10
119.8824906648323
 20
-34.18533090939792
 30
0.0
  0
VERTEX
  5
59C
  8
LAYER_1
 10
119.8935113844945
 20
-34.17853068821127
 30
0.0
  0
VERTEX
  5
59D
  8
LAYER_1
 10
119.904738518267
 20
-34.17201060723247
 30
0.0
  0
VERTEX
  5
59E
  8
LAYER_1
 10
119.9161441628709
 20
-34.16577279219626
 30
0.0
  0
VERTEX
  5
59F
  8
LAYER_1
 10
119.927700415027
 20
-34.15981936883742
 30
0.0
  0
VERTEX
  5
5A0
  8
LAYER_1
 10
119.9511531288797
 20
-34.14877420009087
 30
0.0
  0
VERTEX
  5
5A1
  8
LAYER_1
 10
119.9748734335926
 20
-34.1388921068709
 30
0.0
  0
VERTEX
  5
5A2
  8
LAYER_1
 10
119.9986381029331
 20
-34.13019009505558
 30
0.0
  0
VERTEX
  5
5A3
  8
LAYER_1
 10
120.0222239106688
 20
-34.12268517052299
 30
0.0
  0
VERTEX
  5
5A4
  8
LAYER_1
 10
120.0454076305671
 20
-34.11639433915123
 30
0.0
  0
VERTEX
  5
5A5
  8
LAYER_1
 10
127.5073611923827
 20
-32.26685073514128
 30
0.0
  0
VERTEX
  5
5A6
  8
LAYER_1
 10
127.4832785993994
 20
-46.79090480600887
 30
0.0
  0
VERTEX
  5
5A7
  8
LAYER_1
 10
127.4752221463779
 20
-46.78982912368141
 30
0.0
  0
VERTEX
  5
5A8
  8
LAYER_1
 10
100.6500966706074
 20
-46.50236690834406
 30
0.0
  0
VERTEX
  5
5A9
  8
LAYER_1
 10
95.09302214893262
 20
-35.96874402173953
 30
0.0
  0
SEQEND
  5
F5B
  8
LAYER_1
  0
POLYLINE
  5
DB
  8
LAYER_1
 66
     1
 10
0.0
 20
0.0
 30
0.0
 70
     1
  0
VERTEX
  5
5AA
  8
LAYER_1
 10
97.88064137270187
 20
-2.328818145408512
 30
0.0
  0
VERTEX
  5
5AB
  8
LAYER_1
 10
121.3181413727019
 20
-2.328818145408512
 30
0.0
  0
VERTEX
  5
5AC
  8
LAYER_1
 10
121.3181413727019
 20
45.6086818545915
 30
0.0
  0
VERTEX
  5
5AD
  8
LAYER_1
 10
97.8806413727019
 20
45.6086818545915
 30
0.0
  0
SEQEND
  5
F5C
  8
LAYER_1
  0
POLYLINE
  5
DC
  8
LAYER_1
 66
     1
 10
0.0
 20
0.0
 30
0.0
 70
     1
  0
VERTEX
  5
5AE
  8
LAYER_1
 10
97.75564137270187
 20
-2.516318145408512
 30
0.0
  0
VERTEX
  5
5AF
  8
LAYER_1
 10
121.4431413727019
 20
-2.516318145408512
 30
0.0
  0
VERTEX
  5
5B0
  8
LAYER_1
 10
121.4431413727019
 20
-2.016318145408512
 30
0.0
  0
VERTEX
  5
5B1
  8
LAYER_1
 10
97.75564137270187
 20
-2.016318145408512
 30
0.0
  0
SEQEND
  5
F5D
  8
LAYER_1
  0
POLYLINE
  5
DD
  8
LAYER_1
 66
     1
 10
0.0
 20
0.0
 30
0.0
 70
     1
  0
VERTEX
  5
5B2
  8
LAYER_1
 10
109.5994413727019
 20
44.6711818545915
 30
0.0
 42
0.4142135623730951
  0
VERTEX
  5
5B3
  8
LAYER_1
 10
109.2144413727019
 20
44.28618185459149
 30
0.0
 42
0.4142135623730951
  0
VERTEX
  5
5B4
  8
LAYER_1
 10
109.5994413727019
 20
43.9011818545915
 30
0.0
 42
0.4142135623730951
  0
VERTEX
  5
5B5
  8
LAYER_1
 10
109.9844413727019
 20
44.28618185459149
 30
0.0
 42
0.4142135623730951
  0
SEQEND
  5
F5E
  8
LAYER_1
  0
POLYLINE
  5
DE
  8
LAYER_1
 66
     1
 10
0.0
 20
0.0
 30
0.0
 70
     1
  0
VERTEX
  5
5B6
  8
LAYER_1
 10
100.1243913727019
 20
21.21018675255068
 30
0.0
  0
VERTEX
  5
5B7
  8
LAYER_1
 10
100.1410983114774
 20
21.24793205867313
 30
0.0
  0
VERTEX
  5
5B8
  8
LAYER_1
 10
100.1844125971917
 20
21.24793205867313
 30
0.0
  0
VERTEX
  5
5B9
  8
LAYER_1
 10
100.1979676482121
 20
21.24820821141548
 30
0.0
  0
VERTEX
  5
5BA
  8
LAYER_1
 10
100.2101691278039
 20
21.24903666964252
 30
0.0
  0
VERTEX
  5
5BB
  8
LAYER_1
 10
100.2210170359672
 20
21.25041743335425
 30
0.0
  0
VERTEX
  5
5BC
  8
LAYER_1
 10
100.2305113727019
 20
21.25235050255068
 30
0.0
  0
VERTEX
  5
5BD
  8
LAYER_1
 10
100.238652138008
 20
21.2548358772318
 30
0.0
  0
VERTEX
  5
5BE
  8
LAYER_1
 10
100.2454393318856
 20
21.25787355739762
 30
0.0
  0
VERTEX
  5
5BF
  8
LAYER_1
 10
100.2483253395386
 20
21.25959951203728
 30
0.0
  0
VERTEX
  5
5C0
  8
LAYER_1
 10
100.2508729543345
 20
21.26146354304813
 30
0.0
  0
VERTEX
  5
5C1
  8
LAYER_1
 10
100.2530821762733
 20
21.26346565043014
 30
0.0
  0
VERTEX
  5
5C2
  8
LAYER_1
 10
100.2549530053549
 20
21.26560583418333
 30
0.0
  0
VERTEX
  5
5C3
  8
LAYER_1
 10
100.2585012961713
 20
21.27138555396969
 30
0.0
  0
VERTEX
  5
5C4
  8
LAYER_1
 10
100.262339638008
 20
21.27988782557364
 30
0.0
  0
VERTEX
  5
5C5
  8
LAYER_1
 10
100.2664680308651
 20
21.2911126489952
 30
0.0
  0
VERTEX
  5
5C6
  8
LAYER_1
 10
100.2708864747427
 20
21.30506002423435
 30
0.0
  0
VERTEX
  5
5C7
  8
LAYER_1
 10
100.2755949696407
 20
21.32172995129111
 30
0.0
  0
VERTEX
  5
5C8
  8
LAYER_1
 10
100.280593515559
 20
21.34112243016547
 30
0.0
  0
VERTEX
  5
5C9
  8
LAYER_1
 10
100.2858821124978
 20
21.36323746085744
 30
0.0
  0
VERTEX
  5
5CA
  8
LAYER_1
 10
100.291460760457
 20
21.38807504336701
 30
0.0
  0
VERTEX
  5
5CB
  8
LAYER_1
 10
100.3527195359672
 20
21.69751114030578
 30
0.0
  0
VERTEX
  5
5CC
  8
LAYER_1
 10
100.3584045359672
 20
21.72828434502517
 30
0.0
  0
VERTEX
  5
5CD
  8
LAYER_1
 10
100.3624652502529
 20
21.75363117857109
 30
0.0
  0
VERTEX
  5
5CE
  8
LAYER_1
 10
100.3649016788243
 20
21.77355164094354
 30
0.0
  0
VERTEX
  5
5CF
  8
LAYER_1
 10
100.3655107859672
 20
21.78147698293971
 30
0.0
  0
VERTEX
  5
5D0
  8
LAYER_1
 10
100.3657138216815
 20
21.78804573214252
 30
0.0
  0
VERTEX
  5
5D1
  8
LAYER_1
 10
100.3655011175998
 20
21.79151648718477
 30
0.0
  0
VERTEX
  5
5D2
  8
LAYER_1
 10
100.3648630053549
 20
21.79479833139315
 30
0.0
  0
VERTEX
  5
5D3
  8
LAYER_1
 10
100.3637994849468
 20
21.79789126476768
 30
0.0
  0
VERTEX
  5
5D4
  8
LAYER_1
 10
100.3623105563753
 20
21.80079528730833
 30
0.0
  0
VERTEX
  5
5D5
  8
LAYER_1
 10
100.3603962196406
 20
21.80351039901512
 30
0.0
  0
VERTEX
  5
5D6
  8
LAYER_1
 10
100.3580564747427
 20
21.80603659988805
 30
0.0
  0
VERTEX
  5
5D7
  8
LAYER_1
 10
100.3552913216815
 20
21.80837388992712
 30
0.0
  0
VERTEX
  5
5D8
  8
LAYER_1
 10
100.352100760457
 20
21.81052226913231
 30
0.0
  0
VERTEX
  5
5D9
  8
LAYER_1
 10
100.3484847910692
 20
21.81248173750365
 30
0.0
  0
VERTEX
  5
5DA
  8
LAYER_1
 10
100.3444434135182
 20
21.81425229504111
 30
0.0
  0
VERTEX
  5
5DB
  8
LAYER_1
 10
100.3399766278039
 20
21.81583394174472
 30
0.0
  0
VERTEX
  5
5DC
  8
LAYER_1
 10
100.3350844339264
 20
21.81722667761446
 30
0.0
  0
VERTEX
  5
5DD
  8
LAYER_1
 10
100.3240238216815
 20
21.81944541685234
 30
0.0
  0
VERTEX
  5
5DE
  8
LAYER_1
 10
100.3112615767835
 20
21.82090851275476
 30
0.0
  0
VERTEX
  5
5DF
  8
LAYER_1
 10
100.2549530053549
 20
21.82524960969354
 30
0.0
  0
VERTEX
  5
5E0
  8
LAYER_1
 10
100.2543342298447
 20
21.86299491581599
 30
0.0
  0
VERTEX
  5
5E1
  8
LAYER_1
 10
100.5222640257631
 20
21.89702756887721
 30
0.0
  0
VERTEX
  5
5E2
  8
LAYER_1
 10
100.4752370869876
 20
21.69882603826496
 30
0.0
  0
VERTEX
  5
5E3
  8
LAYER_1
 10
100.4145970869876
 20
21.39286088520374
 30
0.0
  0
VERTEX
  5
5E4
  8
LAYER_1
 10
100.400674638008
 20
21.31776667602007
 30
0.0
  0
VERTEX
  5
5E5
  8
LAYER_1
 10
100.3971940257631
 20
21.2968249923466
 30
0.0
  0
VERTEX
  5
5E6
  8
LAYER_1
 10
100.3960338216815
 20
21.28695358928537
 30
0.0
  0
VERTEX
  5
5E7
  8
LAYER_1
 10
100.3962416915794
 20
21.2822283258128
 30
0.0
  0
VERTEX
  5
5E8
  8
LAYER_1
 10
100.3968653012733
 20
21.27780791804813
 30
0.0
  0
VERTEX
  5
5E9
  8
LAYER_1
 10
100.3979046507631
 20
21.27369236599137
 30
0.0
  0
VERTEX
  5
5EA
  8
LAYER_1
 10
100.3993597400488
 20
21.26988166964252
 30
0.0
  0
VERTEX
  5
5EB
  8
LAYER_1
 10
100.4012305691304
 20
21.26637582900157
 30
0.0
  0
VERTEX
  5
5EC
  8
LAYER_1
 10
100.403517138008
 20
21.26317484406854
 30
0.0
  0
VERTEX
  5
5ED
  8
LAYER_1
 10
100.4062194466815
 20
21.26027871484341
 30
0.0
  0
VERTEX
  5
5EE
  8
LAYER_1
 10
100.4093374951509
 20
21.25768744132619
 30
0.0
  0
VERTEX
  5
5EF
  8
LAYER_1
 10
100.4128712834161
 20
21.25540102351688
 30
0.0
  0
VERTEX
  5
5F0
  8
LAYER_1
 10
100.4168208114774
 20
21.25341946141548
 30
0.0
  0
VERTEX
  5
5F1
  8
LAYER_1
 10
100.4211860793345
 20
21.25174275502198
 30
0.0
  0
VERTEX
  5
5F2
  8
LAYER_1
 10
100.4259670869876
 20
21.25037090433639
 30
0.0
  0
VERTEX
  5
5F3
  8
LAYER_1
 10
100.4311638344366
 20
21.24930390935872
 30
0.0
  0
VERTEX
  5
5F4
  8
LAYER_1
 10
100.4367763216815
 20
21.24854177008895
 30
0.0
  0
VERTEX
  5
5F5
  8
LAYER_1
 10
100.4428045487223
 20
21.24808448652708
 30
0.0
  0
VERTEX
  5
5F6
  8
LAYER_1
 10
100.449248515559
 20
21.24793205867313
 30
0.0
  0
VERTEX
  5
5F7
  8
LAYER_1
 10
100.5043195359672
 20
21.24793205867313
 30
0.0
  0
VERTEX
  5
5F8
  8
LAYER_1
 10
100.5061758624978
 20
21.21018675255068
 30
0.0
  0
SEQEND
  5
F5F
  8
LAYER_1
  0
POLYLINE
  5
DF
  8
LAYER_1
 66
     1
 10
0.0
 20
0.0
 30
0.0
 70
     1
  0
VERTEX
  5
5F9
  8
LAYER_1
 10
100.5457774951509
 20
21.02702920153027
 30
0.0
  0
VERTEX
  5
5FA
  8
LAYER_1
 10
101.3340974951509
 20
22.27881205867313
 30
0.0
  0
VERTEX
  5
5FB
  8
LAYER_1
 10
101.4157758624978
 20
22.27881205867313
 30
0.0
  0
VERTEX
  5
5FC
  8
LAYER_1
 10
100.6286934135182
 20
21.02702920153027
 30
0.0
  0
SEQEND
  5
F60
  8
LAYER_1
  0
POLYLINE
  5
E0
  8
LAYER_1
 66
     1
 10
0.0
 20
0.0
 30
0.0
 70
     1
  0
VERTEX
  5
5FD
  8
LAYER_1
 10
101.3334787196407
 20
21.21018675255068
 30
0.0
  0
VERTEX
  5
5FE
  8
LAYER_1
 10
101.3668925971917
 20
21.30919083418333
 30
0.0
  0
VERTEX
  5
5FF
  8
LAYER_1
 10
101.395520632906
 20
21.32466143048435
 30
0.0
  0
VERTEX
  5
600
  8
LAYER_1
 10
101.4232398420896
 20
21.33997974999966
 30
0.0
  0
VERTEX
  5
601
  8
LAYER_1
 10
101.4500502247427
 20
21.35514579272925
 30
0.0
  0
VERTEX
  5
602
  8
LAYER_1
 10
101.4759517808652
 20
21.37015955867313
 30
0.0
  0
VERTEX
  5
603
  8
LAYER_1
 10
101.500944510457
 20
21.38502104783129
 30
0.0
  0
VERTEX
  5
604
  8
LAYER_1
 10
101.5250284135182
 20
21.39973026020374
 30
0.0
  0
VERTEX
  5
605
  8
LAYER_1
 10
101.5482034900488
 20
21.41428719579048
 30
0.0
  0
VERTEX
  5
606
  8
LAYER_1
 10
101.5704697400488
 20
21.4286918545915
 30
0.0
  0
VERTEX
  5
607
  8
LAYER_1
 10
101.5918271635182
 20
21.44294423660681
 30
0.0
  0
VERTEX
  5
608
  8
LAYER_1
 10
101.612275760457
 20
21.45704434183639
 30
0.0
  0
VERTEX
  5
609
  8
LAYER_1
 10
101.6318155308651
 20
21.47099217028027
 30
0.0
  0
VERTEX
  5
60A
  8
LAYER_1
 10
101.6504464747427
 20
21.48478772193843
 30
0.0
  0
VERTEX
  5
60B
  8
LAYER_1
 10
101.6681685920896
 20
21.49843099681088
 30
0.0
  0
VERTEX
  5
60C
  8
LAYER_1
 10
101.684981882906
 20
21.51192199489762
 30
0.0
  0
VERTEX
  5
60D
  8
LAYER_1
 10
101.7008863471917
 20
21.52526071619864
 30
0.0
  0
VERTEX
  5
60E
  8
LAYER_1
 10
101.7158819849468
 20
21.53844716071394
 30
0.0
  0
VERTEX
  5
60F
  8
LAYER_1
 10
101.7299687961713
 20
21.55148132844354
 30
0.0
  0
VERTEX
  5
610
  8
LAYER_1
 10
101.7431467808651
 20
21.56436321938741
 30
0.0
  0
VERTEX
  5
611
  8
LAYER_1
 10
101.7554159390284
 20
21.57709283354558
 30
0.0
  0
VERTEX
  5
612
  8
LAYER_1
 10
101.7667762706611
 20
21.58967017091803
 30
0.0
  0
VERTEX
  5
613
  8
LAYER_1
 10
101.7772277757631
 20
21.60209523150476
 30
0.0
  0
VERTEX
  5
614
  8
LAYER_1
 10
101.7867704543345
 20
21.61436801530578
 30
0.0
  0
VERTEX
  5
615
  8
LAYER_1
 10
101.7954043063754
 20
21.62648852232109
 30
0.0
  0
VERTEX
  5
616
  8
LAYER_1
 10
101.8031293318856
 20
21.63845675255068
 30
0.0
  0
VERTEX
  5
617
  8
LAYER_1
 10
101.8099455308651
 20
21.65027270599456
 30
0.0
  0
VERTEX
  5
618
  8
LAYER_1
 10
101.8158529033141
 20
21.66193638265272
 30
0.0
  0
VERTEX
  5
619
  8
LAYER_1
 10
101.8208514492325
 20
21.67344778252517
 30
0.0
  0
VERTEX
  5
61A
  8
LAYER_1
 10
101.8249411686203
 20
21.68480690561191
 30
0.0
  0
VERTEX
  5
61B
  8
LAYER_1
 10
101.8281220614774
 20
21.69601375191293
 30
0.0
  0
VERTEX
  5
61C
  8
LAYER_1
 10
101.8303941278039
 20
21.70706832142823
 30
0.0
  0
VERTEX
  5
61D
  8
LAYER_1
 10
101.8317573675998
 20
21.71797061415783
 30
0.0
  0
VERTEX
  5
61E
  8
LAYER_1
 10
101.8322117808652
 20
21.7287206301017
 30
0.0
  0
VERTEX
  5
61F
  8
LAYER_1
 10
101.8320582955335
 20
21.73553682908129
 30
0.0
  0
VERTEX
  5
620
  8
LAYER_1
 10
101.8315978395386
 20
21.74221767091803
 30
0.0
  0
VERTEX
  5
621
  8
LAYER_1
 10
101.8308304128805
 20
21.7487631556119
 30
0.0
  0
VERTEX
  5
622
  8
LAYER_1
 10
101.829756015559
 20
21.75517328316293
 30
0.0
  0
VERTEX
  5
623
  8
LAYER_1
 10
101.8283746475743
 20
21.76144805357109
 30
0.0
  0
VERTEX
  5
624
  8
LAYER_1
 10
101.8266863089264
 20
21.76758746683639
 30
0.0
  0
VERTEX
  5
625
  8
LAYER_1
 10
101.8246909996152
 20
21.77359152295884
 30
0.0
  0
VERTEX
  5
626
  8
LAYER_1
 10
101.8223887196407
 20
21.77946022193844
 30
0.0
  0
VERTEX
  5
627
  8
LAYER_1
 10
101.8197794690029
 20
21.78519356377517
 30
0.0
  0
VERTEX
  5
628
  8
LAYER_1
 10
101.8168632477019
 20
21.79079154846904
 30
0.0
  0
VERTEX
  5
629
  8
LAYER_1
 10
101.8136400557376
 20
21.79625417602007
 30
0.0
  0
VERTEX
  5
62A
  8
LAYER_1
 10
101.8101098931101
 20
21.80158144642823
 30
0.0
  0
VERTEX
  5
62B
  8
LAYER_1
 10
101.8062727598193
 20
21.80677335969354
 30
0.0
  0
VERTEX
  5
62C
  8
LAYER_1
 10
101.8021286558652
 20
21.81182991581598
 30
0.0
  0
VERTEX
  5
62D
  8
LAYER_1
 10
101.7976775812478
 20
21.81675111479558
 30
0.0
  0
VERTEX
  5
62E
  8
LAYER_1
 10
101.7929195359672
 20
21.82153695663231
 30
0.0
  0
VERTEX
  5
62F
  8
LAYER_1
 10
101.7879367011458
 20
21.82610767729557
 30
0.0
  0
VERTEX
  5
630
  8
LAYER_1
 10
101.782811257906
 20
21.83038351275476
 30
0.0
  0
VERTEX
  5
631
  8
LAYER_1
 10
101.7775432062478
 20
21.83436446300986
 30
0.0
  0
VERTEX
  5
632
  8
LAYER_1
 10
101.7721325461713
 20
21.83805052806088
 30
0.0
  0
VERTEX
  5
633
  8
LAYER_1
 10
101.7665792776764
 20
21.84144170790782
 30
0.0
  0
VERTEX
  5
634
  8
LAYER_1
 10
101.7608834007631
 20
21.84453800255068
 30
0.0
  0
VERTEX
  5
635
  8
LAYER_1
 10
101.7550449154315
 20
21.84733941198945
 30
0.0
  0
VERTEX
  5
636
  8
LAYER_1
 10
101.7490638216815
 20
21.84984593622415
 30
0.0
  0
VERTEX
  5
637
  8
LAYER_1
 10
101.7429401195131
 20
21.85205757525476
 30
0.0
  0
VERTEX
  5
638
  8
LAYER_1
 10
101.7366738089264
 20
21.85397432908129
 30
0.0
  0
VERTEX
  5
639
  8
LAYER_1
 10
101.7302648899213
 20
21.85559619770374
 30
0.0
  0
VERTEX
  5
63A
  8
LAYER_1
 10
101.7237133624978
 20
21.85692318112211
 30
0.0
  0
VERTEX
  5
63B
  8
LAYER_1
 10
101.717019226656
 20
21.85795527933639
 30
0.0
  0
VERTEX
  5
63C
  8
LAYER_1
 10
101.7101824823958
 20
21.8586924923466
 30
0.0
  0
VERTEX
  5
63D
  8
LAYER_1
 10
101.7032031297172
 20
21.85913482015272
 30
0.0
  0
VERTEX
  5
63E
  8
LAYER_1
 10
101.6960811686203
 20
21.85928226275476
 30
0.0
  0
VERTEX
  5
63F
  8
LAYER_1
 10
101.6778707987223
 20
21.858745668367
 30
0.0
  0
VERTEX
  5
640
  8
LAYER_1
 10
101.6605209135182
 20
21.85713588520374
 30
0.0
  0
VERTEX
  5
641
  8
LAYER_1
 10
101.644031513008
 20
21.85445291326496
 30
0.0
  0
VERTEX
  5
642
  8
LAYER_1
 10
101.6361094945131
 20
21.85270898150476
 30
0.0
  0
VERTEX
  5
643
  8
LAYER_1
 10
101.6284025971917
 20
21.85069675255068
 30
0.0
  0
VERTEX
  5
644
  8
LAYER_1
 10
101.6209108210437
 20
21.84841622640272
 30
0.0
  0
VERTEX
  5
645
  8
LAYER_1
 10
101.6136341660693
 20
21.84586740306088
 30
0.0
  0
VERTEX
  5
646
  8
LAYER_1
 10
101.6065726322682
 20
21.84305028252517
 30
0.0
  0
VERTEX
  5
647
  8
LAYER_1
 10
101.5997262196407
 20
21.83996486479558
 30
0.0
  0
VERTEX
  5
648
  8
LAYER_1
 10
101.5930949281866
 20
21.83661114987211
 30
0.0
  0
VERTEX
  5
649
  8
LAYER_1
 10
101.586678757906
 20
21.83298913775476
 30
0.0
  0
VERTEX
  5
64A
  8
LAYER_1
 10
101.5804777087988
 20
21.82909882844354
 30
0.0
  0
VERTEX
  5
64B
  8
LAYER_1
 10
101.5744917808651
 20
21.82494022193844
 30
0.0
  0
VERTEX
  5
64C
  8
LAYER_1
 10
101.5687209741049
 20
21.82051331823946
 30
0.0
  0
VERTEX
  5
64D
  8
LAYER_1
 10
101.5631652885182
 20
21.8158181173466
 30
0.0
  0
VERTEX
  5
64E
  8
LAYER_1
 10
101.557824724105
 20
21.81085461925986
 30
0.0
  0
VERTEX
  5
64F
  8
LAYER_1
 10
101.5526992808652
 20
21.80562282397925
 30
0.0
  0
VERTEX
  5
650
  8
LAYER_1
 10
101.5477889587988
 20
21.80012273150476
 30
0.0
  0
VERTEX
  5
651
  8
LAYER_1
 10
101.543093757906
 20
21.7943543418364
 30
0.0
  0
VERTEX
  5
652
  8
LAYER_1
 10
101.5386136781866
 20
21.78831765497415
 30
0.0
  0
VERTEX
  5
653
  8
LAYER_1
 10
101.5343487196407
 20
21.78201267091803
 30
0.0
  0
VERTEX
  5
654
  8
LAYER_1
 10
101.5302988822682
 20
21.77543938966803
 30
0.0
  0
VERTEX
  5
655
  8
LAYER_1
 10
101.5264641660692
 20
21.76859781122415
 30
0.0
  0
VERTEX
  5
656
  8
LAYER_1
 10
101.5228445710437
 20
21.76148793558639
 30
0.0
  0
VERTEX
  5
657
  8
LAYER_1
 10
101.5194400971917
 20
21.75410976275476
 30
0.0
  0
VERTEX
  5
658
  8
LAYER_1
 10
101.513276513008
 20
21.73854852550986
 30
0.0
  0
VERTEX
  5
659
  8
LAYER_1
 10
101.5079734135182
 20
21.72191409948946
 30
0.0
  0
VERTEX
  5
65A
  8
LAYER_1
 10
101.4702281073958
 20
21.72191409948946
 30
0.0
  0
VERTEX
  5
65B
  8
LAYER_1
 10
101.4894101482121
 20
21.86361369132619
 30
0.0
  0
VERTEX
  5
65C
  8
LAYER_1
 10
101.5214607859672
 20
21.87144506887721
 30
0.0
  0
VERTEX
  5
65D
  8
LAYER_1
 10
101.552331882906
 20
21.87823226275476
 30
0.0
  0
VERTEX
  5
65E
  8
LAYER_1
 10
101.5820234390284
 20
21.88397527295884
 30
0.0
  0
VERTEX
  5
65F
  8
LAYER_1
 10
101.6105354543346
 20
21.88867409948946
 30
0.0
  0
VERTEX
  5
660
  8
LAYER_1
 10
101.6378679288243
 20
21.8923287423466
 30
0.0
  0
VERTEX
  5
661
  8
LAYER_1
 10
101.6640208624978
 20
21.89493920153027
 30
0.0
  0
VERTEX
  5
662
  8
LAYER_1
 10
101.6889942553549
 20
21.89650547704047
 30
0.0
  0
VERTEX
  5
663
  8
LAYER_1
 10
101.7127881073958
 20
21.89702756887721
 30
0.0
  0
VERTEX
  5
664
  8
LAYER_1
 10
101.7269897304825
 20
21.89685716390272
 30
0.0
  0
VERTEX
  5
665
  8
LAYER_1
 10
101.7408215385182
 20
21.89634594897925
 30
0.0
  0
VERTEX
  5
666
  8
LAYER_1
 10
101.7542835315029
 20
21.8954939241068
 30
0.0
  0
VERTEX
  5
667
  8
LAYER_1
 10
101.7673757094366
 20
21.89430108928537
 30
0.0
  0
VERTEX
  5
668
  8
LAYER_1
 10
101.7800980723192
 20
21.89276744451497
 30
0.0
  0
VERTEX
  5
669
  8
LAYER_1
 10
101.7924506201509
 20
21.89089298979558
 30
0.0
  0
VERTEX
  5
66A
  8
LAYER_1
 10
101.8044333529315
 20
21.88867772512721
 30
0.0
  0
VERTEX
  5
66B
  8
LAYER_1
 10
101.8160462706611
 20
21.88612165050986
 30
0.0
  0
VERTEX
  5
66C
  8
LAYER_1
 10
101.8272893733397
 20
21.88322476594354
 30
0.0
  0
VERTEX
  5
66D
  8
LAYER_1
 10
101.8381626609672
 20
21.87998707142823
 30
0.0
  0
VERTEX
  5
66E
  8
LAYER_1
 10
101.8486661335437
 20
21.87640856696395
 30
0.0
  0
VERTEX
  5
66F
  8
LAYER_1
 10
101.8587997910692
 20
21.87248925255068
 30
0.0
  0
VERTEX
  5
670
  8
LAYER_1
 10
101.8685636335437
 20
21.86822912818844
 30
0.0
  0
VERTEX
  5
671
  8
LAYER_1
 10
101.8779576609672
 20
21.86362819387721
 30
0.0
  0
VERTEX
  5
672
  8
LAYER_1
 10
101.8869818733396
 20
21.85868644961701
 30
0.0
  0
VERTEX
  5
673
  8
LAYER_1
 10
101.8956362706611
 20
21.85340389540782
 30
0.0
  0
VERTEX
  5
674
  8
LAYER_1
 10
101.9038410889009
 20
21.84783370727007
 30
0.0
  0
VERTEX
  5
675
  8
LAYER_1
 10
101.9115165640284
 20
21.84202906122415
 30
0.0
  0
VERTEX
  5
676
  8
LAYER_1
 10
101.9186626960438
 20
21.83598995727007
 30
0.0
  0
VERTEX
  5
677
  8
LAYER_1
 10
101.9252794849468
 20
21.82971639540782
 30
0.0
  0
VERTEX
  5
678
  8
LAYER_1
 10
101.9313669307376
 20
21.82320837563741
 30
0.0
  0
VERTEX
  5
679
  8
LAYER_1
 10
101.9369250334162
 20
21.81646589795884
 30
0.0
  0
VERTEX
  5
67A
  8
LAYER_1
 10
101.9419537929825
 20
21.80948896237211
 30
0.0
  0
VERTEX
  5
67B
  8
LAYER_1
 10
101.9464532094366
 20
21.80227756887721
 30
0.0
  0
VERTEX
  5
67C
  8
LAYER_1
 10
101.9504232827784
 20
21.79483171747415
 30
0.0
  0
VERTEX
  5
67D
  8
LAYER_1
 10
101.953864013008
 20
21.78715140816293
 30
0.0
  0
VERTEX
  5
67E
  8
LAYER_1
 10
101.9567754001254
 20
21.77923664094354
 30
0.0
  0
VERTEX
  5
67F
  8
LAYER_1
 10
101.9591574441305
 20
21.77108741581599
 30
0.0
  0
VERTEX
  5
680
  8
LAYER_1
 10
101.9610101450233
 20
21.76270373278028
 30
0.0
  0
VERTEX
  5
681
  8
LAYER_1
 10
101.9623335028039
 20
21.7540855918364
 30
0.0
  0
VERTEX
  5
682
  8
LAYER_1
 10
101.9631275174723
 20
21.74523299298436
 30
0.0
  0
VERTEX
  5
683
  8
LAYER_1
 10
101.9633921890284
 20
21.73614593622415
 30
0.0
  0
VERTEX
  5
684
  8
LAYER_1
 10
101.9631432285692
 20
21.7263252920915
 30
0.0
  0
VERTEX
  5
685
  8
LAYER_1
 10
101.9623963471917
 20
21.71666417602007
 30
0.0
  0
VERTEX
  5
686
  8
LAYER_1
 10
101.9611515448958
 20
21.70716258800987
 30
0.0
  0
VERTEX
  5
687
  8
LAYER_1
 10
101.9594088216815
 20
21.69782052806089
 30
0.0
  0
VERTEX
  5
688
  8
LAYER_1
 10
101.9571681775488
 20
21.68863799617313
 30
0.0
  0
VERTEX
  5
689
  8
LAYER_1
 10
101.9544296124978
 20
21.6796149923466
 30
0.0
  0
VERTEX
  5
68A
  8
LAYER_1
 10
101.9511931265284
 20
21.67075151658129
 30
0.0
  0
VERTEX
  5
68B
  8
LAYER_1
 10
101.9474587196407
 20
21.66204756887721
 30
0.0
  0
VERTEX
  5
68C
  8
LAYER_1
 10
101.9432263918345
 20
21.65350314923436
 30
0.0
  0
VERTEX
  5
68D
  8
LAYER_1
 10
101.9384961431101
 20
21.64511825765273
 30
0.0
  0
VERTEX
  5
68E
  8
LAYER_1
 10
101.9332679734672
 20
21.63689289413232
 30
0.0
  0
VERTEX
  5
68F
  8
LAYER_1
 10
101.927541882906
 20
21.62882705867313
 30
0.0
  0
VERTEX
  5
690
  8
LAYER_1
 10
101.9213178714264
 20
21.62092075127517
 30
0.0
  0
VERTEX
  5
691
  8
LAYER_1
 10
101.9145959390284
 20
21.61317397193844
 30
0.0
  0
VERTEX
  5
692
  8
LAYER_1
 10
101.9073760857121
 20
21.60558672066293
 30
0.0
  0
VERTEX
  5
693
  8
LAYER_1
 10
101.8996583114774
 20
21.59815899744864
 30
0.0
  0
VERTEX
  5
694
  8
LAYER_1
 10
101.8910002885182
 20
21.590484730867
 30
0.0
  0
VERTEX
  5
695
  8
LAYER_1
 10
101.8809596890284
 20
21.58215784948945
 30
0.0
  0
VERTEX
  5
696
  8
LAYER_1
 10
101.869536513008
 20
21.57317835331598
 30
0.0
  0
VERTEX
  5
697
  8
LAYER_1
 10
101.856730760457
 20
21.5635462423466
 30
0.0
  0
VERTEX
  5
698
  8
LAYER_1
 10
101.8269715257631
 20
21.54232417602006
 30
0.0
  0
VERTEX
  5
699
  8
LAYER_1
 10
101.7916819849468
 20
21.51849165050986
 30
0.0
  0
VERTEX
  5
69A
  8
LAYER_1
 10
101.750862138008
 20
21.49204866581599
 30
0.0
  0
VERTEX
  5
69B
  8
LAYER_1
 10
101.7045119849468
 20
21.46299522193844
 30
0.0
  0
VERTEX
  5
69C
  8
LAYER_1
 10
101.6526315257631
 20
21.43133131887721
 30
0.0
  0
VERTEX
  5
69D
  8
LAYER_1
 10
101.595220760457
 20
21.39705695663231
 30
0.0
  0
VERTEX
  5
69E
  8
LAYER_1
 10
101.4454770869876
 20
21.30919083418333
 30
0.0
  0
VERTEX
  5
69F
  8
LAYER_1
 10
101.9126525971917
 20
21.30919083418333
 30
0.0
  0
VERTEX
  5
6A0
  8
LAYER_1
 10
101.8736697400488
 20
21.21018675255068
 30
0.0
  0
SEQEND
  5
F61
  8
LAYER_1
  0
POLYLINE
  5
E1
  8
LAYER_1
 66
     1
 10
0.0
 20
0.0
 30
0.0
 70
     1
  0
VERTEX
  5
6A1
  8
LAYER_1
 10
102.2641170869876
 20
21.88217695663231
 30
0.0
  0
VERTEX
  5
6A2
  8
LAYER_1
 10
102.2220403522937
 20
22.18723328316293
 30
0.0
  0
VERTEX
  5
6A3
  8
LAYER_1
 10
102.3439391278039
 20
22.18723328316293
 30
0.0
  0
VERTEX
  5
6A4
  8
LAYER_1
 10
102.3024811686203
 20
21.88217695663231
 30
0.0
  0
SEQEND
  5
F62
  8
LAYER_1
  0
POLYLINE
  5
E2
  8
LAYER_1
 66
     1
 10
0.0
 20
0.0
 30
0.0
 70
     1
  0
VERTEX
  5
6A5
  8
LAYER_1
 10
102.477594638008
 20
21.88217695663231
 30
0.0
  0
VERTEX
  5
6A6
  8
LAYER_1
 10
102.4355179033141
 20
22.18723328316293
 30
0.0
  0
VERTEX
  5
6A7
  8
LAYER_1
 10
102.5580354543345
 20
22.18723328316293
 30
0.0
  0
VERTEX
  5
6A8
  8
LAYER_1
 10
102.5159587196407
 20
21.88217695663231
 30
0.0
  0
SEQEND
  5
F63
  8
LAYER_1
  0
POLYLINE
  5
E3
  8
LAYER_1
 66
     1
 10
0.0
 20
0.0
 30
0.0
 70
     1
  0
VERTEX
  5
6A9
  8
LAYER_1
 10
103.0016974951509
 20
21.21018675255068
 30
0.0
  0
VERTEX
  5
6AA
  8
LAYER_1
 10
103.0938950461713
 20
21.30176552806088
 30
0.0
  0
VERTEX
  5
6AB
  8
LAYER_1
 10
103.1056517808651
 20
21.30176552806088
 30
0.0
  0
VERTEX
  5
6AC
  8
LAYER_1
 10
103.1322591278039
 20
21.30100172704048
 30
0.0
  0
VERTEX
  5
6AD
  8
LAYER_1
 10
103.1412313727019
 20
21.30119120438024
 30
0.0
  0
VERTEX
  5
6AE
  8
LAYER_1
 10
103.1498942298447
 20
21.30175963639953
 30
0.0
  0
VERTEX
  5
6AF
  8
LAYER_1
 10
103.1582476992325
 20
21.30270702309835
 30
0.0
  0
VERTEX
  5
6B0
  8
LAYER_1
 10
103.1662917808651
 20
21.3040333644767
 30
0.0
  0
VERTEX
  5
6B1
  8
LAYER_1
 10
103.1740264747427
 20
21.30573866053457
 30
0.0
  0
VERTEX
  5
6B2
  8
LAYER_1
 10
103.1814517808651
 20
21.30782291127198
 30
0.0
  0
VERTEX
  5
6B3
  8
LAYER_1
 10
103.1885676992325
 20
21.31028611668891
 30
0.0
  0
VERTEX
  5
6B4
  8
LAYER_1
 10
103.1953742298447
 20
21.31312827678537
 30
0.0
  0
VERTEX
  5
6B5
  8
LAYER_1
 10
103.2018713727019
 20
21.31634939156136
 30
0.0
  0
VERTEX
  5
6B6
  8
LAYER_1
 10
103.2080591278039
 20
21.31994946101688
 30
0.0
  0
VERTEX
  5
6B7
  8
LAYER_1
 10
103.2139374951509
 20
21.32392848515192
 30
0.0
  0
VERTEX
  5
6B8
  8
LAYER_1
 10
103.2195064747427
 20
21.3282864639665
 30
0.0
  0
VERTEX
  5
6B9
  8
LAYER_1
 10
103.2247660665794
 20
21.3330233974606
 30
0.0
  0
VERTEX
  5
6BA
  8
LAYER_1
 10
103.2297162706611
 20
21.33813928563423
 30
0.0
  0
VERTEX
  5
6BB
  8
LAYER_1
 10
103.2343570869876
 20
21.34363412848738
 30
0.0
  0
VERTEX
  5
6BC
  8
LAYER_1
 10
103.238688515559
 20
21.34950792602007
 30
0.0
  0
VERTEX
  5
6BD
  8
LAYER_1
 10
103.2428507477019
 20
21.35595857762641
 30
0.0
  0
VERTEX
  5
6BE
  8
LAYER_1
 10
103.2469839747427
 20
21.36318398270055
 30
0.0
  0
VERTEX
  5
6BF
  8
LAYER_1
 10
103.2510881966815
 20
21.37118414124248
 30
0.0
  0
VERTEX
  5
6C0
  8
LAYER_1
 10
103.2551634135182
 20
21.37995905325221
 30
0.0
  0
VERTEX
  5
6C1
  8
LAYER_1
 10
103.2592096252529
 20
21.38950871872972
 30
0.0
  0
VERTEX
  5
6C2
  8
LAYER_1
 10
103.2632268318856
 20
21.39983313767504
 30
0.0
  0
VERTEX
  5
6C3
  8
LAYER_1
 10
103.2711742298447
 20
21.42280623596904
 30
0.0
  0
VERTEX
  5
6C4
  8
LAYER_1
 10
103.2790056073958
 20
21.44887834813422
 30
0.0
  0
VERTEX
  5
6C5
  8
LAYER_1
 10
103.2867209645386
 20
21.47804947417058
 30
0.0
  0
VERTEX
  5
6C6
  8
LAYER_1
 10
103.2943203012733
 20
21.5103196140781
 30
0.0
  0
VERTEX
  5
6C7
  8
LAYER_1
 10
103.3018036175998
 20
21.5456887678568
 30
0.0
  0
VERTEX
  5
6C8
  8
LAYER_1
 10
103.4069954543345
 20
22.07647246683639
 30
0.0
  0
VERTEX
  5
6C9
  8
LAYER_1
 10
103.3913266565029
 20
22.07620575585904
 30
0.0
  0
VERTEX
  5
6CA
  8
LAYER_1
 10
103.376032507906
 20
22.07540562292695
 30
0.0
  0
VERTEX
  5
6CB
  8
LAYER_1
 10
103.3611130085437
 20
22.07407206804016
 30
0.0
  0
VERTEX
  5
6CC
  8
LAYER_1
 10
103.3465681584162
 20
22.07220509119864
 30
0.0
  0
VERTEX
  5
6CD
  8
LAYER_1
 10
103.3323979575233
 20
22.0698046924024
 30
0.0
  0
VERTEX
  5
6CE
  8
LAYER_1
 10
103.3186024058651
 20
22.06687087165145
 30
0.0
  0
VERTEX
  5
6CF
  8
LAYER_1
 10
103.3051815034417
 20
22.06340362894577
 30
0.0
  0
VERTEX
  5
6D0
  8
LAYER_1
 10
103.2921352502529
 20
22.05940296428537
 30
0.0
  0
VERTEX
  5
6D1
  8
LAYER_1
 10
103.2794636462988
 20
22.05486887767026
 30
0.0
  0
VERTEX
  5
6D2
  8
LAYER_1
 10
103.2671666915794
 20
22.04980136910042
 30
0.0
  0
VERTEX
  5
6D3
  8
LAYER_1
 10
103.2552443860947
 20
22.04420043857587
 30
0.0
  0
VERTEX
  5
6D4
  8
LAYER_1
 10
103.2436967298447
 20
22.0380660860966
 30
0.0
  0
VERTEX
  5
6D5
  8
LAYER_1
 10
103.2325237228294
 20
22.03139831166261
 30
0.0
  0
VERTEX
  5
6D6
  8
LAYER_1
 10
103.2217253650488
 20
22.02419711527389
 30
0.0
  0
VERTEX
  5
6D7
  8
LAYER_1
 10
103.2113016565029
 20
22.01646249693047
 30
0.0
  0
VERTEX
  5
6D8
  8
LAYER_1
 10
103.2012525971917
 20
22.00819445663231
 30
0.0
  0
VERTEX
  5
6D9
  8
LAYER_1
 10
103.191699041707
 20
21.99949677826018
 30
0.0
  0
VERTEX
  5
6DA
  8
LAYER_1
 10
103.1827618446407
 20
21.99047324569482
 30
0.0
  0
VERTEX
  5
6DB
  8
LAYER_1
 10
103.1744410059927
 20
21.9811238589362
 30
0.0
  0
VERTEX
  5
6DC
  8
LAYER_1
 10
103.1667365257631
 20
21.97144861798435
 30
0.0
  0
VERTEX
  5
6DD
  8
LAYER_1
 10
103.1596484039519
 20
21.96144752283926
 30
0.0
  0
VERTEX
  5
6DE
  8
LAYER_1
 10
103.153176640559
 20
21.95112057350094
 30
0.0
  0
VERTEX
  5
6DF
  8
LAYER_1
 10
103.1473212355845
 20
21.94046776996937
 30
0.0
  0
VERTEX
  5
6E0
  8
LAYER_1
 10
103.1420821890284
 20
21.92948911224456
 30
0.0
  0
VERTEX
  5
6E1
  8
LAYER_1
 10
103.1374595008907
 20
21.91818460032651
 30
0.0
  0
VERTEX
  5
6E2
  8
LAYER_1
 10
103.1334531711713
 20
21.90655423421522
 30
0.0
  0
VERTEX
  5
6E3
  8
LAYER_1
 10
103.1300631998703
 20
21.89459801391069
 30
0.0
  0
VERTEX
  5
6E4
  8
LAYER_1
 10
103.1272895869876
 20
21.88231593941293
 30
0.0
  0
VERTEX
  5
6E5
  8
LAYER_1
 10
103.1251323325233
 20
21.86970801072192
 30
0.0
  0
VERTEX
  5
6E6
  8
LAYER_1
 10
103.1235914364774
 20
21.85677422783767
 30
0.0
  0
VERTEX
  5
6E7
  8
LAYER_1
 10
103.1226668988498
 20
21.84351459076018
 30
0.0
  0
VERTEX
  5
6E8
  8
LAYER_1
 10
103.1223587196407
 20
21.82992909948945
 30
0.0
  0
VERTEX
  5
6E9
  8
LAYER_1
 10
103.1229774951509
 20
21.81633537499966
 30
0.0
  0
VERTEX
  5
6EA
  8
LAYER_1
 10
103.0023162706611
 20
21.75824782397925
 30
0.0
  0
VERTEX
  5
6EB
  8
LAYER_1
 10
103.0049291469366
 20
21.78190373183361
 30
0.0
  0
VERTEX
  5
6EC
  8
LAYER_1
 10
103.0084363471917
 20
21.80473990565176
 30
0.0
  0
VERTEX
  5
6ED
  8
LAYER_1
 10
103.0128378714264
 20
21.82675634543373
 30
0.0
  0
VERTEX
  5
6EE
  8
LAYER_1
 10
103.0181337196407
 20
21.84795305117951
 30
0.0
  0
VERTEX
  5
6EF
  8
LAYER_1
 10
103.0243238918345
 20
21.86833002288909
 30
0.0
  0
VERTEX
  5
6F0
  8
LAYER_1
 10
103.031408388008
 20
21.88788726056248
 30
0.0
  0
VERTEX
  5
6F1
  8
LAYER_1
 10
103.0393872081611
 20
21.90662476419968
 30
0.0
  0
VERTEX
  5
6F2
  8
LAYER_1
 10
103.0482603522937
 20
21.92454253380068
 30
0.0
  0
VERTEX
  5
6F3
  8
LAYER_1
 10
103.058027820406
 20
21.94164056936549
 30
0.0
  0
VERTEX
  5
6F4
  8
LAYER_1
 10
103.0686896124978
 20
21.95791887089411
 30
0.0
  0
VERTEX
  5
6F5
  8
LAYER_1
 10
103.0743558800361
 20
21.96575062139485
 30
0.0
  0
VERTEX
  5
6F6
  8
LAYER_1
 10
103.0802457285692
 20
21.97337743838654
 30
0.0
  0
VERTEX
  5
6F7
  8
LAYER_1
 10
103.0863591580973
 20
21.98079932186918
 30
0.0
  0
VERTEX
  5
6F8
  8
LAYER_1
 10
103.0926961686203
 20
21.98801627184277
 30
0.0
  0
VERTEX
  5
6F9
  8
LAYER_1
 10
103.0992567601381
 20
21.99502828830731
 30
0.0
  0
VERTEX
  5
6FA
  8
LAYER_1
 10
103.1060409326509
 20
22.00183537126281
 30
0.0
  0
VERTEX
  5
6FB
  8
LAYER_1
 10
103.1130486861585
 20
22.00843752070926
 30
0.0
  0
VERTEX
  5
6FC
  8
LAYER_1
 10
103.1202800206611
 20
22.01483473664666
 30
0.0
  0
VERTEX
  5
6FD
  8
LAYER_1
 10
103.1354134326509
 20
22.02701436799432
 30
0.0
  0
VERTEX
  5
6FE
  8
LAYER_1
 10
103.1514411686203
 20
22.03837426530578
 30
0.0
  0
VERTEX
  5
6FF
  8
LAYER_1
 10
103.16846958061
 20
22.04898210715248
 30
0.0
  0
VERTEX
  5
700
  8
LAYER_1
 10
103.1866050206611
 20
22.05890557210584
 30
0.0
  0
VERTEX
  5
701
  8
LAYER_1
 10
103.2058474887733
 20
22.06814466016587
 30
0.0
  0
VERTEX
  5
702
  8
LAYER_1
 10
103.2261969849468
 20
22.07669937133257
 30
0.0
  0
VERTEX
  5
703
  8
LAYER_1
 10
103.2476535091815
 20
22.08456970560592
 30
0.0
  0
VERTEX
  5
704
  8
LAYER_1
 10
103.2702170614774
 20
22.09175566298595
 30
0.0
  0
VERTEX
  5
705
  8
LAYER_1
 10
103.2938876418345
 20
22.09825724347263
 30
0.0
  0
VERTEX
  5
706
  8
LAYER_1
 10
103.3186652502529
 20
22.10407444706598
 30
0.0
  0
VERTEX
  5
707
  8
LAYER_1
 10
103.3445498867325
 20
22.109207273766
 30
0.0
  0
VERTEX
  5
708
  8
LAYER_1
 10
103.3715415512733
 20
22.11365572357268
 30
0.0
  0
VERTEX
  5
709
  8
LAYER_1
 10
103.3996402438754
 20
22.11741979648603
 30
0.0
  0
VERTEX
  5
70A
  8
LAYER_1
 10
103.4288459645386
 20
22.12049949250604
 30
0.0
  0
VERTEX
  5
70B
  8
LAYER_1
 10
103.4591587132631
 20
22.12289481163272
 30
0.0
  0
VERTEX
  5
70C
  8
LAYER_1
 10
103.4905784900488
 20
22.12460575386605
 30
0.0
  0
VERTEX
  5
70D
  8
LAYER_1
 10
103.5231052948958
 20
22.12563231920605
 30
0.0
  0
VERTEX
  5
70E
  8
LAYER_1
 10
103.5567391278039
 20
22.12597450765272
 30
0.0
  0
VERTEX
  5
70F
  8
LAYER_1
 10
103.5808943350743
 20
22.12580895574543
 30
0.0
  0
VERTEX
  5
710
  8
LAYER_1
 10
103.6041673038243
 20
22.12531230002357
 30
0.0
  0
VERTEX
  5
711
  8
LAYER_1
 10
103.6265580340539
 20
22.12448454048715
 30
0.0
  0
VERTEX
  5
712
  8
LAYER_1
 10
103.6480665257631
 20
22.12332567713614
 30
0.0
  0
VERTEX
  5
713
  8
LAYER_1
 10
103.6686927789519
 20
22.12183570997056
 30
0.0
  0
VERTEX
  5
714
  8
LAYER_1
 10
103.6884367936203
 20
22.12001463899041
 30
0.0
  0
VERTEX
  5
715
  8
LAYER_1
 10
103.7072985697682
 20
22.11786246419569
 30
0.0
  0
VERTEX
  5
716
  8
LAYER_1
 10
103.7252781073958
 20
22.1153791855864
 30
0.0
  0
VERTEX
  5
717
  8
LAYER_1
 10
103.7423754065029
 20
22.11256480316252
 30
0.0
  0
VERTEX
  5
718
  8
LAYER_1
 10
103.7585904670896
 20
22.10941931692408
 30
0.0
  0
VERTEX
  5
719
  8
LAYER_1
 10
103.773923289156
 20
22.10594272687107
 30
0.0
  0
VERTEX
  5
71A
  8
LAYER_1
 10
103.7883738727019
 20
22.10213503300348
 30
0.0
  0
VERTEX
  5
71B
  8
LAYER_1
 10
103.8019422177274
 20
22.09799623532133
 30
0.0
  0
VERTEX
  5
71C
  8
LAYER_1
 10
103.8146283242325
 20
22.0935263338246
 30
0.0
  0
VERTEX
  5
71D
  8
LAYER_1
 10
103.8264321922172
 20
22.08872532851329
 30
0.0
  0
VERTEX
  5
71E
  8
LAYER_1
 10
103.8373538216815
 20
22.08359321938741
 30
0.0
  0
VERTEX
  5
71F
  8
LAYER_1
 10
103.8475068159417
 20
22.07807441333472
 30
0.0
  0
VERTEX
  5
720
  8
LAYER_1
 10
103.8570047783141
 20
22.07211331724296
 30
0.0
  0
VERTEX
  5
721
  8
LAYER_1
 10
103.8658477087988
 20
22.06570993111215
 30
0.0
  0
VERTEX
  5
722
  8
LAYER_1
 10
103.8740356073958
 20
22.05886425494226
 30
0.0
  0
VERTEX
  5
723
  8
LAYER_1
 10
103.881568474105
 20
22.05157628873332
 30
0.0
  0
VERTEX
  5
724
  8
LAYER_1
 10
103.8884463089264
 20
22.04384603248531
 30
0.0
  0
VERTEX
  5
725
  8
LAYER_1
 10
103.8946691118601
 20
22.03567348619824
 30
0.0
  0
VERTEX
  5
726
  8
LAYER_1
 10
103.900236882906
 20
22.02705864987211
 30
0.0
  0
VERTEX
  5
727
  8
LAYER_1
 10
103.9051496220641
 20
22.01800152350691
 30
0.0
  0
VERTEX
  5
728
  8
LAYER_1
 10
103.9094073293345
 20
22.00850210710265
 30
0.0
  0
VERTEX
  5
729
  8
LAYER_1
 10
103.9130100047172
 20
21.99856040065934
 30
0.0
  0
VERTEX
  5
72A
  8
LAYER_1
 10
103.9159576482121
 20
21.98817640417695
 30
0.0
  0
VERTEX
  5
72B
  8
LAYER_1
 10
103.9182502598192
 20
21.97735011765551
 30
0.0
  0
VERTEX
  5
72C
  8
LAYER_1
 10
103.9198878395386
 20
21.966081541095
 30
0.0
  0
VERTEX
  5
72D
  8
LAYER_1
 10
103.9208703873702
 20
21.95437067449544
 30
0.0
  0
VERTEX
  5
72E
  8
LAYER_1
 10
103.9211979033141
 20
21.9422175178568
 30
0.0
  0
VERTEX
  5
72F
  8
LAYER_1
 10
103.9209731137733
 20
21.93230621389674
 30
0.0
  0
VERTEX
  5
730
  8
LAYER_1
 10
103.9202987451509
 20
21.92237070125126
 30
0.0
  0
VERTEX
  5
731
  8
LAYER_1
 10
103.9191747974468
 20
21.91241097992034
 30
0.0
  0
VERTEX
  5
732
  8
LAYER_1
 10
103.9176012706611
 20
21.902427049904
 30
0.0
  0
VERTEX
  5
733
  8
LAYER_1
 10
103.9155781647937
 20
21.89241891120223
 30
0.0
  0
VERTEX
  5
734
  8
LAYER_1
 10
103.9131054798447
 20
21.88238656381503
 30
0.0
  0
VERTEX
  5
735
  8
LAYER_1
 10
103.9101832158141
 20
21.87233000774241
 30
0.0
  0
VERTEX
  5
736
  8
LAYER_1
 10
103.9068113727019
 20
21.86224924298435
 30
0.0
  0
VERTEX
  5
737
  8
LAYER_1
 10
103.902989950508
 20
21.85214426954088
 30
0.0
  0
VERTEX
  5
738
  8
LAYER_1
 10
103.8987189492325
 20
21.84201508741197
 30
0.0
  0
VERTEX
  5
739
  8
LAYER_1
 10
103.8939983688754
 20
21.83186169659764
 30
0.0
  0
VERTEX
  5
73A
  8
LAYER_1
 10
103.8888282094366
 20
21.82168409709788
 30
0.0
  0
VERTEX
  5
73B
  8
LAYER_1
 10
103.8832084709162
 20
21.81148228891269
 30
0.0
  0
VERTEX
  5
73C
  8
LAYER_1
 10
103.8771391533141
 20
21.80125627204207
 30
0.0
  0
VERTEX
  5
73D
  8
LAYER_1
 10
103.8706202566305
 20
21.79100604648603
 30
0.0
  0
VERTEX
  5
73E
  8
LAYER_1
 10
103.8636517808651
 20
21.78073161224456
 30
0.0
  0
VERTEX
  5
73F
  8
LAYER_1
 10
103.8563424951508
 20
21.77059253514594
 30
0.0
  0
VERTEX
  5
740
  8
LAYER_1
 10
103.8488011686202
 20
21.76074838101847
 30
0.0
  0
VERTEX
  5
741
  8
LAYER_1
 10
103.8410278012733
 20
21.75119914986214
 30
0.0
  0
VERTEX
  5
742
  8
LAYER_1
 10
103.83302239311
 20
21.74194484167695
 30
0.0
  0
VERTEX
  5
743
  8
LAYER_1
 10
103.8247849441304
 20
21.73298545646291
 30
0.0
  0
VERTEX
  5
744
  8
LAYER_1
 10
103.8163154543345
 20
21.72432099422
 30
0.0
  0
VERTEX
  5
745
  8
LAYER_1
 10
103.8076139237223
 20
21.71595145494824
 30
0.0
  0
VERTEX
  5
746
  8
LAYER_1
 10
103.7986803522937
 20
21.70787683864762
 30
0.0
  0
VERTEX
  5
747
  8
LAYER_1
 10
103.7895147400488
 20
21.70009714531814
 30
0.0
  0
VERTEX
  5
748
  8
LAYER_1
 10
103.7801170869876
 20
21.6926123749598
 30
0.0
  0
VERTEX
  5
749
  8
LAYER_1
 10
103.77048739311
 20
21.6854225275726
 30
0.0
  0
VERTEX
  5
74A
  8
LAYER_1
 10
103.7606256584162
 20
21.67852760315655
 30
0.0
  0
VERTEX
  5
74B
  8
LAYER_1
 10
103.750531882906
 20
21.67192760171163
 30
0.0
  0
VERTEX
  5
74C
  8
LAYER_1
 10
103.7402060665794
 20
21.66562252323786
 30
0.0
  0
VERTEX
  5
74D
  8
LAYER_1
 10
103.7296482094366
 20
21.65961236773523
 30
0.0
  0
VERTEX
  5
74E
  8
LAYER_1
 10
103.7188583114774
 20
21.65389713520374
 30
0.0
  0
VERTEX
  5
74F
  8
LAYER_1
 10
103.7061395742325
 20
21.64775288775476
 30
0.0
  0
VERTEX
  5
750
  8
LAYER_1
 10
103.6931984645386
 20
21.64200504336701
 30
0.0
  0
VERTEX
  5
751
  8
LAYER_1
 10
103.6800349823958
 20
21.63665360204048
 30
0.0
  0
VERTEX
  5
752
  8
LAYER_1
 10
103.6666491278039
 20
21.63169856377517
 30
0.0
  0
VERTEX
  5
753
  8
LAYER_1
 10
103.6530409007631
 20
21.62713992857109
 30
0.0
  0
VERTEX
  5
754
  8
LAYER_1
 10
103.6392103012733
 20
21.62297769642823
 30
0.0
  0
VERTEX
  5
755
  8
LAYER_1
 10
103.6251573293345
 20
21.6192118673466
 30
0.0
  0
VERTEX
  5
756
  8
LAYER_1
 10
103.6108819849468
 20
21.61584244132619
 30
0.0
  0
VERTEX
  5
757
  8
LAYER_1
 10
103.59638426811
 20
21.61286941836701
 30
0.0
  0
VERTEX
  5
758
  8
LAYER_1
 10
103.5816641788243
 20
21.61029279846905
 30
0.0
  0
VERTEX
  5
759
  8
LAYER_1
 10
103.5667217170896
 20
21.60811258163232
 30
0.0
  0
VERTEX
  5
75A
  8
LAYER_1
 10
103.551556882906
 20
21.60632876785681
 30
0.0
  0
VERTEX
  5
75B
  8
LAYER_1
 10
103.5361696762733
 20
21.60494135714252
 30
0.0
  0
VERTEX
  5
75C
  8
LAYER_1
 10
103.5205600971917
 20
21.60395034948946
 30
0.0
  0
VERTEX
  5
75D
  8
LAYER_1
 10
103.5047281456611
 20
21.60335574489762
 30
0.0
  0
VERTEX
  5
75E
  8
LAYER_1
 10
103.4886738216815
 20
21.60315754336701
 30
0.0
  0
VERTEX
  5
75F
  8
LAYER_1
 10
103.471966882906
 20
21.60315754336701
 30
0.0
  0
VERTEX
  5
760
  8
LAYER_1
 10
103.4954803522937
 20
21.64090284948946
 30
0.0
  0
VERTEX
  5
761
  8
LAYER_1
 10
103.5066183114774
 20
21.64090284948946
 30
0.0
  0
VERTEX
  5
762
  8
LAYER_1
 10
103.5213190640284
 20
21.64120821505267
 30
0.0
  0
VERTEX
  5
763
  8
LAYER_1
 10
103.5357200971917
 20
21.64212431174233
 30
0.0
  0
VERTEX
  5
764
  8
LAYER_1
 10
103.5498214109672
 20
21.64365113955841
 30
0.0
  0
VERTEX
  5
765
  8
LAYER_1
 10
103.563623005355
 20
21.64578869850094
 30
0.0
  0
VERTEX
  5
766
  8
LAYER_1
 10
103.577124880355
 20
21.64853698856989
 30
0.0
  0
VERTEX
  5
767
  8
LAYER_1
 10
103.5903270359672
 20
21.65189600976528
 30
0.0
  0
VERTEX
  5
768
  8
LAYER_1
 10
103.6032294721917
 20
21.65586576208711
 30
0.0
  0
VERTEX
  5
769
  8
LAYER_1
 10
103.6158321890284
 20
21.66044624553538
 30
0.0
  0
VERTEX
  5
76A
  8
LAYER_1
 10
103.6281351864774
 20
21.66563746011007
 30
0.0
  0
VERTEX
  5
76B
  8
LAYER_1
 10
103.6401384645386
 20
21.67143940581121
 30
0.0
  0
VERTEX
  5
76C
  8
LAYER_1
 10
103.6518420232121
 20
21.67785208263877
 30
0.0
  0
VERTEX
  5
76D
  8
LAYER_1
 10
103.6632458624978
 20
21.68487549059277
 30
0.0
  0
VERTEX
  5
76E
  8
LAYER_1
 10
103.6743499823958
 20
21.69250962967321
 30
0.0
  0
VERTEX
  5
76F
  8
LAYER_1
 10
103.685154382906
 20
21.70075449988008
 30
0.0
  0
VERTEX
  5
770
  8
LAYER_1
 10
103.6956590640284
 20
21.70961010121339
 30
0.0
  0
VERTEX
  5
771
  8
LAYER_1
 10
103.7058640257631
 20
21.71907643367313
 30
0.0
  0
VERTEX
  5
772
  8
LAYER_1
 10
103.7156049058651
 20
21.72899597085226
 30
0.0
  0
VERTEX
  5
773
  8
LAYER_1
 10
103.7247173420896
 20
21.73921118634373
 30
0.0
  0
VERTEX
  5
774
  8
LAYER_1
 10
103.7332013344366
 20
21.74972208014754
 30
0.0
  0
VERTEX
  5
775
  8
LAYER_1
 10
103.741056882906
 20
21.76052865226369
 30
0.0
  0
VERTEX
  5
776
  8
LAYER_1
 10
103.7482839874978
 20
21.77163090269218
 30
0.0
  0
VERTEX
  5
777
  8
LAYER_1
 10
103.7548826482121
 20
21.78302883143301
 30
0.0
  0
VERTEX
  5
778
  8
LAYER_1
 10
103.7608528650488
 20
21.79472243848619
 30
0.0
  0
VERTEX
  5
779
  8
LAYER_1
 10
103.766194638008
 20
21.8067117238517
 30
0.0
  0
VERTEX
  5
77A
  8
LAYER_1
 10
103.7709079670896
 20
21.81899668752955
 30
0.0
  0
VERTEX
  5
77B
  8
LAYER_1
 10
103.7749928522937
 20
21.83157732951975
 30
0.0
  0
VERTEX
  5
77C
  8
LAYER_1
 10
103.7784492936202
 20
21.84445364982228
 30
0.0
  0
VERTEX
  5
77D
  8
LAYER_1
 10
103.7812772910692
 20
21.85762564843716
 30
0.0
  0
VERTEX
  5
77E
  8
LAYER_1
 10
103.7834768446407
 20
21.87109332536437
 30
0.0
  0
VERTEX
  5
77F
  8
LAYER_1
 10
103.7850479543345
 20
21.88485668060393
 30
0.0
  0
VERTEX
  5
780
  8
LAYER_1
 10
103.7859906201509
 20
21.89891571415583
 30
0.0
  0
VERTEX
  5
781
  8
LAYER_1
 10
103.7863048420896
 20
21.91327042602007
 30
0.0
  0
VERTEX
  5
782
  8
LAYER_1
 10
103.786063132906
 20
21.92403449131024
 30
0.0
  0
VERTEX
  5
783
  8
LAYER_1
 10
103.7853380053549
 20
21.934456840242
 30
0.0
  0
VERTEX
  5
784
  8
LAYER_1
 10
103.7841294594366
 20
21.94453747281534
 30
0.0
  0
VERTEX
  5
785
  8
LAYER_1
 10
103.7824374951509
 20
21.95427638903027
 30
0.0
  0
VERTEX
  5
786
  8
LAYER_1
 10
103.7802621124978
 20
21.96367358888677
 30
0.0
  0
VERTEX
  5
787
  8
LAYER_1
 10
103.7776033114774
 20
21.97272907238486
 30
0.0
  0
VERTEX
  5
788
  8
LAYER_1
 10
103.7744610920896
 20
21.98144283952453
 30
0.0
  0
VERTEX
  5
789
  8
LAYER_1
 10
103.7708354543345
 20
21.98981489030578
 30
0.0
  0
VERTEX
  5
78A
  8
LAYER_1
 10
103.7667263982121
 20
21.99784522472861
 30
0.0
  0
VERTEX
  5
78B
  8
LAYER_1
 10
103.7621339237223
 20
22.00553384279303
 30
0.0
  0
VERTEX
  5
78C
  8
LAYER_1
 10
103.7570580308652
 20
22.01288074449902
 30
0.0
  0
VERTEX
  5
78D
  8
LAYER_1
 10
103.7514987196407
 20
22.0198859298466
 30
0.0
  0
VERTEX
  5
78E
  8
LAYER_1
 10
103.7454559900488
 20
22.02654939883575
 30
0.0
  0
VERTEX
  5
78F
  8
LAYER_1
 10
103.7389298420896
 20
22.03287115146649
 30
0.0
  0
VERTEX
  5
790
  8
LAYER_1
 10
103.7319202757631
 20
22.03885118773882
 30
0.0
  0
VERTEX
  5
791
  8
LAYER_1
 10
103.7244272910692
 20
22.04448950765272
 30
0.0
  0
VERTEX
  5
792
  8
LAYER_1
 10
103.716450888008
 20
22.0497861112082
 30
0.0
  0
VERTEX
  5
793
  8
LAYER_1
 10
103.7079910665794
 20
22.05474099840527
 30
0.0
  0
VERTEX
  5
794
  8
LAYER_1
 10
103.6990478267835
 20
22.05935416924392
 30
0.0
  0
VERTEX
  5
795
  8
LAYER_1
 10
103.6896211686202
 20
22.06362562372415
 30
0.0
  0
VERTEX
  5
796
  8
LAYER_1
 10
103.6797110920896
 20
22.06755536184596
 30
0.0
  0
VERTEX
  5
797
  8
LAYER_1
 10
103.6693175971917
 20
22.07114338360935
 30
0.0
  0
VERTEX
  5
798
  8
LAYER_1
 10
103.6584406839264
 20
22.07438968901432
 30
0.0
  0
VERTEX
  5
799
  8
LAYER_1
 10
103.6470803522937
 20
22.07729427806088
 30
0.0
  0
VERTEX
  5
79A
  8
LAYER_1
 10
103.6352366022937
 20
22.07985715074902
 30
0.0
  0
VERTEX
  5
79B
  8
LAYER_1
 10
103.6229094339264
 20
22.08207830707874
 30
0.0
  0
VERTEX
  5
79C
  8
LAYER_1
 10
103.6100988471917
 20
22.08395774705004
 30
0.0
  0
VERTEX
  5
79D
  8
LAYER_1
 10
103.5968048420896
 20
22.08549547066292
 30
0.0
  0
VERTEX
  5
79E
  8
LAYER_1
 10
103.5830274186202
 20
22.08669147791739
 30
0.0
  0
VERTEX
  5
79F
  8
LAYER_1
 10
103.5687665767835
 20
22.08754576881343
 30
0.0
  0
VERTEX
  5
7A0
  8
LAYER_1
 10
103.5540223165794
 20
22.08805834335107
 30
0.0
  0
VERTEX
  5
7A1
  8
LAYER_1
 10
103.538794638008
 20
22.08822920153027
 30
0.0
  0
VERTEX
  5
7A2
  8
LAYER_1
 10
103.4391717808652
 20
21.58693402295884
 30
0.0
  0
VERTEX
  5
7A3
  8
LAYER_1
 10
103.4340209581611
 20
21.56365867488407
 30
0.0
  0
VERTEX
  5
7A4
  8
LAYER_1
 10
103.4278501227019
 20
21.54102151458831
 30
0.0
  0
VERTEX
  5
7A5
  8
LAYER_1
 10
103.4206592744876
 20
21.51902254207157
 30
0.0
  0
VERTEX
  5
7A6
  8
LAYER_1
 10
103.4124484135182
 20
21.49766175733384
 30
0.0
  0
VERTEX
  5
7A7
  8
LAYER_1
 10
103.4032175397937
 20
21.47693916037514
 30
0.0
  0
VERTEX
  5
7A8
  8
LAYER_1
 10
103.3929666533141
 20
21.45685475119545
 30
0.0
  0
VERTEX
  5
7A9
  8
LAYER_1
 10
103.3874587052912
 20
21.44705186702274
 30
0.0
  0
VERTEX
  5
7AA
  8
LAYER_1
 10
103.3816957540794
 20
21.43740852979478
 30
0.0
  0
VERTEX
  5
7AB
  8
LAYER_1
 10
103.3756777996789
 20
21.42792473951157
 30
0.0
  0
VERTEX
  5
7AC
  8
LAYER_1
 10
103.3694048420896
 20
21.41860049617313
 30
0.0
  0
VERTEX
  5
7AD
  8
LAYER_1
 10
103.3560939173447
 20
21.40043065033049
 30
0.0
  0
VERTEX
  5
7AE
  8
LAYER_1
 10
103.3417629798448
 20
21.38289899226688
 30
0.0
  0
VERTEX
  5
7AF
  8
LAYER_1
 10
103.3264120295896
 20
21.36600552198228
 30
0.0
  0
VERTEX
  5
7B0
  8
LAYER_1
 10
103.3100410665794
 20
21.3497502394767
 30
0.0
  0
VERTEX
  5
7B1
  8
LAYER_1
 10
103.2926500908141
 20
21.33413314475013
 30
0.0
  0
VERTEX
  5
7B2
  8
LAYER_1
 10
103.2742391022937
 20
21.31915423780259
 30
0.0
  0
VERTEX
  5
7B3
  8
LAYER_1
 10
103.2548081010182
 20
21.30481351863406
 30
0.0
  0
VERTEX
  5
7B4
  8
LAYER_1
 10
103.2343570869876
 20
21.29111098724456
 30
0.0
  0
VERTEX
  5
7B5
  8
LAYER_1
 10
103.4725856584162
 20
21.28629614030578
 30
0.0
  0
VERTEX
  5
7B6
  8
LAYER_1
 10
103.387194638008
 20
21.19471736479558
 30
0.0
  0
SEQEND
  5
F64
  8
LAYER_1
  0
POLYLINE
  5
E4
  8
LAYER_1
 66
     1
 10
0.0
 20
0.0
 30
0.0
 70
     1
  0
VERTEX
  5
7B7
  8
LAYER_1
 10
104.3391227502529
 20
21.40076960969354
 30
0.0
  0
VERTEX
  5
7B8
  8
LAYER_1
 10
104.3279751227019
 20
21.34384226275476
 30
0.0
  0
VERTEX
  5
7B9
  8
LAYER_1
 10
104.3098675925082
 20
21.32578416964252
 30
0.0
  0
VERTEX
  5
7BA
  8
LAYER_1
 10
104.2920793450393
 20
21.30889111479558
 30
0.0
  0
VERTEX
  5
7BB
  8
LAYER_1
 10
104.2746103802952
 20
21.29316309821395
 30
0.0
  0
VERTEX
  5
7BC
  8
LAYER_1
 10
104.2574606982759
 20
21.27860011989762
 30
0.0
  0
VERTEX
  5
7BD
  8
LAYER_1
 10
104.2406302989814
 20
21.2652021798466
 30
0.0
  0
VERTEX
  5
7BE
  8
LAYER_1
 10
104.2241191824117
 20
21.25296927806088
 30
0.0
  0
VERTEX
  5
7BF
  8
LAYER_1
 10
104.2079273485668
 20
21.24190141454048
 30
0.0
  0
VERTEX
  5
7C0
  8
LAYER_1
 10
104.1920547974468
 20
21.23199858928538
 30
0.0
  0
VERTEX
  5
7C1
  8
LAYER_1
 10
104.1765015290515
 20
21.22326080229558
 30
0.0
  0
VERTEX
  5
7C2
  8
LAYER_1
 10
104.1612675433811
 20
21.21568805357109
 30
0.0
  0
VERTEX
  5
7C3
  8
LAYER_1
 10
104.1463528404355
 20
21.2092803431119
 30
0.0
  0
VERTEX
  5
7C4
  8
LAYER_1
 10
104.1317574202147
 20
21.20403767091803
 30
0.0
  0
VERTEX
  5
7C5
  8
LAYER_1
 10
104.1174812827186
 20
21.19996003698946
 30
0.0
  0
VERTEX
  5
7C6
  8
LAYER_1
 10
104.1035244279474
 20
21.19704744132619
 30
0.0
  0
VERTEX
  5
7C7
  8
LAYER_1
 10
104.089886855901
 20
21.19529988392823
 30
0.0
  0
VERTEX
  5
7C8
  8
LAYER_1
 10
104.0765685665794
 20
21.19471736479558
 30
0.0
  0
VERTEX
  5
7C9
  8
LAYER_1
 10
104.065921503641
 20
21.1950871798466
 30
0.0
  0
VERTEX
  5
7CA
  8
LAYER_1
 10
104.0559613479889
 20
21.19619662499966
 30
0.0
  0
VERTEX
  5
7CB
  8
LAYER_1
 10
104.0466880996231
 20
21.19804570025476
 30
0.0
  0
VERTEX
  5
7CC
  8
LAYER_1
 10
104.0381017585437
 20
21.20063440561191
 30
0.0
  0
VERTEX
  5
7CD
  8
LAYER_1
 10
104.0302023247507
 20
21.20396274107109
 30
0.0
  0
VERTEX
  5
7CE
  8
LAYER_1
 10
104.022989798244
 20
21.20803070663231
 30
0.0
  0
VERTEX
  5
7CF
  8
LAYER_1
 10
104.0164641790236
 20
21.21283830229558
 30
0.0
  0
VERTEX
  5
7D0
  8
LAYER_1
 10
104.0106254670896
 20
21.21838552806089
 30
0.0
  0
VERTEX
  5
7D1
  8
LAYER_1
 10
104.005473662442
 20
21.22467238392823
 30
0.0
  0
VERTEX
  5
7D2
  8
LAYER_1
 10
104.0010087650807
 20
21.23169886989762
 30
0.0
  0
VERTEX
  5
7D3
  8
LAYER_1
 10
103.9972307750058
 20
21.23946498596905
 30
0.0
  0
VERTEX
  5
7D4
  8
LAYER_1
 10
103.9941396922172
 20
21.24797073214252
 30
0.0
  0
VERTEX
  5
7D5
  8
LAYER_1
 10
103.991735516715
 20
21.25721610841802
 30
0.0
  0
VERTEX
  5
7D6
  8
LAYER_1
 10
103.9900182484991
 20
21.26720111479558
 30
0.0
  0
VERTEX
  5
7D7
  8
LAYER_1
 10
103.9889878875696
 20
21.27792575127517
 30
0.0
  0
VERTEX
  5
7D8
  8
LAYER_1
 10
103.9886444339264
 20
21.2893900178568
 30
0.0
  0
VERTEX
  5
7D9
  8
LAYER_1
 10
103.9888476207089
 20
21.29955147193843
 30
0.0
  0
VERTEX
  5
7DA
  8
LAYER_1
 10
103.9894571810565
 20
21.3105444056119
 30
0.0
  0
VERTEX
  5
7DB
  8
LAYER_1
 10
103.9904731149691
 20
21.32236881887721
 30
0.0
  0
VERTEX
  5
7DC
  8
LAYER_1
 10
103.9918954224468
 20
21.33502471173436
 30
0.0
  0
VERTEX
  5
7DD
  8
LAYER_1
 10
103.9959591580973
 20
21.36283093622415
 30
0.0
  0
VERTEX
  5
7DE
  8
LAYER_1
 10
104.001648388008
 20
21.39396307908129
 30
0.0
  0
VERTEX
  5
7DF
  8
LAYER_1
 10
104.0864979798448
 20
21.82091818112211
 30
0.0
  0
VERTEX
  5
7E0
  8
LAYER_1
 10
104.0923802749659
 20
21.84852982971905
 30
0.0
  0
VERTEX
  5
7E1
  8
LAYER_1
 10
104.0988795327784
 20
21.8753655918364
 30
0.0
  0
VERTEX
  5
7E2
  8
LAYER_1
 10
104.1059957532823
 20
21.90142546747415
 30
0.0
  0
VERTEX
  5
7E3
  8
LAYER_1
 10
104.1137289364774
 20
21.92670945663231
 30
0.0
  0
VERTEX
  5
7E4
  8
LAYER_1
 10
104.1220790823639
 20
21.95121755931088
 30
0.0
  0
VERTEX
  5
7E5
  8
LAYER_1
 10
104.1310461909417
 20
21.97494977550986
 30
0.0
  0
VERTEX
  5
7E6
  8
LAYER_1
 10
104.1406302622108
 20
21.99790610522925
 30
0.0
  0
VERTEX
  5
7E7
  8
LAYER_1
 10
104.1508312961713
 20
22.02008654846905
 30
0.0
  0
VERTEX
  5
7E8
  8
LAYER_1
 10
104.1616492928231
 20
22.04149110522925
 30
0.0
  0
VERTEX
  5
7E9
  8
LAYER_1
 10
104.1730842521662
 20
22.06211977550986
 30
0.0
  0
VERTEX
  5
7EA
  8
LAYER_1
 10
104.1851361742006
 20
22.08197255931088
 30
0.0
  0
VERTEX
  5
7EB
  8
LAYER_1
 10
104.1978050589264
 20
22.10104945663231
 30
0.0
  0
VERTEX
  5
7EC
  8
LAYER_1
 10
104.2110909063435
 20
22.11935046747415
 30
0.0
  0
VERTEX
  5
7ED
  8
LAYER_1
 10
104.2249937164519
 20
22.13687559183639
 30
0.0
  0
VERTEX
  5
7EE
  8
LAYER_1
 10
104.2395134892516
 20
22.15362482971904
 30
0.0
  0
VERTEX
  5
7EF
  8
LAYER_1
 10
104.2546502247427
 20
22.16959818112211
 30
0.0
  0
VERTEX
  5
7F0
  8
LAYER_1
 10
104.2703046710916
 20
22.18469654528027
 30
0.0
  0
VERTEX
  5
7F1
  8
LAYER_1
 10
104.2863775764646
 20
22.19882082142823
 30
0.0
  0
VERTEX
  5
7F2
  8
LAYER_1
 10
104.302868940862
 20
22.21197100956599
 30
0.0
  0
VERTEX
  5
7F3
  8
LAYER_1
 10
104.3197787642835
 20
22.22414710969354
 30
0.0
  0
VERTEX
  5
7F4
  8
LAYER_1
 10
104.3371070467293
 20
22.23534912181088
 30
0.0
  0
VERTEX
  5
7F5
  8
LAYER_1
 10
104.3548537881993
 20
22.24557704591803
 30
0.0
  0
VERTEX
  5
7F6
  8
LAYER_1
 10
104.3730189886936
 20
22.25483088201496
 30
0.0
  0
VERTEX
  5
7F7
  8
LAYER_1
 10
104.3916026482121
 20
22.2631106301017
 30
0.0
  0
VERTEX
  5
7F8
  8
LAYER_1
 10
104.4106047667548
 20
22.27041629017823
 30
0.0
  0
VERTEX
  5
7F9
  8
LAYER_1
 10
104.4300253443218
 20
22.27674786224456
 30
0.0
  0
VERTEX
  5
7FA
  8
LAYER_1
 10
104.449864380913
 20
22.28210534630068
 30
0.0
  0
VERTEX
  5
7FB
  8
LAYER_1
 10
104.4701218765284
 20
22.2864887423466
 30
0.0
  0
VERTEX
  5
7FC
  8
LAYER_1
 10
104.4907978311681
 20
22.28989805038231
 30
0.0
  0
VERTEX
  5
7FD
  8
LAYER_1
 10
104.511892244832
 20
22.29233327040782
 30
0.0
  0
VERTEX
  5
7FE
  8
LAYER_1
 10
104.5334051175201
 20
22.29379440242312
 30
0.0
  0
VERTEX
  5
7FF
  8
LAYER_1
 10
104.5553364492325
 20
22.29428144642823
 30
0.0
  0
VERTEX
  5
800
  8
LAYER_1
 10
104.5706268211235
 20
22.29407841071394
 30
0.0
  0
VERTEX
  5
801
  8
LAYER_1
 10
104.585530156184
 20
22.29346930357109
 30
0.0
  0
VERTEX
  5
802
  8
LAYER_1
 10
104.6000464544143
 20
22.29245412499966
 30
0.0
  0
VERTEX
  5
803
  8
LAYER_1
 10
104.6141757158141
 20
22.29103287499966
 30
0.0
  0
VERTEX
  5
804
  8
LAYER_1
 10
104.6279179403837
 20
22.28920555357109
 30
0.0
  0
VERTEX
  5
805
  8
LAYER_1
 10
104.6412731281228
 20
22.28697216071394
 30
0.0
  0
VERTEX
  5
806
  8
LAYER_1
 10
104.6542412790316
 20
22.28433269642823
 30
0.0
  0
VERTEX
  5
807
  8
LAYER_1
 10
104.6668223931101
 20
22.28128716071394
 30
0.0
  0
VERTEX
  5
808
  8
LAYER_1
 10
104.5819534645386
 20
22.19280226275476
 30
0.0
  0
VERTEX
  5
809
  8
LAYER_1
 10
104.5642993278996
 20
22.20048861479557
 30
0.0
  0
VERTEX
  5
80A
  8
LAYER_1
 10
104.5472645710437
 20
22.20715011989762
 30
0.0
  0
VERTEX
  5
80B
  8
LAYER_1
 10
104.530849193971
 20
22.21278677806088
 30
0.0
  0
VERTEX
  5
80C
  8
LAYER_1
 10
104.5150531966815
 20
22.21739858928537
 30
0.0
  0
VERTEX
  5
80D
  8
LAYER_1
 10
104.4998765791751
 20
22.22098555357109
 30
0.0
  0
VERTEX
  5
80E
  8
LAYER_1
 10
104.4853193414519
 20
22.22354767091803
 30
0.0
  0
VERTEX
  5
80F
  8
LAYER_1
 10
104.4713814835118
 20
22.22508494132619
 30
0.0
  0
VERTEX
  5
810
  8
LAYER_1
 10
104.458063005355
 20
22.22559736479558
 30
0.0
  0
VERTEX
  5
811
  8
LAYER_1
 10
104.4459426871749
 20
22.22531698214252
 30
0.0
  0
VERTEX
  5
812
  8
LAYER_1
 10
104.4342046471757
 20
22.22447583418333
 30
0.0
  0
VERTEX
  5
813
  8
LAYER_1
 10
104.4228488853574
 20
22.22307392091803
 30
0.0
  0
VERTEX
  5
814
  8
LAYER_1
 10
104.4118754017198
 20
22.2211112423466
 30
0.0
  0
VERTEX
  5
815
  8
LAYER_1
 10
104.401284196263
 20
22.21858779846904
 30
0.0
  0
VERTEX
  5
816
  8
LAYER_1
 10
104.391075268987
 20
22.21550358928537
 30
0.0
  0
VERTEX
  5
817
  8
LAYER_1
 10
104.3812486198918
 20
22.21185861479558
 30
0.0
  0
VERTEX
  5
818
  8
LAYER_1
 10
104.3718042489774
 20
22.20765287499966
 30
0.0
  0
VERTEX
  5
819
  8
LAYER_1
 10
104.3627421562438
 20
22.20288636989762
 30
0.0
  0
VERTEX
  5
81A
  8
LAYER_1
 10
104.354062341691
 20
22.19755909948946
 30
0.0
  0
VERTEX
  5
81B
  8
LAYER_1
 10
104.3457648053191
 20
22.19167106377517
 30
0.0
  0
VERTEX
  5
81C
  8
LAYER_1
 10
104.3378495471279
 20
22.18522226275476
 30
0.0
  0
VERTEX
  5
81D
  8
LAYER_1
 10
104.3303165671176
 20
22.17821269642823
 30
0.0
  0
VERTEX
  5
81E
  8
LAYER_1
 10
104.323165865288
 20
22.17064236479558
 30
0.0
  0
VERTEX
  5
81F
  8
LAYER_1
 10
104.3163974416392
 20
22.1625112678568
 30
0.0
  0
VERTEX
  5
820
  8
LAYER_1
 10
104.3100112961713
 20
22.15381940561191
 30
0.0
  0
VERTEX
  5
821
  8
LAYER_1
 10
104.3038550387972
 20
22.14434682270374
 30
0.0
  0
VERTEX
  5
822
  8
LAYER_1
 10
104.2977762794302
 20
22.13387356377517
 30
0.0
  0
VERTEX
  5
823
  8
LAYER_1
 10
104.2917750180702
 20
22.12239962882619
 30
0.0
  0
VERTEX
  5
824
  8
LAYER_1
 10
104.2858512547172
 20
22.1099250178568
 30
0.0
  0
VERTEX
  5
825
  8
LAYER_1
 10
104.2800049893712
 20
22.096449730867
 30
0.0
  0
VERTEX
  5
826
  8
LAYER_1
 10
104.2742362220323
 20
22.0819737678568
 30
0.0
  0
VERTEX
  5
827
  8
LAYER_1
 10
104.2685449527003
 20
22.06649712882619
 30
0.0
  0
VERTEX
  5
828
  8
LAYER_1
 10
104.2629311813754
 20
22.05001981377517
 30
0.0
  0
VERTEX
  5
829
  8
LAYER_1
 10
104.2573949080574
 20
22.03254182270374
 30
0.0
  0
VERTEX
  5
82A
  8
LAYER_1
 10
104.2519361327465
 20
22.01406315561191
 30
0.0
  0
VERTEX
  5
82B
  8
LAYER_1
 10
104.2465548554426
 20
21.99458381249966
 30
0.0
  0
VERTEX
  5
82C
  8
LAYER_1
 10
104.2412510761458
 20
21.97410379336701
 30
0.0
  0
VERTEX
  5
82D
  8
LAYER_1
 10
104.2360247948559
 20
21.95262309821395
 30
0.0
  0
VERTEX
  5
82E
  8
LAYER_1
 10
104.2308760115731
 20
21.93014172704048
 30
0.0
  0
VERTEX
  5
82F
  8
LAYER_1
 10
104.2208109390284
 20
21.88217695663231
 30
0.0
  0
VERTEX
  5
830
  8
LAYER_1
 10
104.1235568318856
 20
21.39334430357109
 30
0.0
  0
VERTEX
  5
831
  8
LAYER_1
 10
104.1173219434927
 20
21.36085858928537
 30
0.0
  0
VERTEX
  5
832
  8
LAYER_1
 10
104.1128684517835
 20
21.3345606301017
 30
0.0
  0
VERTEX
  5
833
  8
LAYER_1
 10
104.110196356758
 20
21.31445042602007
 30
0.0
  0
VERTEX
  5
834
  8
LAYER_1
 10
104.1095283330016
 20
21.30671573214251
 30
0.0
  0
VERTEX
  5
835
  8
LAYER_1
 10
104.1093056584162
 20
21.30052797704047
 30
0.0
  0
VERTEX
  5
836
  8
LAYER_1
 10
104.1094484179028
 20
21.29580739668333
 30
0.0
  0
VERTEX
  5
837
  8
LAYER_1
 10
104.1098766963626
 20
21.29139136989762
 30
0.0
  0
VERTEX
  5
838
  8
LAYER_1
 10
104.1105904937956
 20
21.28727989668333
 30
0.0
  0
VERTEX
  5
839
  8
LAYER_1
 10
104.1115898102019
 20
21.28347297704047
 30
0.0
  0
VERTEX
  5
83A
  8
LAYER_1
 10
104.1128746455814
 20
21.27997061096905
 30
0.0
  0
VERTEX
  5
83B
  8
LAYER_1
 10
104.114444999934
 20
21.27677279846905
 30
0.0
  0
VERTEX
  5
83C
  8
LAYER_1
 10
104.1163008732599
 20
21.27387953954048
 30
0.0
  0
VERTEX
  5
83D
  8
LAYER_1
 10
104.118442265559
 20
21.27129083418333
 30
0.0
  0
VERTEX
  5
83E
  8
LAYER_1
 10
104.1208691768313
 20
21.26900668239762
 30
0.0
  0
VERTEX
  5
83F
  8
LAYER_1
 10
104.1235816070769
 20
21.26702708418333
 30
0.0
  0
VERTEX
  5
840
  8
LAYER_1
 10
104.1265795562956
 20
21.26535203954048
 30
0.0
  0
VERTEX
  5
841
  8
LAYER_1
 10
104.1298630244876
 20
21.26398154846905
 30
0.0
  0
VERTEX
  5
842
  8
LAYER_1
 10
104.1334320116528
 20
21.26291561096905
 30
0.0
  0
VERTEX
  5
843
  8
LAYER_1
 10
104.1372865177912
 20
21.26215422704048
 30
0.0
  0
VERTEX
  5
844
  8
LAYER_1
 10
104.1414265429028
 20
21.26169739668333
 30
0.0
  0
VERTEX
  5
845
  8
LAYER_1
 10
104.1458520869876
 20
21.26154511989762
 30
0.0
  0
VERTEX
  5
846
  8
LAYER_1
 10
104.1513428132312
 20
21.26197536224456
 30
0.0
  0
VERTEX
  5
847
  8
LAYER_1
 10
104.157438416707
 20
21.26326608928537
 30
0.0
  0
VERTEX
  5
848
  8
LAYER_1
 10
104.1641388974149
 20
21.26541730102007
 30
0.0
  0
VERTEX
  5
849
  8
LAYER_1
 10
104.1714442553549
 20
21.26842899744864
 30
0.0
  0
VERTEX
  5
84A
  8
LAYER_1
 10
104.1793544905271
 20
21.27230117857109
 30
0.0
  0
VERTEX
  5
84B
  8
LAYER_1
 10
104.1878696029315
 20
21.27703384438741
 30
0.0
  0
VERTEX
  5
84C
  8
LAYER_1
 10
104.196989592568
 20
21.28262699489762
 30
0.0
  0
VERTEX
  5
84D
  8
LAYER_1
 10
104.2067144594366
 20
21.2890806301017
 30
0.0
  0
VERTEX
  5
84E
  8
LAYER_1
 10
104.2170442035374
 20
21.29639474999966
 30
0.0
  0
VERTEX
  5
84F
  8
LAYER_1
 10
104.2279788248703
 20
21.30456935459149
 30
0.0
  0
VERTEX
  5
850
  8
LAYER_1
 10
104.2516626992325
 20
21.3235000178568
 30
0.0
  0
VERTEX
  5
851
  8
LAYER_1
 10
104.2777660825233
 20
21.34587261989762
 30
0.0
  0
VERTEX
  5
852
  8
LAYER_1
 10
104.3062889747427
 20
21.37168716071395
 30
0.0
  0
VERTEX
  5
853
  8
LAYER_1
 10
104.3191430691305
 20
21.38328920153027
 30
0.0
  0
SEQEND
  5
F65
  8
LAYER_1
  0
POLYLINE
  5
E5
  8
LAYER_1
 66
     1
 10
0.0
 20
0.0
 30
0.0
 70
     1
  0
VERTEX
  5
854
  8
LAYER_1
 10
104.4236436175998
 20
20.81602675255068
 30
0.0
  0
VERTEX
  5
855
  8
LAYER_1
 10
104.509034638008
 20
20.90265532397925
 30
0.0
  0
VERTEX
  5
856
  8
LAYER_1
 10
104.5244846890284
 20
20.89424384438741
 30
0.0
  0
VERTEX
  5
857
  8
LAYER_1
 10
104.5402054543345
 20
20.88695389540782
 30
0.0
  0
VERTEX
  5
858
  8
LAYER_1
 10
104.5561969339264
 20
20.88078547704048
 30
0.0
  0
VERTEX
  5
859
  8
LAYER_1
 10
104.5724591278039
 20
20.87573858928537
 30
0.0
  0
VERTEX
  5
85A
  8
LAYER_1
 10
104.5889920359672
 20
20.87181323214251
 30
0.0
  0
VERTEX
  5
85B
  8
LAYER_1
 10
104.6057956584162
 20
20.8690094056119
 30
0.0
  0
VERTEX
  5
85C
  8
LAYER_1
 10
104.6228699951509
 20
20.86732710969354
 30
0.0
  0
VERTEX
  5
85D
  8
LAYER_1
 10
104.6402150461713
 20
20.86676634438741
 30
0.0
  0
VERTEX
  5
85E
  8
LAYER_1
 10
104.6508176195131
 20
20.86700563647925
 30
0.0
  0
VERTEX
  5
85F
  8
LAYER_1
 10
104.661122890559
 20
20.86772351275476
 30
0.0
  0
VERTEX
  5
860
  8
LAYER_1
 10
104.671130859309
 20
20.86891997321395
 30
0.0
  0
VERTEX
  5
861
  8
LAYER_1
 10
104.6808415257631
 20
20.8705950178568
 30
0.0
  0
VERTEX
  5
862
  8
LAYER_1
 10
104.6902548899213
 20
20.87274864668333
 30
0.0
  0
VERTEX
  5
863
  8
LAYER_1
 10
104.6993709517835
 20
20.87538085969354
 30
0.0
  0
VERTEX
  5
864
  8
LAYER_1
 10
104.7081897113499
 20
20.87849165688742
 30
0.0
  0
VERTEX
  5
865
  8
LAYER_1
 10
104.7167111686203
 20
20.88208103826497
 30
0.0
  0
VERTEX
  5
866
  8
LAYER_1
 10
104.7249353235947
 20
20.88614900382619
 30
0.0
  0
VERTEX
  5
867
  8
LAYER_1
 10
104.7328621762733
 20
20.89069555357109
 30
0.0
  0
VERTEX
  5
868
  8
LAYER_1
 10
104.740491726656
 20
20.89572068749966
 30
0.0
  0
VERTEX
  5
869
  8
LAYER_1
 10
104.7478239747427
 20
20.90122440561191
 30
0.0
  0
VERTEX
  5
86A
  8
LAYER_1
 10
104.7548589205335
 20
20.90720670790782
 30
0.0
  0
VERTEX
  5
86B
  8
LAYER_1
 10
104.7615965640284
 20
20.91366759438741
 30
0.0
  0
VERTEX
  5
86C
  8
LAYER_1
 10
104.7680369052274
 20
20.92060706505068
 30
0.0
  0
VERTEX
  5
86D
  8
LAYER_1
 10
104.7741799441305
 20
20.92802511989762
 30
0.0
  0
VERTEX
  5
86E
  8
LAYER_1
 10
104.7801392840539
 20
20.93607403571394
 30
0.0
  0
VERTEX
  5
86F
  8
LAYER_1
 10
104.7860285283141
 20
20.94490608928538
 30
0.0
  0
VERTEX
  5
870
  8
LAYER_1
 10
104.7918476769111
 20
20.95452128061191
 30
0.0
  0
VERTEX
  5
871
  8
LAYER_1
 10
104.7975967298447
 20
20.96491960969354
 30
0.0
  0
VERTEX
  5
872
  8
LAYER_1
 10
104.8032756871151
 20
20.97610107653027
 30
0.0
  0
VERTEX
  5
873
  8
LAYER_1
 10
104.8088845487223
 20
20.98806568112211
 30
0.0
  0
VERTEX
  5
874
  8
LAYER_1
 10
104.8144233146662
 20
21.00081342346905
 30
0.0
  0
VERTEX
  5
875
  8
LAYER_1
 10
104.8198919849468
 20
21.01434430357109
 30
0.0
  0
VERTEX
  5
876
  8
LAYER_1
 10
104.8252905595641
 20
21.02865832142823
 30
0.0
  0
VERTEX
  5
877
  8
LAYER_1
 10
104.8306190385182
 20
21.04375547704048
 30
0.0
  0
VERTEX
  5
878
  8
LAYER_1
 10
104.835877421809
 20
21.05963577040782
 30
0.0
  0
VERTEX
  5
879
  8
LAYER_1
 10
104.8410657094366
 20
21.07629920153027
 30
0.0
  0
VERTEX
  5
87A
  8
LAYER_1
 10
104.8512319977019
 20
21.11197547704047
 30
0.0
  0
VERTEX
  5
87B
  8
LAYER_1
 10
104.8611179033141
 20
21.15078430357109
 30
0.0
  0
VERTEX
  5
87C
  8
LAYER_1
 10
104.9570281073958
 20
21.5461818545915
 30
0.0
  0
VERTEX
  5
87D
  8
LAYER_1
 10
104.9489840257631
 20
21.5461818545915
 30
0.0
  0
VERTEX
  5
87E
  8
LAYER_1
 10
104.9308461686202
 20
21.51019135714252
 30
0.0
  0
VERTEX
  5
87F
  8
LAYER_1
 10
104.9126309645386
 20
21.47585415050986
 30
0.0
  0
VERTEX
  5
880
  8
LAYER_1
 10
104.8943384135182
 20
21.44317023469354
 30
0.0
  0
VERTEX
  5
881
  8
LAYER_1
 10
104.875968515559
 20
21.41213960969354
 30
0.0
  0
VERTEX
  5
882
  8
LAYER_1
 10
104.8575212706611
 20
21.38276227550986
 30
0.0
  0
VERTEX
  5
883
  8
LAYER_1
 10
104.8389966788243
 20
21.35503823214251
 30
0.0
  0
VERTEX
  5
884
  8
LAYER_1
 10
104.8203947400488
 20
21.3289674795915
 30
0.0
  0
VERTEX
  5
885
  8
LAYER_1
 10
104.8017154543345
 20
21.3045500178568
 30
0.0
  0
VERTEX
  5
886
  8
LAYER_1
 10
104.7834905818856
 20
21.28243362755068
 30
0.0
  0
VERTEX
  5
887
  8
LAYER_1
 10
104.7747479607121
 20
21.27248125191293
 30
0.0
  0
VERTEX
  5
888
  8
LAYER_1
 10
104.766251882906
 20
21.26326608928537
 30
0.0
  0
VERTEX
  5
889
  8
LAYER_1
 10
104.7580023484672
 20
21.25478813966803
 30
0.0
  0
VERTEX
  5
88A
  8
LAYER_1
 10
104.7499993573958
 20
21.24704740306088
 30
0.0
  0
VERTEX
  5
88B
  8
LAYER_1
 10
104.7422429096917
 20
21.24004387946395
 30
0.0
  0
VERTEX
  5
88C
  8
LAYER_1
 10
104.7347330053549
 20
21.23377756887721
 30
0.0
  0
VERTEX
  5
88D
  8
LAYER_1
 10
104.7274696443856
 20
21.22824847130068
 30
0.0
  0
VERTEX
  5
88E
  8
LAYER_1
 10
104.7204528267835
 20
21.22345658673435
 30
0.0
  0
VERTEX
  5
88F
  8
LAYER_1
 10
104.7136825525488
 20
21.21940191517823
 30
0.0
  0
VERTEX
  5
890
  8
LAYER_1
 10
104.7071588216815
 20
21.21608445663231
 30
0.0
  0
VERTEX
  5
891
  8
LAYER_1
 10
104.7008816341815
 20
21.2135042110966
 30
0.0
  0
VERTEX
  5
892
  8
LAYER_1
 10
104.6948509900488
 20
21.21166117857109
 30
0.0
  0
VERTEX
  5
893
  8
LAYER_1
 10
104.6890668892835
 20
21.21055535905578
 30
0.0
  0
VERTEX
  5
894
  8
LAYER_1
 10
104.6835293318856
 20
21.21018675255068
 30
0.0
  0
VERTEX
  5
895
  8
LAYER_1
 10
104.677971229207
 20
21.21037649425986
 30
0.0
  0
VERTEX
  5
896
  8
LAYER_1
 10
104.6725895742325
 20
21.21094571938741
 30
0.0
  0
VERTEX
  5
897
  8
LAYER_1
 10
104.6673843669621
 20
21.21189442793333
 30
0.0
  0
VERTEX
  5
898
  8
LAYER_1
 10
104.6623556073958
 20
21.21322261989762
 30
0.0
  0
VERTEX
  5
899
  8
LAYER_1
 10
104.6575032955335
 20
21.21493029528027
 30
0.0
  0
VERTEX
  5
89A
  8
LAYER_1
 10
104.6528274313754
 20
21.21701745408129
 30
0.0
  0
VERTEX
  5
89B
  8
LAYER_1
 10
104.6483280149213
 20
21.21948409630068
 30
0.0
  0
VERTEX
  5
89C
  8
LAYER_1
 10
104.6440050461713
 20
21.22233022193844
 30
0.0
  0
VERTEX
  5
89D
  8
LAYER_1
 10
104.6398585251254
 20
21.22555583099456
 30
0.0
  0
VERTEX
  5
89E
  8
LAYER_1
 10
104.6358884517835
 20
21.22916092346905
 30
0.0
  0
VERTEX
  5
89F
  8
LAYER_1
 10
104.6320948261458
 20
21.2331454993619
 30
0.0
  0
VERTEX
  5
8A0
  8
LAYER_1
 10
104.6284776482121
 20
21.23750955867313
 30
0.0
  0
VERTEX
  5
8A1
  8
LAYER_1
 10
104.6250369179825
 20
21.24225310140272
 30
0.0
  0
VERTEX
  5
8A2
  8
LAYER_1
 10
104.621772635457
 20
21.24737612755068
 30
0.0
  0
VERTEX
  5
8A3
  8
LAYER_1
 10
104.6186848006356
 20
21.25287863711701
 30
0.0
  0
VERTEX
  5
8A4
  8
LAYER_1
 10
104.6157734135182
 20
21.2587606301017
 30
0.0
  0
VERTEX
  5
8A5
  8
LAYER_1
 10
104.6102189364774
 20
21.27220449489762
 30
0.0
  0
VERTEX
  5
8A6
  8
LAYER_1
 10
104.6048481584162
 20
21.28824915050986
 30
0.0
  0
VERTEX
  5
8A7
  8
LAYER_1
 10
104.5996610793345
 20
21.30689459693843
 30
0.0
  0
VERTEX
  5
8A8
  8
LAYER_1
 10
104.5946576992325
 20
21.32814083418333
 30
0.0
  0
VERTEX
  5
8A9
  8
LAYER_1
 10
104.58983801811
 20
21.35198786224456
 30
0.0
  0
VERTEX
  5
8AA
  8
LAYER_1
 10
104.5852020359672
 20
21.37843568112211
 30
0.0
  0
VERTEX
  5
8AB
  8
LAYER_1
 10
104.5807497528039
 20
21.40748429081599
 30
0.0
  0
VERTEX
  5
8AC
  8
LAYER_1
 10
104.5764811686202
 20
21.43913369132619
 30
0.0
  0
VERTEX
  5
8AD
  8
LAYER_1
 10
104.5467799441304
 20
21.67983736479558
 30
0.0
  0
VERTEX
  5
8AE
  8
LAYER_1
 10
104.5446021443855
 20
21.69602221173436
 30
0.0
  0
VERTEX
  5
8AF
  8
LAYER_1
 10
104.5422454798447
 20
21.71116287499966
 30
0.0
  0
VERTEX
  5
8B0
  8
LAYER_1
 10
104.539709950508
 20
21.7252593545915
 30
0.0
  0
VERTEX
  5
8B1
  8
LAYER_1
 10
104.5369955563753
 20
21.73831165050986
 30
0.0
  0
VERTEX
  5
8B2
  8
LAYER_1
 10
104.5341022974468
 20
21.75031976275476
 30
0.0
  0
VERTEX
  5
8B3
  8
LAYER_1
 10
104.5310301737223
 20
21.76128369132619
 30
0.0
  0
VERTEX
  5
8B4
  8
LAYER_1
 10
104.5277791852019
 20
21.77120343622416
 30
0.0
  0
VERTEX
  5
8B5
  8
LAYER_1
 10
104.5243493318856
 20
21.78007899744864
 30
0.0
  0
VERTEX
  5
8B6
  8
LAYER_1
 10
104.5207406137733
 20
21.78791037499966
 30
0.0
  0
VERTEX
  5
8B7
  8
LAYER_1
 10
104.5169530308652
 20
21.79469756887721
 30
0.0
  0
VERTEX
  5
8B8
  8
LAYER_1
 10
104.5129865831611
 20
21.8004405790813
 30
0.0
  0
VERTEX
  5
8B9
  8
LAYER_1
 10
104.5088412706611
 20
21.8051394056119
 30
0.0
  0
VERTEX
  5
8BA
  8
LAYER_1
 10
104.5045170933651
 20
21.80879404846905
 30
0.0
  0
VERTEX
  5
8BB
  8
LAYER_1
 10
104.5000140512733
 20
21.81140450765272
 30
0.0
  0
VERTEX
  5
8BC
  8
LAYER_1
 10
104.4953321443855
 20
21.81297078316293
 30
0.0
  0
VERTEX
  5
8BD
  8
LAYER_1
 10
104.4904713727019
 20
21.81349287499966
 30
0.0
  0
VERTEX
  5
8BE
  8
LAYER_1
 10
104.4854897464264
 20
21.81306988392823
 30
0.0
  0
VERTEX
  5
8BF
  8
LAYER_1
 10
104.480135888008
 20
21.81180091071395
 30
0.0
  0
VERTEX
  5
8C0
  8
LAYER_1
 10
104.4744097974468
 20
21.80968595535681
 30
0.0
  0
VERTEX
  5
8C1
  8
LAYER_1
 10
104.4683114747427
 20
21.8067250178568
 30
0.0
  0
VERTEX
  5
8C2
  8
LAYER_1
 10
104.4618409198957
 20
21.80291809821394
 30
0.0
  0
VERTEX
  5
8C3
  8
LAYER_1
 10
104.454998132906
 20
21.79826519642823
 30
0.0
  0
VERTEX
  5
8C4
  8
LAYER_1
 10
104.4477831137733
 20
21.79276631249966
 30
0.0
  0
VERTEX
  5
8C5
  8
LAYER_1
 10
104.4401958624978
 20
21.78642144642823
 30
0.0
  0
VERTEX
  5
8C6
  8
LAYER_1
 10
104.4322363790794
 20
21.77923059821394
 30
0.0
  0
VERTEX
  5
8C7
  8
LAYER_1
 10
104.4239046635182
 20
21.7711937678568
 30
0.0
  0
VERTEX
  5
8C8
  8
LAYER_1
 10
104.4152007158141
 20
21.7623109553568
 30
0.0
  0
VERTEX
  5
8C9
  8
LAYER_1
 10
104.4061245359672
 20
21.75258216071395
 30
0.0
  0
VERTEX
  5
8CA
  8
LAYER_1
 10
104.3868554798447
 20
21.73058662499966
 30
0.0
  0
VERTEX
  5
8CB
  8
LAYER_1
 10
104.3660974951509
 20
21.70520716071395
 30
0.0
  0
VERTEX
  5
8CC
  8
LAYER_1
 10
104.3784730053549
 20
21.76832226275476
 30
0.0
  0
VERTEX
  5
8CD
  8
LAYER_1
 10
104.3905753841815
 20
21.78390767091803
 30
0.0
  0
VERTEX
  5
8CE
  8
LAYER_1
 10
104.4025955818855
 20
21.79848756887721
 30
0.0
  0
VERTEX
  5
8CF
  8
LAYER_1
 10
104.4145335984672
 20
21.81206195663232
 30
0.0
  0
VERTEX
  5
8D0
  8
LAYER_1
 10
104.4263894339264
 20
21.82463083418333
 30
0.0
  0
VERTEX
  5
8D1
  8
LAYER_1
 10
104.4381630882631
 20
21.83619420153027
 30
0.0
  0
VERTEX
  5
8D2
  8
LAYER_1
 10
104.4498545614774
 20
21.84675205867313
 30
0.0
  0
VERTEX
  5
8D3
  8
LAYER_1
 10
104.4614638535692
 20
21.8563044056119
 30
0.0
  0
VERTEX
  5
8D4
  8
LAYER_1
 10
104.4729909645386
 20
21.8648512423466
 30
0.0
  0
VERTEX
  5
8D5
  8
LAYER_1
 10
104.4844358943856
 20
21.87239256887721
 30
0.0
  0
VERTEX
  5
8D6
  8
LAYER_1
 10
104.49579864311
 20
21.87892838520374
 30
0.0
  0
VERTEX
  5
8D7
  8
LAYER_1
 10
104.5070792107121
 20
21.88445869132619
 30
0.0
  0
VERTEX
  5
8D8
  8
LAYER_1
 10
104.5182775971917
 20
21.88898348724456
 30
0.0
  0
VERTEX
  5
8D9
  8
LAYER_1
 10
104.5293938025488
 20
21.89250277295884
 30
0.0
  0
VERTEX
  5
8DA
  8
LAYER_1
 10
104.5404278267835
 20
21.89501654846904
 30
0.0
  0
VERTEX
  5
8DB
  8
LAYER_1
 10
104.5513796698958
 20
21.89652481377517
 30
0.0
  0
VERTEX
  5
8DC
  8
LAYER_1
 10
104.5622493318856
 20
21.89702756887721
 30
0.0
  0
VERTEX
  5
8DD
  8
LAYER_1
 10
104.5683259007631
 20
21.89685353826496
 30
0.0
  0
VERTEX
  5
8DE
  8
LAYER_1
 10
104.5741800971917
 20
21.89633144642823
 30
0.0
  0
VERTEX
  5
8DF
  8
LAYER_1
 10
104.5798119211713
 20
21.89546129336701
 30
0.0
  0
VERTEX
  5
8E0
  8
LAYER_1
 10
104.5852213727019
 20
21.89424307908129
 30
0.0
  0
VERTEX
  5
8E1
  8
LAYER_1
 10
104.5904084517835
 20
21.89267680357109
 30
0.0
  0
VERTEX
  5
8E2
  8
LAYER_1
 10
104.5953731584162
 20
21.89076246683639
 30
0.0
  0
VERTEX
  5
8E3
  8
LAYER_1
 10
104.6001154925998
 20
21.88850006887721
 30
0.0
  0
VERTEX
  5
8E4
  8
LAYER_1
 10
104.6046354543345
 20
21.88588960969354
 30
0.0
  0
VERTEX
  5
8E5
  8
LAYER_1
 10
104.6089330436203
 20
21.88293108928537
 30
0.0
  0
VERTEX
  5
8E6
  8
LAYER_1
 10
104.613008260457
 20
21.87962450765272
 30
0.0
  0
VERTEX
  5
8E7
  8
LAYER_1
 10
104.6168611048447
 20
21.87596986479558
 30
0.0
  0
VERTEX
  5
8E8
  8
LAYER_1
 10
104.6204915767835
 20
21.87196716071394
 30
0.0
  0
VERTEX
  5
8E9
  8
LAYER_1
 10
104.6238996762733
 20
21.86761639540782
 30
0.0
  0
VERTEX
  5
8EA
  8
LAYER_1
 10
104.6270854033141
 20
21.86291756887721
 30
0.0
  0
VERTEX
  5
8EB
  8
LAYER_1
 10
104.630048757906
 20
21.85787068112211
 30
0.0
  0
VERTEX
  5
8EC
  8
LAYER_1
 10
104.6327897400488
 20
21.85247573214252
 30
0.0
  0
VERTEX
  5
8ED
  8
LAYER_1
 10
104.6354098675998
 20
21.84652243494864
 30
0.0
  0
VERTEX
  5
8EE
  8
LAYER_1
 10
104.6380106584162
 20
21.83980050255068
 30
0.0
  0
VERTEX
  5
8EF
  8
LAYER_1
 10
104.6431542298447
 20
21.82405073214251
 30
0.0
  0
VERTEX
  5
8F0
  8
LAYER_1
 10
104.6482204543345
 20
21.80522642091803
 30
0.0
  0
VERTEX
  5
8F1
  8
LAYER_1
 10
104.6532093318856
 20
21.78332756887721
 30
0.0
  0
VERTEX
  5
8F2
  8
LAYER_1
 10
104.6581208624978
 20
21.75835417602006
 30
0.0
  0
VERTEX
  5
8F3
  8
LAYER_1
 10
104.6629550461713
 20
21.73030624234659
 30
0.0
  0
VERTEX
  5
8F4
  8
LAYER_1
 10
104.667711882906
 20
21.6991837678568
 30
0.0
  0
VERTEX
  5
8F5
  8
LAYER_1
 10
104.6723913727019
 20
21.66498675255068
 30
0.0
  0
VERTEX
  5
8F6
  8
LAYER_1
 10
104.6983799441305
 20
21.45831573214252
 30
0.0
  0
VERTEX
  5
8F7
  8
LAYER_1
 10
104.7022279543345
 20
21.43235616581599
 30
0.0
  0
VERTEX
  5
8F8
  8
LAYER_1
 10
104.7043694977019
 20
21.42067436096904
 30
0.0
  0
VERTEX
  5
8F9
  8
LAYER_1
 10
104.7066560665794
 20
21.40985787499966
 30
0.0
  0
VERTEX
  5
8FA
  8
LAYER_1
 10
104.7090876609672
 20
21.39990670790782
 30
0.0
  0
VERTEX
  5
8FB
  8
LAYER_1
 10
104.7116642808651
 20
21.39082085969354
 30
0.0
  0
VERTEX
  5
8FC
  8
LAYER_1
 10
104.7143859262733
 20
21.3826003303568
 30
0.0
  0
VERTEX
  5
8FD
  8
LAYER_1
 10
104.7172525971917
 20
21.37524511989762
 30
0.0
  0
VERTEX
  5
8FE
  8
LAYER_1
 10
104.7202642936202
 20
21.36875522831599
 30
0.0
  0
VERTEX
  5
8FF
  8
LAYER_1
 10
104.723421015559
 20
21.36313065561191
 30
0.0
  0
VERTEX
  5
900
  8
LAYER_1
 10
104.726722763008
 20
21.35837140178538
 30
0.0
  0
VERTEX
  5
901
  8
LAYER_1
 10
104.7301695359672
 20
21.3544774668364
 30
0.0
  0
VERTEX
  5
902
  8
LAYER_1
 10
104.7337613344366
 20
21.35144885076497
 30
0.0
  0
VERTEX
  5
903
  8
LAYER_1
 10
104.7374981584162
 20
21.34928555357109
 30
0.0
  0
VERTEX
  5
904
  8
LAYER_1
 10
104.741380007906
 20
21.34798757525476
 30
0.0
  0
VERTEX
  5
905
  8
LAYER_1
 10
104.745406882906
 20
21.34755491581599
 30
0.0
  0
VERTEX
  5
906
  8
LAYER_1
 10
104.7503256647937
 20
21.34797307270374
 30
0.0
  0
VERTEX
  5
907
  8
LAYER_1
 10
104.7554909900488
 20
21.34922754336701
 30
0.0
  0
VERTEX
  5
908
  8
LAYER_1
 10
104.7609028586713
 20
21.35131832780579
 30
0.0
  0
VERTEX
  5
909
  8
LAYER_1
 10
104.7665612706611
 20
21.35424542602007
 30
0.0
  0
VERTEX
  5
90A
  8
LAYER_1
 10
104.7724662260182
 20
21.35800883800987
 30
0.0
  0
VERTEX
  5
90B
  8
LAYER_1
 10
104.7786177247427
 20
21.36260856377517
 30
0.0
  0
VERTEX
  5
90C
  8
LAYER_1
 10
104.7850157668345
 20
21.36804460331599
 30
0.0
  0
VERTEX
  5
90D
  8
LAYER_1
 10
104.7916603522937
 20
21.37431695663231
 30
0.0
  0
VERTEX
  5
90E
  8
LAYER_1
 10
104.7985514811202
 20
21.38142562372416
 30
0.0
  0
VERTEX
  5
90F
  8
LAYER_1
 10
104.8056891533141
 20
21.3893706045915
 30
0.0
  0
VERTEX
  5
910
  8
LAYER_1
 10
104.8130733688754
 20
21.39815189923435
 30
0.0
  0
VERTEX
  5
911
  8
LAYER_1
 10
104.8207041278039
 20
21.40776950765272
 30
0.0
  0
VERTEX
  5
912
  8
LAYER_1
 10
104.8367052757631
 20
21.42951366581599
 30
0.0
  0
VERTEX
  5
913
  8
LAYER_1
 10
104.8536925971917
 20
21.45460307908129
 30
0.0
  0
VERTEX
  5
914
  8
LAYER_1
 10
104.8943770869876
 20
21.52189491581598
 30
0.0
  0
VERTEX
  5
915
  8
LAYER_1
 10
104.9916795359672
 20
21.68416879336701
 30
0.0
  0
VERTEX
  5
916
  8
LAYER_1
 10
105.0387064747427
 20
21.88217695663231
 30
0.0
  0
VERTEX
  5
917
  8
LAYER_1
 10
105.1705056584162
 20
21.88960226275476
 30
0.0
  0
VERTEX
  5
918
  8
LAYER_1
 10
105.115434638008
 20
21.69654430357109
 30
0.0
  0
VERTEX
  5
919
  8
LAYER_1
 10
105.0071489237223
 20
21.25659491581598
 30
0.0
  0
VERTEX
  5
91A
  8
LAYER_1
 10
105.0000100429825
 20
21.22908599362211
 30
0.0
  0
VERTEX
  5
91B
  8
LAYER_1
 10
104.9923611558651
 20
21.20240371683639
 30
0.0
  0
VERTEX
  5
91C
  8
LAYER_1
 10
104.9842022623702
 20
21.17654808545884
 30
0.0
  0
VERTEX
  5
91D
  8
LAYER_1
 10
104.9755333624978
 20
21.15151909948946
 30
0.0
  0
VERTEX
  5
91E
  8
LAYER_1
 10
104.9663544562478
 20
21.12731675892823
 30
0.0
  0
VERTEX
  5
91F
  8
LAYER_1
 10
104.9566655436202
 20
21.10394106377517
 30
0.0
  0
VERTEX
  5
920
  8
LAYER_1
 10
104.9464666246151
 20
21.08139201403027
 30
0.0
  0
VERTEX
  5
921
  8
LAYER_1
 10
104.9357576992325
 20
21.05966960969354
 30
0.0
  0
VERTEX
  5
922
  8
LAYER_1
 10
104.9245387674723
 20
21.03877385076497
 30
0.0
  0
VERTEX
  5
923
  8
LAYER_1
 10
104.9128098293345
 20
21.01870473724456
 30
0.0
  0
VERTEX
  5
924
  8
LAYER_1
 10
104.9005708848192
 20
20.99946226913232
 30
0.0
  0
VERTEX
  5
925
  8
LAYER_1
 10
104.8878219339264
 20
20.98104644642823
 30
0.0
  0
VERTEX
  5
926
  8
LAYER_1
 10
104.874562976656
 20
20.96345726913231
 30
0.0
  0
VERTEX
  5
927
  8
LAYER_1
 10
104.860794013008
 20
20.94669473724456
 30
0.0
  0
VERTEX
  5
928
  8
LAYER_1
 10
104.8465150429825
 20
20.93075885076497
 30
0.0
  0
VERTEX
  5
929
  8
LAYER_1
 10
104.8317260665794
 20
20.91564960969354
 30
0.0
  0
VERTEX
  5
92A
  8
LAYER_1
 10
104.8164705914519
 20
20.90141293877517
 30
0.0
  0
VERTEX
  5
92B
  8
LAYER_1
 10
104.8007921252529
 20
20.88809476275476
 30
0.0
  0
VERTEX
  5
92C
  8
LAYER_1
 10
104.7846906679825
 20
20.87569508163232
 30
0.0
  0
VERTEX
  5
92D
  8
LAYER_1
 10
104.7681662196406
 20
20.86421389540782
 30
0.0
  0
VERTEX
  5
92E
  8
LAYER_1
 10
104.7512187802274
 20
20.85365120408129
 30
0.0
  0
VERTEX
  5
92F
  8
LAYER_1
 10
104.7338483497427
 20
20.84400700765272
 30
0.0
  0
VERTEX
  5
930
  8
LAYER_1
 10
104.7160549281866
 20
20.83528130612211
 30
0.0
  0
VERTEX
  5
931
  8
LAYER_1
 10
104.697838515559
 20
20.82747409948945
 30
0.0
  0
VERTEX
  5
932
  8
LAYER_1
 10
104.67919911186
 20
20.82058538775476
 30
0.0
  0
VERTEX
  5
933
  8
LAYER_1
 10
104.6601367170896
 20
20.81461517091802
 30
0.0
  0
VERTEX
  5
934
  8
LAYER_1
 10
104.6406513312478
 20
20.80956344897925
 30
0.0
  0
VERTEX
  5
935
  8
LAYER_1
 10
104.6207429543345
 20
20.80543022193843
 30
0.0
  0
VERTEX
  5
936
  8
LAYER_1
 10
104.6004115863498
 20
20.80221548979558
 30
0.0
  0
VERTEX
  5
937
  8
LAYER_1
 10
104.5796572272937
 20
20.79991925255068
 30
0.0
  0
VERTEX
  5
938
  8
LAYER_1
 10
104.5584798771662
 20
20.79854151020374
 30
0.0
  0
VERTEX
  5
939
  8
LAYER_1
 10
104.5368795359672
 20
20.79808226275476
 30
0.0
  0
VERTEX
  5
93A
  8
LAYER_1
 10
104.520627010457
 20
20.79836264540782
 30
0.0
  0
VERTEX
  5
93B
  8
LAYER_1
 10
104.5049739237223
 20
20.79920379336701
 30
0.0
  0
VERTEX
  5
93C
  8
LAYER_1
 10
104.4899202757631
 20
20.80060570663231
 30
0.0
  0
VERTEX
  5
93D
  8
LAYER_1
 10
104.4754660665794
 20
20.80256838520374
 30
0.0
  0
VERTEX
  5
93E
  8
LAYER_1
 10
104.4616112961713
 20
20.80509182908129
 30
0.0
  0
VERTEX
  5
93F
  8
LAYER_1
 10
104.4483559645386
 20
20.80817603826497
 30
0.0
  0
VERTEX
  5
940
  8
LAYER_1
 10
104.4357000716815
 20
20.81182101275476
 30
0.0
  0
SEQEND
  5
F66
  8
LAYER_1
  0
POLYLINE
  5
E6
  8
LAYER_1
 66
     1
 10
0.0
 20
0.0
 30
0.0
 70
     1
  0
VERTEX
  5
941
  8
LAYER_1
 10
105.5164011686203
 20
21.19471736479558
 30
0.0
  0
VERTEX
  5
942
  8
LAYER_1
 10
105.5177547400488
 20
21.22530807908129
 30
0.0
  0
VERTEX
  5
943
  8
LAYER_1
 10
105.5187215767835
 20
21.25582144642823
 30
0.0
  0
VERTEX
  5
944
  8
LAYER_1
 10
105.5193016788243
 20
21.2862574668364
 30
0.0
  0
VERTEX
  5
945
  8
LAYER_1
 10
105.5194950461713
 20
21.31661614030578
 30
0.0
  0
VERTEX
  5
946
  8
LAYER_1
 10
105.519026130355
 20
21.38326986479558
 30
0.0
  0
VERTEX
  5
947
  8
LAYER_1
 10
105.517619382906
 20
21.44462532397925
 30
0.0
  0
VERTEX
  5
948
  8
LAYER_1
 10
105.5152748038244
 20
21.5006825178568
 30
0.0
  0
VERTEX
  5
949
  8
LAYER_1
 10
105.5137508274213
 20
21.52672426530578
 30
0.0
  0
VERTEX
  5
94A
  8
LAYER_1
 10
105.5119923931101
 20
21.55144144642823
 30
0.0
  0
VERTEX
  5
94B
  8
LAYER_1
 10
105.5099995008907
 20
21.57483406122415
 30
0.0
  0
VERTEX
  5
94C
  8
LAYER_1
 10
105.5077721507631
 20
21.59690210969354
 30
0.0
  0
VERTEX
  5
94D
  8
LAYER_1
 10
105.5053103427274
 20
21.6176455918364
 30
0.0
  0
VERTEX
  5
94E
  8
LAYER_1
 10
105.5026140767835
 20
21.63706450765272
 30
0.0
  0
VERTEX
  5
94F
  8
LAYER_1
 10
105.4996833529315
 20
21.65515885714252
 30
0.0
  0
VERTEX
  5
950
  8
LAYER_1
 10
105.4965181711713
 20
21.67192864030578
 30
0.0
  0
VERTEX
  5
951
  8
LAYER_1
 10
105.4931185315029
 20
21.68737385714252
 30
0.0
  0
VERTEX
  5
952
  8
LAYER_1
 10
105.4894844339264
 20
21.70149450765272
 30
0.0
  0
VERTEX
  5
953
  8
LAYER_1
 10
105.4855506169621
 20
21.71453230102007
 30
0.0
  0
VERTEX
  5
954
  8
LAYER_1
 10
105.4812518191305
 20
21.72672894642823
 30
0.0
  0
VERTEX
  5
955
  8
LAYER_1
 10
105.4765880404315
 20
21.73808444387721
 30
0.0
  0
VERTEX
  5
956
  8
LAYER_1
 10
105.4715592808652
 20
21.74859879336701
 30
0.0
  0
VERTEX
  5
957
  8
LAYER_1
 10
105.4661655404315
 20
21.75827199489762
 30
0.0
  0
VERTEX
  5
958
  8
LAYER_1
 10
105.4604068191305
 20
21.76710404846905
 30
0.0
  0
VERTEX
  5
959
  8
LAYER_1
 10
105.4542831169621
 20
21.7750949540813
 30
0.0
  0
VERTEX
  5
95A
  8
LAYER_1
 10
105.4477944339264
 20
21.78224471173435
 30
0.0
  0
VERTEX
  5
95B
  8
LAYER_1
 10
105.4409407700233
 20
21.78855332142823
 30
0.0
  0
VERTEX
  5
95C
  8
LAYER_1
 10
105.4337221252529
 20
21.79402078316292
 30
0.0
  0
VERTEX
  5
95D
  8
LAYER_1
 10
105.4261384996151
 20
21.79864709693844
 30
0.0
  0
VERTEX
  5
95E
  8
LAYER_1
 10
105.41818989311
 20
21.80243226275476
 30
0.0
  0
VERTEX
  5
95F
  8
LAYER_1
 10
105.4098763057376
 20
21.80537628061191
 30
0.0
  0
VERTEX
  5
960
  8
LAYER_1
 10
105.4011977374978
 20
21.80747915050986
 30
0.0
  0
VERTEX
  5
961
  8
LAYER_1
 10
105.3921541883907
 20
21.80874087244864
 30
0.0
  0
VERTEX
  5
962
  8
LAYER_1
 10
105.3827456584162
 20
21.80916144642823
 30
0.0
  0
VERTEX
  5
963
  8
LAYER_1
 10
105.3736017999978
 20
21.80857167602007
 30
0.0
  0
VERTEX
  5
964
  8
LAYER_1
 10
105.3642694084162
 20
21.80680236479558
 30
0.0
  0
VERTEX
  5
965
  8
LAYER_1
 10
105.3547484836713
 20
21.80385351275476
 30
0.0
  0
VERTEX
  5
966
  8
LAYER_1
 10
105.3450390257631
 20
21.79972511989762
 30
0.0
  0
VERTEX
  5
967
  8
LAYER_1
 10
105.3351410346917
 20
21.79441718622415
 30
0.0
  0
VERTEX
  5
968
  8
LAYER_1
 10
105.325054510457
 20
21.78792971173435
 30
0.0
  0
VERTEX
  5
969
  8
LAYER_1
 10
105.314779453059
 20
21.78026269642823
 30
0.0
  0
VERTEX
  5
96A
  8
LAYER_1
 10
105.3043158624978
 20
21.77141614030578
 30
0.0
  0
VERTEX
  5
96B
  8
LAYER_1
 10
105.2936637387733
 20
21.761390043367
 30
0.0
  0
VERTEX
  5
96C
  8
LAYER_1
 10
105.2828230818856
 20
21.7501844056119
 30
0.0
  0
VERTEX
  5
96D
  8
LAYER_1
 10
105.2717938918345
 20
21.73779922704047
 30
0.0
  0
VERTEX
  5
96E
  8
LAYER_1
 10
105.2605761686202
 20
21.72423450765272
 30
0.0
  0
VERTEX
  5
96F
  8
LAYER_1
 10
105.2491699122427
 20
21.70949024744863
 30
0.0
  0
VERTEX
  5
970
  8
LAYER_1
 10
105.2375751227019
 20
21.69356644642823
 30
0.0
  0
VERTEX
  5
971
  8
LAYER_1
 10
105.2257917999978
 20
21.67646310459149
 30
0.0
  0
VERTEX
  5
972
  8
LAYER_1
 10
105.2138199441305
 20
21.65818022193843
 30
0.0
  0
VERTEX
  5
973
  8
LAYER_1
 10
105.2299081073958
 20
21.74233369132619
 30
0.0
  0
VERTEX
  5
974
  8
LAYER_1
 10
105.2435924728294
 20
21.76106615306088
 30
0.0
  0
VERTEX
  5
975
  8
LAYER_1
 10
105.2572236622427
 20
21.77859006887721
 30
0.0
  0
VERTEX
  5
976
  8
LAYER_1
 10
105.2708016756356
 20
21.79490543877517
 30
0.0
  0
VERTEX
  5
977
  8
LAYER_1
 10
105.284326513008
 20
21.81001226275476
 30
0.0
  0
VERTEX
  5
978
  8
LAYER_1
 10
105.2977981743601
 20
21.82391054081599
 30
0.0
  0
VERTEX
  5
979
  8
LAYER_1
 10
105.3112166596917
 20
21.83660027295884
 30
0.0
  0
VERTEX
  5
97A
  8
LAYER_1
 10
105.3245819690029
 20
21.84808145918334
 30
0.0
  0
VERTEX
  5
97B
  8
LAYER_1
 10
105.3378941022937
 20
21.85835409948946
 30
0.0
  0
VERTEX
  5
97C
  8
LAYER_1
 10
105.3511530595641
 20
21.86741819387721
 30
0.0
  0
VERTEX
  5
97D
  8
LAYER_1
 10
105.3643588408141
 20
21.8752737423466
 30
0.0
  0
VERTEX
  5
97E
  8
LAYER_1
 10
105.3775114460437
 20
21.88192074489762
 30
0.0
  0
VERTEX
  5
97F
  8
LAYER_1
 10
105.3906108752529
 20
21.88735920153027
 30
0.0
  0
VERTEX
  5
980
  8
LAYER_1
 10
105.4036571284417
 20
21.89158911224456
 30
0.0
  0
VERTEX
  5
981
  8
LAYER_1
 10
105.4166502056101
 20
21.89461047704048
 30
0.0
  0
VERTEX
  5
982
  8
LAYER_1
 10
105.429590106758
 20
21.89642329591803
 30
0.0
  0
VERTEX
  5
983
  8
LAYER_1
 10
105.4360401163243
 20
21.89687650063741
 30
0.0
  0
VERTEX
  5
984
  8
LAYER_1
 10
105.4424768318856
 20
21.89702756887721
 30
0.0
  0
VERTEX
  5
985
  8
LAYER_1
 10
105.454181920125
 20
21.89653992059915
 30
0.0
  0
VERTEX
  5
986
  8
LAYER_1
 10
105.4655154182615
 20
21.89507697576497
 30
0.0
  0
VERTEX
  5
987
  8
LAYER_1
 10
105.4764773262952
 20
21.89263873437466
 30
0.0
  0
VERTEX
  5
988
  8
LAYER_1
 10
105.4870676442261
 20
21.88922519642823
 30
0.0
  0
VERTEX
  5
989
  8
LAYER_1
 10
105.4972863720542
 20
21.88483636192568
 30
0.0
  0
VERTEX
  5
98A
  8
LAYER_1
 10
105.5071335097794
 20
21.87947223086701
 30
0.0
  0
VERTEX
  5
98B
  8
LAYER_1
 10
105.5166090574018
 20
21.87313280325221
 30
0.0
  0
VERTEX
  5
98C
  8
LAYER_1
 10
105.5257130149213
 20
21.86581807908129
 30
0.0
  0
VERTEX
  5
98D
  8
LAYER_1
 10
105.534445382338
 20
21.85752805835425
 30
0.0
  0
VERTEX
  5
98E
  8
LAYER_1
 10
105.5428061596518
 20
21.84826274107109
 30
0.0
  0
VERTEX
  5
98F
  8
LAYER_1
 10
105.5507953468628
 20
21.8380221272318
 30
0.0
  0
VERTEX
  5
990
  8
LAYER_1
 10
105.558412943971
 20
21.8268062168364
 30
0.0
  0
VERTEX
  5
991
  8
LAYER_1
 10
105.5656589509763
 20
21.81461500988486
 30
0.0
  0
VERTEX
  5
992
  8
LAYER_1
 10
105.5725333678789
 20
21.80144850637721
 30
0.0
  0
VERTEX
  5
993
  8
LAYER_1
 10
105.5790361946785
 20
21.78730670631343
 30
0.0
  0
VERTEX
  5
994
  8
LAYER_1
 10
105.5851674313754
 20
21.77218960969354
 30
0.0
  0
VERTEX
  5
995
  8
LAYER_1
 10
105.5909270779694
 20
21.75609721651752
 30
0.0
  0
VERTEX
  5
996
  8
LAYER_1
 10
105.5963151344605
 20
21.73902952678537
 30
0.0
  0
VERTEX
  5
997
  8
LAYER_1
 10
105.6013316008488
 20
21.72098654049711
 30
0.0
  0
VERTEX
  5
998
  8
LAYER_1
 10
105.6059764771343
 20
21.70196825765272
 30
0.0
  0
VERTEX
  5
999
  8
LAYER_1
 10
105.6102497633169
 20
21.68197467825221
 30
0.0
  0
VERTEX
  5
99A
  8
LAYER_1
 10
105.6141514593967
 20
21.66100580229558
 30
0.0
  0
VERTEX
  5
99B
  8
LAYER_1
 10
105.6176815653737
 20
21.63906162978282
 30
0.0
  0
VERTEX
  5
99C
  8
LAYER_1
 10
105.6208400812478
 20
21.61614216071395
 30
0.0
  0
VERTEX
  5
99D
  8
LAYER_1
 10
105.6236270070191
 20
21.59224739508894
 30
0.0
  0
VERTEX
  5
99E
  8
LAYER_1
 10
105.6260423426875
 20
21.56737733290782
 30
0.0
  0
VERTEX
  5
99F
  8
LAYER_1
 10
105.6280860882532
 20
21.54153197417058
 30
0.0
  0
VERTEX
  5
9A0
  8
LAYER_1
 10
105.6297582437159
 20
21.51471131887721
 30
0.0
  0
VERTEX
  5
9A1
  8
LAYER_1
 10
105.6310588090759
 20
21.48691536702772
 30
0.0
  0
VERTEX
  5
9A2
  8
LAYER_1
 10
105.6319877843329
 20
21.45814411862211
 30
0.0
  0
VERTEX
  5
9A3
  8
LAYER_1
 10
105.6325451694872
 20
21.42839757366037
 30
0.0
  0
VERTEX
  5
9A4
  8
LAYER_1
 10
105.6327309645386
 20
21.39767573214252
 30
0.0
  0
VERTEX
  5
9A5
  8
LAYER_1
 10
105.6314934135182
 20
21.3345606301017
 30
0.0
  0
VERTEX
  5
9A6
  8
LAYER_1
 10
105.6570106520386
 20
21.37177175892823
 30
0.0
  0
VERTEX
  5
9A7
  8
LAYER_1
 10
105.6811211431101
 20
21.40853330867313
 30
0.0
  0
VERTEX
  5
9A8
  8
LAYER_1
 10
105.7038248867325
 20
21.44484527933639
 30
0.0
  0
VERTEX
  5
9A9
  8
LAYER_1
 10
105.725121882906
 20
21.48070767091803
 30
0.0
  0
VERTEX
  5
9AA
  8
LAYER_1
 10
105.7450121316305
 20
21.51612048341802
 30
0.0
  0
VERTEX
  5
9AB
  8
LAYER_1
 10
105.763495632906
 20
21.55108371683639
 30
0.0
  0
VERTEX
  5
9AC
  8
LAYER_1
 10
105.7805723867325
 20
21.58559737117313
 30
0.0
  0
VERTEX
  5
9AD
  8
LAYER_1
 10
105.79624239311
 20
21.61966144642823
 30
0.0
  0
VERTEX
  5
9AE
  8
LAYER_1
 10
105.8105056520386
 20
21.6532759426017
 30
0.0
  0
VERTEX
  5
9AF
  8
LAYER_1
 10
105.8233621635182
 20
21.68644085969354
 30
0.0
  0
VERTEX
  5
9B0
  8
LAYER_1
 10
105.8348119275488
 20
21.71915619770374
 30
0.0
  0
VERTEX
  5
9B1
  8
LAYER_1
 10
105.8400092792708
 20
21.73534527455323
 30
0.0
  0
VERTEX
  5
9B2
  8
LAYER_1
 10
105.8448549441304
 20
21.75142195663231
 30
0.0
  0
VERTEX
  5
9B3
  8
LAYER_1
 10
105.8493489221279
 20
21.76738624394099
 30
0.0
  0
VERTEX
  5
9B4
  8
LAYER_1
 10
105.8534912132631
 20
21.78323813647925
 30
0.0
  0
VERTEX
  5
9B5
  8
LAYER_1
 10
105.8572818175361
 20
21.79897763424711
 30
0.0
  0
VERTEX
  5
9B6
  8
LAYER_1
 10
105.8607207349468
 20
21.81460473724456
 30
0.0
  0
VERTEX
  5
9B7
  8
LAYER_1
 10
105.8638079654952
 20
21.8301194454716
 30
0.0
  0
VERTEX
  5
9B8
  8
LAYER_1
 10
105.8665435091815
 20
21.84552175892823
 30
0.0
  0
VERTEX
  5
9B9
  8
LAYER_1
 10
105.8689273660055
 20
21.86081167761445
 30
0.0
  0
VERTEX
  5
9BA
  8
LAYER_1
 10
105.8709595359672
 20
21.87598920153027
 30
0.0
  0
VERTEX
  5
9BB
  8
LAYER_1
 10
105.9285056584162
 20
21.88960226275476
 30
0.0
  0
VERTEX
  5
9BC
  8
LAYER_1
 10
105.9386961175998
 20
21.8556590420915
 30
0.0
  0
VERTEX
  5
9BD
  8
LAYER_1
 10
105.9482291278039
 20
21.8217399923466
 30
0.0
  0
VERTEX
  5
9BE
  8
LAYER_1
 10
105.9571046890284
 20
21.78784511352007
 30
0.0
  0
VERTEX
  5
9BF
  8
LAYER_1
 10
105.9653228012733
 20
21.75397440561191
 30
0.0
  0
VERTEX
  5
9C0
  8
LAYER_1
 10
105.9728834645386
 20
21.72012786862211
 30
0.0
  0
VERTEX
  5
9C1
  8
LAYER_1
 10
105.9797866788243
 20
21.68630550255068
 30
0.0
  0
VERTEX
  5
9C2
  8
LAYER_1
 10
105.9860324441304
 20
21.65250730739762
 30
0.0
  0
VERTEX
  5
9C3
  8
LAYER_1
 10
105.991620760457
 20
21.61873328316292
 30
0.0
  0
VERTEX
  5
9C4
  8
LAYER_1
 10
105.9965516278039
 20
21.5849834298466
 30
0.0
  0
VERTEX
  5
9C5
  8
LAYER_1
 10
106.0008250461713
 20
21.55125774744864
 30
0.0
  0
VERTEX
  5
9C6
  8
LAYER_1
 10
106.004441015559
 20
21.51755623596905
 30
0.0
  0
VERTEX
  5
9C7
  8
LAYER_1
 10
106.0073995359672
 20
21.48387889540782
 30
0.0
  0
VERTEX
  5
9C8
  8
LAYER_1
 10
106.0097006073958
 20
21.45022572576497
 30
0.0
  0
VERTEX
  5
9C9
  8
LAYER_1
 10
106.0113442298448
 20
21.41659672704047
 30
0.0
  0
VERTEX
  5
9CA
  8
LAYER_1
 10
106.0123304033141
 20
21.38299189923435
 30
0.0
  0
VERTEX
  5
9CB
  8
LAYER_1
 10
106.0126591278039
 20
21.3494112423466
 30
0.0
  0
VERTEX
  5
9CC
  8
LAYER_1
 10
106.0348190257631
 20
21.37884175255068
 30
0.0
  0
VERTEX
  5
9CD
  8
LAYER_1
 10
106.0561281073958
 20
21.40865899744864
 30
0.0
  0
VERTEX
  5
9CE
  8
LAYER_1
 10
106.0765863727019
 20
21.43886297704048
 30
0.0
  0
VERTEX
  5
9CF
  8
LAYER_1
 10
106.0961938216815
 20
21.46945369132619
 30
0.0
  0
VERTEX
  5
9D0
  8
LAYER_1
 10
106.1149504543345
 20
21.50043114030579
 30
0.0
  0
VERTEX
  5
9D1
  8
LAYER_1
 10
106.1328562706611
 20
21.53179532397925
 30
0.0
  0
VERTEX
  5
9D2
  8
LAYER_1
 10
106.1499112706611
 20
21.5635462423466
 30
0.0
  0
VERTEX
  5
9D3
  8
LAYER_1
 10
106.1661154543345
 20
21.59568389540782
 30
0.0
  0
VERTEX
  5
9D4
  8
LAYER_1
 10
106.1809080563753
 20
21.62703841071394
 30
0.0
  0
VERTEX
  5
9D5
  8
LAYER_1
 10
106.1937283114774
 20
21.65643991581599
 30
0.0
  0
VERTEX
  5
9D6
  8
LAYER_1
 10
106.2045762196406
 20
21.68388841071395
 30
0.0
  0
VERTEX
  5
9D7
  8
LAYER_1
 10
106.2092605436202
 20
21.6968802793364
 30
0.0
  0
VERTEX
  5
9D8
  8
LAYER_1
 10
106.2134517808651
 20
21.70938389540783
 30
0.0
  0
VERTEX
  5
9D9
  8
LAYER_1
 10
106.2171499313753
 20
21.72139925892823
 30
0.0
  0
VERTEX
  5
9DA
  8
LAYER_1
 10
106.2203549951508
 20
21.73292636989762
 30
0.0
  0
VERTEX
  5
9DB
  8
LAYER_1
 10
106.2230669721917
 20
21.74396522831599
 30
0.0
  0
VERTEX
  5
9DC
  8
LAYER_1
 10
106.2252858624978
 20
21.75451583418333
 30
0.0
  0
VERTEX
  5
9DD
  8
LAYER_1
 10
106.2270116660692
 20
21.76457818749966
 30
0.0
  0
VERTEX
  5
9DE
  8
LAYER_1
 10
106.228244382906
 20
21.77415228826496
 30
0.0
  0
VERTEX
  5
9DF
  8
LAYER_1
 10
106.228984013008
 20
21.78323813647926
 30
0.0
  0
VERTEX
  5
9E0
  8
LAYER_1
 10
106.2292305563754
 20
21.79183573214252
 30
0.0
  0
VERTEX
  5
9E1
  8
LAYER_1
 10
106.2288051482121
 20
21.80177481377517
 30
0.0
  0
VERTEX
  5
9E2
  8
LAYER_1
 10
106.2275289237223
 20
21.8121006301017
 30
0.0
  0
VERTEX
  5
9E3
  8
LAYER_1
 10
106.225401882906
 20
21.82281318112211
 30
0.0
  0
VERTEX
  5
9E4
  8
LAYER_1
 10
106.2224240257631
 20
21.83391246683639
 30
0.0
  0
VERTEX
  5
9E5
  8
LAYER_1
 10
106.2185953522937
 20
21.84539848724456
 30
0.0
  0
VERTEX
  5
9E6
  8
LAYER_1
 10
106.2139158624978
 20
21.8572712423466
 30
0.0
  0
VERTEX
  5
9E7
  8
LAYER_1
 10
106.2083855563754
 20
21.86953073214252
 30
0.0
  0
VERTEX
  5
9E8
  8
LAYER_1
 10
106.2020044339264
 20
21.88217695663231
 30
0.0
  0
VERTEX
  5
9E9
  8
LAYER_1
 10
106.3406101482121
 20
21.88960226275476
 30
0.0
  0
VERTEX
  5
9EA
  8
LAYER_1
 10
106.3452122910692
 20
21.87564114030578
 30
0.0
  0
VERTEX
  5
9EB
  8
LAYER_1
 10
106.3484995359672
 20
21.86222144642823
 30
0.0
  0
VERTEX
  5
9EC
  8
LAYER_1
 10
106.3496500716815
 20
21.85571463520374
 30
0.0
  0
VERTEX
  5
9ED
  8
LAYER_1
 10
106.350471882906
 20
21.84934318112211
 30
0.0
  0
VERTEX
  5
9EE
  8
LAYER_1
 10
106.3509649696407
 20
21.84310708418333
 30
0.0
  0
VERTEX
  5
9EF
  8
LAYER_1
 10
106.3511293318856
 20
21.83700634438742
 30
0.0
  0
VERTEX
  5
9F0
  8
LAYER_1
 10
106.3509069594366
 20
21.83062401339252
 30
0.0
  0
VERTEX
  5
9F1
  8
LAYER_1
 10
106.3502398420896
 20
21.82385253061191
 30
0.0
  0
VERTEX
  5
9F2
  8
LAYER_1
 10
106.3491279798447
 20
21.81669189604558
 30
0.0
  0
VERTEX
  5
9F3
  8
LAYER_1
 10
106.3475713727019
 20
21.80914210969354
 30
0.0
  0
VERTEX
  5
9F4
  8
LAYER_1
 10
106.3455700206611
 20
21.80120317155578
 30
0.0
  0
VERTEX
  5
9F5
  8
LAYER_1
 10
106.3431239237223
 20
21.79287508163231
 30
0.0
  0
VERTEX
  5
9F6
  8
LAYER_1
 10
106.3368974951509
 20
21.77505144642823
 30
0.0
  0
VERTEX
  5
9F7
  8
LAYER_1
 10
106.3288920869876
 20
21.75567120408129
 30
0.0
  0
VERTEX
  5
9F8
  8
LAYER_1
 10
106.3191076992325
 20
21.7347343545915
 30
0.0
  0
VERTEX
  5
9F9
  8
LAYER_1
 10
106.3075443318856
 20
21.71224089795884
 30
0.0
  0
VERTEX
  5
9FA
  8
LAYER_1
 10
106.2942019849468
 20
21.68819083418333
 30
0.0
  0
VERTEX
  5
9FB
  8
LAYER_1
 10
106.2788292808652
 20
21.6621780918364
 30
0.0
  0
VERTEX
  5
9FC
  8
LAYER_1
 10
106.2611748420896
 20
21.63379659948946
 30
0.0
  0
VERTEX
  5
9FD
  8
LAYER_1
 10
106.2412386686203
 20
21.60304635714252
 30
0.0
  0
VERTEX
  5
9FE
  8
LAYER_1
 10
106.219020760457
 20
21.56992736479558
 30
0.0
  0
VERTEX
  5
9FF
  8
LAYER_1
 10
106.1945211175999
 20
21.53443962244864
 30
0.0
  0
VERTEX
  5
A00
  8
LAYER_1
 10
106.1677397400488
 20
21.4965831301017
 30
0.0
  0
VERTEX
  5
A01
  8
LAYER_1
 10
106.1386766278039
 20
21.45635788775477
 30
0.0
  0
VERTEX
  5
A02
  8
LAYER_1
 10
106.1073317808652
 20
21.41376389540782
 30
0.0
  0
VERTEX
  5
A03
  8
LAYER_1
 10
106.0739179033141
 20
21.36859328316292
 30
0.0
  0
VERTEX
  5
A04
  8
LAYER_1
 10
105.9588256584162
 20
21.21018675255068
 30
0.0
  0
VERTEX
  5
A05
  8
LAYER_1
 10
105.8963293318856
 20
21.19471736479558
 30
0.0
  0
VERTEX
  5
A06
  8
LAYER_1
 10
105.8981856584162
 20
21.26958920153027
 30
0.0
  0
VERTEX
  5
A07
  8
LAYER_1
 10
105.8976937802274
 20
21.33112835969354
 30
0.0
  0
VERTEX
  5
A08
  8
LAYER_1
 10
105.8962181456611
 20
21.38982501785681
 30
0.0
  0
VERTEX
  5
A09
  8
LAYER_1
 10
105.8937587547172
 20
21.44567917602007
 30
0.0
  0
VERTEX
  5
A0A
  8
LAYER_1
 10
105.8903156073958
 20
21.49869083418334
 30
0.0
  0
VERTEX
  5
A0B
  8
LAYER_1
 10
105.8882251250935
 20
21.52413072576497
 30
0.0
  0
VERTEX
  5
A0C
  8
LAYER_1
 10
105.8858887036968
 20
21.5488599923466
 30
0.0
  0
VERTEX
  5
A0D
  8
LAYER_1
 10
105.8833063432057
 20
21.57287863392823
 30
0.0
  0
VERTEX
  5
A0E
  8
LAYER_1
 10
105.8804780436203
 20
21.59618665050986
 30
0.0
  0
VERTEX
  5
A0F
  8
LAYER_1
 10
105.8774038049404
 20
21.6187840420915
 30
0.0
  0
VERTEX
  5
A10
  8
LAYER_1
 10
105.8740836271662
 20
21.64067080867313
 30
0.0
  0
VERTEX
  5
A11
  8
LAYER_1
 10
105.8705175102975
 20
21.66184695025476
 30
0.0
  0
VERTEX
  5
A12
  8
LAYER_1
 10
105.8667054543345
 20
21.68231246683639
 30
0.0
  0
VERTEX
  5
A13
  8
LAYER_1
 10
105.8481180181101
 20
21.64421184821394
 30
0.0
  0
VERTEX
  5
A14
  8
LAYER_1
 10
105.8296466022937
 20
21.60725693112211
 30
0.0
  0
VERTEX
  5
A15
  8
LAYER_1
 10
105.8112912068856
 20
21.57144771556089
 30
0.0
  0
VERTEX
  5
A16
  8
LAYER_1
 10
105.7930518318856
 20
21.53678420153027
 30
0.0
  0
VERTEX
  5
A17
  8
LAYER_1
 10
105.7749284772937
 20
21.50326638903027
 30
0.0
  0
VERTEX
  5
A18
  8
LAYER_1
 10
105.7569211431101
 20
21.47089427806089
 30
0.0
  0
VERTEX
  5
A19
  8
LAYER_1
 10
105.7390298293346
 20
21.43966786862211
 30
0.0
  0
VERTEX
  5
A1A
  8
LAYER_1
 10
105.7212545359672
 20
21.40958716071395
 30
0.0
  0
VERTEX
  5
A1B
  8
LAYER_1
 10
105.703595263008
 20
21.3806521543364
 30
0.0
  0
VERTEX
  5
A1C
  8
LAYER_1
 10
105.686052010457
 20
21.35286284948945
 30
0.0
  0
VERTEX
  5
A1D
  8
LAYER_1
 10
105.6686247783141
 20
21.32621924617313
 30
0.0
  0
VERTEX
  5
A1E
  8
LAYER_1
 10
105.6513135665794
 20
21.30072134438742
 30
0.0
  0
VERTEX
  5
A1F
  8
LAYER_1
 10
105.6341183752529
 20
21.27636914413232
 30
0.0
  0
VERTEX
  5
A20
  8
LAYER_1
 10
105.6170392043346
 20
21.25316264540782
 30
0.0
  0
VERTEX
  5
A21
  8
LAYER_1
 10
105.6000760538244
 20
21.23110184821395
 30
0.0
  0
VERTEX
  5
A22
  8
LAYER_1
 10
105.5832289237223
 20
21.21018675255068
 30
0.0
  0
SEQEND
  5
F67
  8
LAYER_1
  0
POLYLINE
  5
E7
  8
LAYER_1
 66
     1
 10
0.0
 20
0.0
 30
0.0
 70
     1
  0
VERTEX
  5
A23
  8
LAYER_1
 10
106.6611358624978
 20
21.19471736479558
 30
0.0
  0
VERTEX
  5
A24
  8
LAYER_1
 10
106.6511085570131
 20
21.19496511670884
 30
0.0
  0
VERTEX
  5
A25
  8
LAYER_1
 10
106.6412915385182
 20
21.19570837244864
 30
0.0
  0
VERTEX
  5
A26
  8
LAYER_1
 10
106.6316848070131
 20
21.19694713201496
 30
0.0
  0
VERTEX
  5
A27
  8
LAYER_1
 10
106.6222883624978
 20
21.19868139540782
 30
0.0
  0
VERTEX
  5
A28
  8
LAYER_1
 10
106.6131022049723
 20
21.20091116262721
 30
0.0
  0
VERTEX
  5
A29
  8
LAYER_1
 10
106.6041263344366
 20
21.20363643367313
 30
0.0
  0
VERTEX
  5
A2A
  8
LAYER_1
 10
106.5953607508907
 20
21.20685720854557
 30
0.0
  0
VERTEX
  5
A2B
  8
LAYER_1
 10
106.5868054543345
 20
21.21057348724456
 30
0.0
  0
VERTEX
  5
A2C
  8
LAYER_1
 10
106.5784604447682
 20
21.21478526977006
 30
0.0
  0
VERTEX
  5
A2D
  8
LAYER_1
 10
106.5703257221917
 20
21.21949255612211
 30
0.0
  0
VERTEX
  5
A2E
  8
LAYER_1
 10
106.5624012866049
 20
21.22469534630068
 30
0.0
  0
VERTEX
  5
A2F
  8
LAYER_1
 10
106.554687138008
 20
21.23039364030578
 30
0.0
  0
VERTEX
  5
A30
  8
LAYER_1
 10
106.5471832764009
 20
21.23658743813741
 30
0.0
  0
VERTEX
  5
A31
  8
LAYER_1
 10
106.5398897017835
 20
21.24327673979558
 30
0.0
  0
VERTEX
  5
A32
  8
LAYER_1
 10
106.532806414156
 20
21.25046154528027
 30
0.0
  0
VERTEX
  5
A33
  8
LAYER_1
 10
106.5259334135182
 20
21.2581418545915
 30
0.0
  0
VERTEX
  5
A34
  8
LAYER_1
 10
106.5193770519111
 20
21.26619197895374
 30
0.0
  0
VERTEX
  5
A35
  8
LAYER_1
 10
106.5132436813753
 20
21.2744862295915
 30
0.0
  0
VERTEX
  5
A36
  8
LAYER_1
 10
106.5075333019111
 20
21.28302460650476
 30
0.0
  0
VERTEX
  5
A37
  8
LAYER_1
 10
106.5022459135182
 20
21.29180710969354
 30
0.0
  0
VERTEX
  5
A38
  8
LAYER_1
 10
106.4973815161968
 20
21.30083373915782
 30
0.0
  0
VERTEX
  5
A39
  8
LAYER_1
 10
106.4929401099468
 20
21.31010449489762
 30
0.0
  0
VERTEX
  5
A3A
  8
LAYER_1
 10
106.4889216947682
 20
21.31961937691292
 30
0.0
  0
VERTEX
  5
A3B
  8
LAYER_1
 10
106.4853262706611
 20
21.32937838520374
 30
0.0
  0
VERTEX
  5
A3C
  8
LAYER_1
 10
106.4821538376253
 20
21.33938151977006
 30
0.0
  0
VERTEX
  5
A3D
  8
LAYER_1
 10
106.4794043956611
 20
21.3496287806119
 30
0.0
  0
VERTEX
  5
A3E
  8
LAYER_1
 10
106.4770779447682
 20
21.36012016772925
 30
0.0
  0
VERTEX
  5
A3F
  8
LAYER_1
 10
106.4751744849468
 20
21.37085568112211
 30
0.0
  0
VERTEX
  5
A40
  8
LAYER_1
 10
106.4736940161968
 20
21.38183532079047
 30
0.0
  0
VERTEX
  5
A41
  8
LAYER_1
 10
106.4726365385182
 20
21.39305908673435
 30
0.0
  0
VERTEX
  5
A42
  8
LAYER_1
 10
106.4720020519111
 20
21.40452697895374
 30
0.0
  0
VERTEX
  5
A43
  8
LAYER_1
 10
106.4717905563754
 20
21.41623899744864
 30
0.0
  0
VERTEX
  5
A44
  8
LAYER_1
 10
106.4723174823958
 20
21.43840977232109
 30
0.0
  0
VERTEX
  5
A45
  8
LAYER_1
 10
106.473898260457
 20
21.46037026020374
 30
0.0
  0
VERTEX
  5
A46
  8
LAYER_1
 10
106.476532890559
 20
21.4821204610966
 30
0.0
  0
VERTEX
  5
A47
  8
LAYER_1
 10
106.4802213727019
 20
21.50366037499966
 30
0.0
  0
VERTEX
  5
A48
  8
LAYER_1
 10
106.4849637068856
 20
21.52499000191293
 30
0.0
  0
VERTEX
  5
A49
  8
LAYER_1
 10
106.49075989311
 20
21.54610934183639
 30
0.0
  0
VERTEX
  5
A4A
  8
LAYER_1
 10
106.4976099313754
 20
21.56701839477007
 30
0.0
  0
VERTEX
  5
A4B
  8
LAYER_1
 10
106.5055138216815
 20
21.58771716071394
 30
0.0
  0
VERTEX
  5
A4C
  8
LAYER_1
 10
106.5144715640284
 20
21.60820563966803
 30
0.0
  0
VERTEX
  5
A4D
  8
LAYER_1
 10
106.5244831584162
 20
21.62848383163231
 30
0.0
  0
VERTEX
  5
A4E
  8
LAYER_1
 10
106.5355486048447
 20
21.64855173660681
 30
0.0
  0
VERTEX
  5
A4F
  8
LAYER_1
 10
106.5476679033141
 20
21.6684093545915
 30
0.0
  0
VERTEX
  5
A50
  8
LAYER_1
 10
106.5608410538243
 20
21.6880566855864
 30
0.0
  0
VERTEX
  5
A51
  8
LAYER_1
 10
106.5750680563753
 20
21.7074937295915
 30
0.0
  0
VERTEX
  5
A52
  8
LAYER_1
 10
106.5903489109672
 20
21.7267204866068
 30
0.0
  0
VERTEX
  5
A53
  8
LAYER_1
 10
106.6066836175998
 20
21.74573695663231
 30
0.0
  0
VERTEX
  5
A54
  8
LAYER_1
 10
106.6236395168345
 20
21.76405730420884
 30
0.0
  0
VERTEX
  5
A55
  8
LAYER_1
 10
106.6407839492325
 20
21.78119569387721
 30
0.0
  0
VERTEX
  5
A56
  8
LAYER_1
 10
106.6581169147937
 20
21.79715212563741
 30
0.0
  0
VERTEX
  5
A57
  8
LAYER_1
 10
106.6756384135182
 20
21.81192659948945
 30
0.0
  0
VERTEX
  5
A58
  8
LAYER_1
 10
106.693348445406
 20
21.82551911543333
 30
0.0
  0
VERTEX
  5
A59
  8
LAYER_1
 10
106.711247010457
 20
21.83792967346904
 30
0.0
  0
VERTEX
  5
A5A
  8
LAYER_1
 10
106.7293341086713
 20
21.8491582735966
 30
0.0
  0
VERTEX
  5
A5B
  8
LAYER_1
 10
106.7476097400488
 20
21.85920491581599
 30
0.0
  0
VERTEX
  5
A5C
  8
LAYER_1
 10
106.7660739045896
 20
21.86806960012721
 30
0.0
  0
VERTEX
  5
A5D
  8
LAYER_1
 10
106.7847266022937
 20
21.87575232653027
 30
0.0
  0
VERTEX
  5
A5E
  8
LAYER_1
 10
106.8035678331611
 20
21.88225309502517
 30
0.0
  0
VERTEX
  5
A5F
  8
LAYER_1
 10
106.8225975971917
 20
21.88757190561191
 30
0.0
  0
VERTEX
  5
A60
  8
LAYER_1
 10
106.8418158943855
 20
21.89170875829048
 30
0.0
  0
VERTEX
  5
A61
  8
LAYER_1
 10
106.8612227247427
 20
21.89466365306088
 30
0.0
  0
VERTEX
  5
A62
  8
LAYER_1
 10
106.8808180882631
 20
21.89643658992313
 30
0.0
  0
VERTEX
  5
A63
  8
LAYER_1
 10
106.9006019849468
 20
21.89702756887721
 30
0.0
  0
VERTEX
  5
A64
  8
LAYER_1
 10
106.9112347719366
 20
21.89678585969354
 30
0.0
  0
VERTEX
  5
A65
  8
LAYER_1
 10
106.9216306839264
 20
21.89606073214252
 30
0.0
  0
VERTEX
  5
A66
  8
LAYER_1
 10
106.9317897209162
 20
21.89485218622415
 30
0.0
  0
VERTEX
  5
A67
  8
LAYER_1
 10
106.941711882906
 20
21.89316022193844
 30
0.0
  0
VERTEX
  5
A68
  8
LAYER_1
 10
106.9513971698958
 20
21.89098483928537
 30
0.0
  0
VERTEX
  5
A69
  8
LAYER_1
 10
106.9608455818856
 20
21.88832603826497
 30
0.0
  0
VERTEX
  5
A6A
  8
LAYER_1
 10
106.9700571188753
 20
21.88518381887721
 30
0.0
  0
VERTEX
  5
A6B
  8
LAYER_1
 10
106.9790317808651
 20
21.88155818112211
 30
0.0
  0
VERTEX
  5
A6C
  8
LAYER_1
 10
106.9877695678549
 20
21.87744912499966
 30
0.0
  0
VERTEX
  5
A6D
  8
LAYER_1
 10
106.9962704798448
 20
21.87285665050986
 30
0.0
  0
VERTEX
  5
A6E
  8
LAYER_1
 10
107.0045345168345
 20
21.86778075765272
 30
0.0
  0
VERTEX
  5
A6F
  8
LAYER_1
 10
107.0125616788243
 20
21.86222144642823
 30
0.0
  0
VERTEX
  5
A70
  8
LAYER_1
 10
107.0203519658141
 20
21.85617871683639
 30
0.0
  0
VERTEX
  5
A71
  8
LAYER_1
 10
107.0279053778039
 20
21.84965256887721
 30
0.0
  0
VERTEX
  5
A72
  8
LAYER_1
 10
107.0352219147937
 20
21.84264300255067
 30
0.0
  0
VERTEX
  5
A73
  8
LAYER_1
 10
107.0423015767835
 20
21.8351500178568
 30
0.0
  0
VERTEX
  5
A74
  8
LAYER_1
 10
107.049045263008
 20
21.82728238392823
 30
0.0
  0
VERTEX
  5
A75
  8
LAYER_1
 10
107.0553538727019
 20
21.81914886989762
 30
0.0
  0
VERTEX
  5
A76
  8
LAYER_1
 10
107.0612274058651
 20
21.81074947576496
 30
0.0
  0
VERTEX
  5
A77
  8
LAYER_1
 10
107.0666658624978
 20
21.80208420153027
 30
0.0
  0
VERTEX
  5
A78
  8
LAYER_1
 10
107.0716692425998
 20
21.79315304719353
 30
0.0
  0
VERTEX
  5
A79
  8
LAYER_1
 10
107.0762375461713
 20
21.78395601275476
 30
0.0
  0
VERTEX
  5
A7A
  8
LAYER_1
 10
107.0803707732121
 20
21.77449309821395
 30
0.0
  0
VERTEX
  5
A7B
  8
LAYER_1
 10
107.0840689237223
 20
21.76476430357108
 30
0.0
  0
VERTEX
  5
A7C
  8
LAYER_1
 10
107.0873319977019
 20
21.75476962882619
 30
0.0
  0
VERTEX
  5
A7D
  8
LAYER_1
 10
107.0901599951509
 20
21.74450907397924
 30
0.0
  0
VERTEX
  5
A7E
  8
LAYER_1
 10
107.0925529160692
 20
21.73398263903027
 30
0.0
  0
VERTEX
  5
A7F
  8
LAYER_1
 10
107.094510760457
 20
21.72319032397925
 30
0.0
  0
VERTEX
  5
A80
  8
LAYER_1
 10
107.0960335283141
 20
21.71213212882619
 30
0.0
  0
VERTEX
  5
A81
  8
LAYER_1
 10
107.0971212196407
 20
21.70080805357109
 30
0.0
  0
VERTEX
  5
A82
  8
LAYER_1
 10
107.0977738344366
 20
21.68921809821395
 30
0.0
  0
VERTEX
  5
A83
  8
LAYER_1
 10
107.0979913727019
 20
21.67736226275476
 30
0.0
  0
VERTEX
  5
A84
  8
LAYER_1
 10
107.0974644466815
 20
21.65437692793333
 30
0.0
  0
VERTEX
  5
A85
  8
LAYER_1
 10
107.0958836686202
 20
21.63167439285681
 30
0.0
  0
VERTEX
  5
A86
  8
LAYER_1
 10
107.0932490385182
 20
21.60925465752517
 30
0.0
  0
VERTEX
  5
A87
  8
LAYER_1
 10
107.0895605563753
 20
21.58711772193844
 30
0.0
  0
VERTEX
  5
A88
  8
LAYER_1
 10
107.0848182221917
 20
21.5652635860966
 30
0.0
  0
VERTEX
  5
A89
  8
LAYER_1
 10
107.0790220359672
 20
21.54369224999966
 30
0.0
  0
VERTEX
  5
A8A
  8
LAYER_1
 10
107.0721719977019
 20
21.52240371364762
 30
0.0
  0
VERTEX
  5
A8B
  8
LAYER_1
 10
107.0642681073958
 20
21.50139797704048
 30
0.0
  0
VERTEX
  5
A8C
  8
LAYER_1
 10
107.0553103650488
 20
21.48067504017823
 30
0.0
  0
VERTEX
  5
A8D
  8
LAYER_1
 10
107.0452987706611
 20
21.46023490306089
 30
0.0
  0
VERTEX
  5
A8E
  8
LAYER_1
 10
107.0342333242325
 20
21.44007756568843
 30
0.0
  0
VERTEX
  5
A8F
  8
LAYER_1
 10
107.0221140257631
 20
21.42020302806089
 30
0.0
  0
VERTEX
  5
A90
  8
LAYER_1
 10
107.0089408752529
 20
21.40061129017823
 30
0.0
  0
VERTEX
  5
A91
  8
LAYER_1
 10
106.9947138727019
 20
21.38130235204048
 30
0.0
  0
VERTEX
  5
A92
  8
LAYER_1
 10
106.97943301811
 20
21.36227621364762
 30
0.0
  0
VERTEX
  5
A93
  8
LAYER_1
 10
106.9630983114774
 20
21.34353287499966
 30
0.0
  0
VERTEX
  5
A94
  8
LAYER_1
 10
106.9461109900488
 20
21.32551224681089
 30
0.0
  0
VERTEX
  5
A95
  8
LAYER_1
 10
106.9288722910692
 20
21.30865423979558
 30
0.0
  0
VERTEX
  5
A96
  8
LAYER_1
 10
106.9113822145386
 20
21.29295885395374
 30
0.0
  0
VERTEX
  5
A97
  8
LAYER_1
 10
106.893640760457
 20
21.27842608928538
 30
0.0
  0
VERTEX
  5
A98
  8
LAYER_1
 10
106.8756479288243
 20
21.26505594579048
 30
0.0
  0
VERTEX
  5
A99
  8
LAYER_1
 10
106.8574037196407
 20
21.25284842346905
 30
0.0
  0
VERTEX
  5
A9A
  8
LAYER_1
 10
106.838908132906
 20
21.24180352232109
 30
0.0
  0
VERTEX
  5
A9B
  8
LAYER_1
 10
106.8201611686202
 20
21.2319212423466
 30
0.0
  0
VERTEX
  5
A9C
  8
LAYER_1
 10
106.8011628267835
 20
21.22320158354558
 30
0.0
  0
VERTEX
  5
A9D
  8
LAYER_1
 10
106.7819131073958
 20
21.21564454591802
 30
0.0
  0
VERTEX
  5
A9E
  8
LAYER_1
 10
106.762412010457
 20
21.20925012946395
 30
0.0
  0
VERTEX
  5
A9F
  8
LAYER_1
 10
106.7426595359672
 20
21.20401833418333
 30
0.0
  0
VERTEX
  5
AA0
  8
LAYER_1
 10
106.7226556839264
 20
21.19994916007619
 30
0.0
  0
VERTEX
  5
AA1
  8
LAYER_1
 10
106.7024004543345
 20
21.19704260714252
 30
0.0
  0
VERTEX
  5
AA2
  8
LAYER_1
 10
106.6818938471917
 20
21.19529867538231
 30
0.0
  0
SEQEND
  5
F68
  8
LAYER_1
  0
POLYLINE
  5
E8
  8
LAYER_1
 66
     1
 10
0.0
 20
0.0
 30
0.0
 70
     1
  0
VERTEX
  5
AA3
  8
LAYER_1
 10
106.7316762706611
 20
21.24855083418333
 30
0.0
  0
VERTEX
  5
AA4
  8
LAYER_1
 10
106.7430378108397
 20
21.24901129017823
 30
0.0
  0
VERTEX
  5
AA5
  8
LAYER_1
 10
106.7542277374978
 20
21.25039265816293
 30
0.0
  0
VERTEX
  5
AA6
  8
LAYER_1
 10
106.7652460506356
 20
21.25269493813742
 30
0.0
  0
VERTEX
  5
AA7
  8
LAYER_1
 10
106.7760927502529
 20
21.2559181301017
 30
0.0
  0
VERTEX
  5
AA8
  8
LAYER_1
 10
106.7867678363499
 20
21.26006223405578
 30
0.0
  0
VERTEX
  5
AA9
  8
LAYER_1
 10
106.7972713089264
 20
21.26512724999966
 30
0.0
  0
VERTEX
  5
AAA
  8
LAYER_1
 10
106.8076031679825
 20
21.27111317793333
 30
0.0
  0
VERTEX
  5
AAB
  8
LAYER_1
 10
106.8177634135182
 20
21.2780200178568
 30
0.0
  0
VERTEX
  5
AAC
  8
LAYER_1
 10
106.8277520455335
 20
21.28584776977006
 30
0.0
  0
VERTEX
  5
AAD
  8
LAYER_1
 10
106.8375690640284
 20
21.29459643367313
 30
0.0
  0
VERTEX
  5
AAE
  8
LAYER_1
 10
106.8472144690029
 20
21.30426600956599
 30
0.0
  0
VERTEX
  5
AAF
  8
LAYER_1
 10
106.856688260457
 20
21.31485649744864
 30
0.0
  0
VERTEX
  5
AB0
  8
LAYER_1
 10
106.8659904383907
 20
21.32636789732109
 30
0.0
  0
VERTEX
  5
AB1
  8
LAYER_1
 10
106.8751210028039
 20
21.33880020918333
 30
0.0
  0
VERTEX
  5
AB2
  8
LAYER_1
 10
106.8840799536968
 20
21.35215343303537
 30
0.0
  0
VERTEX
  5
AB3
  8
LAYER_1
 10
106.8928672910692
 20
21.36642756887721
 30
0.0
  0
VERTEX
  5
AB4
  8
LAYER_1
 10
106.9012968988498
 20
21.3813108118619
 30
0.0
  0
VERTEX
  5
AB5
  8
LAYER_1
 10
106.9091826609672
 20
21.39649135714252
 30
0.0
  0
VERTEX
  5
AB6
  8
LAYER_1
 10
106.9165245774213
 20
21.41196920471905
 30
0.0
  0
VERTEX
  5
AB7
  8
LAYER_1
 10
106.9233226482121
 20
21.4277443545915
 30
0.0
  0
VERTEX
  5
AB8
  8
LAYER_1
 10
106.9295768733396
 20
21.44381680675987
 30
0.0
  0
VERTEX
  5
AB9
  8
LAYER_1
 10
106.9352872528039
 20
21.46018656122415
 30
0.0
  0
VERTEX
  5
ABA
  8
LAYER_1
 10
106.9404537866049
 20
21.47685361798436
 30
0.0
  0
VERTEX
  5
ABB
  8
LAYER_1
 10
106.9450764747427
 20
21.49381797704048
 30
0.0
  0
VERTEX
  5
ABC
  8
LAYER_1
 10
106.9491553172172
 20
21.51107963839252
 30
0.0
  0
VERTEX
  5
ABD
  8
LAYER_1
 10
106.9526903140284
 20
21.52863860204048
 30
0.0
  0
VERTEX
  5
ABE
  8
LAYER_1
 10
106.9556814651764
 20
21.54649486798435
 30
0.0
  0
VERTEX
  5
ABF
  8
LAYER_1
 10
106.9581287706611
 20
21.56464843622415
 30
0.0
  0
VERTEX
  5
AC0
  8
LAYER_1
 10
106.9600322304825
 20
21.58309930675986
 30
0.0
  0
VERTEX
  5
AC1
  8
LAYER_1
 10
106.9613918446407
 20
21.60184747959149
 30
0.0
  0
VERTEX
  5
AC2
  8
LAYER_1
 10
106.9622076131355
 20
21.62089295471905
 30
0.0
  0
VERTEX
  5
AC3
  8
LAYER_1
 10
106.9624795359672
 20
21.64023573214252
 30
0.0
  0
VERTEX
  5
AC4
  8
LAYER_1
 10
106.9619912834162
 20
21.66503751147926
 30
0.0
  0
VERTEX
  5
AC5
  8
LAYER_1
 10
106.9605265257631
 20
21.68823917602007
 30
0.0
  0
VERTEX
  5
AC6
  8
LAYER_1
 10
106.958085263008
 20
21.70984072576497
 30
0.0
  0
VERTEX
  5
AC7
  8
LAYER_1
 10
106.9564984422172
 20
21.72004145758894
 30
0.0
  0
VERTEX
  5
AC8
  8
LAYER_1
 10
106.9546674951509
 20
21.72984216071394
 30
0.0
  0
VERTEX
  5
AC9
  8
LAYER_1
 10
106.952592421809
 20
21.73924283513997
 30
0.0
  0
VERTEX
  5
ACA
  8
LAYER_1
 10
106.9502732221917
 20
21.74824348086701
 30
0.0
  0
VERTEX
  5
ACB
  8
LAYER_1
 10
106.9477098962988
 20
21.75684409789507
 30
0.0
  0
VERTEX
  5
ACC
  8
LAYER_1
 10
106.9449024441305
 20
21.76504468622415
 30
0.0
  0
VERTEX
  5
ACD
  8
LAYER_1
 10
106.9418508656866
 20
21.77284524585426
 30
0.0
  0
VERTEX
  5
ACE
  8
LAYER_1
 10
106.9385551609672
 20
21.78024577678538
 30
0.0
  0
VERTEX
  5
ACF
  8
LAYER_1
 10
106.9350153299723
 20
21.78724627901752
 30
0.0
  0
VERTEX
  5
AD0
  8
LAYER_1
 10
106.9312313727019
 20
21.79384675255068
 30
0.0
  0
VERTEX
  5
AD1
  8
LAYER_1
 10
106.927203289156
 20
21.80004719738486
 30
0.0
  0
VERTEX
  5
AD2
  8
LAYER_1
 10
106.9229310793345
 20
21.80584761352007
 30
0.0
  0
VERTEX
  5
AD3
  8
LAYER_1
 10
106.9184147432376
 20
21.8112480009563
 30
0.0
  0
VERTEX
  5
AD4
  8
LAYER_1
 10
106.9136542808652
 20
21.81624835969354
 30
0.0
  0
VERTEX
  5
AD5
  8
LAYER_1
 10
106.9086496922172
 20
21.8208486897318
 30
0.0
  0
VERTEX
  5
AD6
  8
LAYER_1
 10
106.9034009772937
 20
21.82504899107109
 30
0.0
  0
VERTEX
  5
AD7
  8
LAYER_1
 10
106.8979081360948
 20
21.8288492637114
 30
0.0
  0
VERTEX
  5
AD8
  8
LAYER_1
 10
106.8921711686203
 20
21.83224950765272
 30
0.0
  0
VERTEX
  5
AD9
  8
LAYER_1
 10
106.8861900748703
 20
21.83524972289507
 30
0.0
  0
VERTEX
  5
ADA
  8
LAYER_1
 10
106.8799648548448
 20
21.83784990943844
 30
0.0
  0
VERTEX
  5
ADB
  8
LAYER_1
 10
106.8734955085437
 20
21.84005006728282
 30
0.0
  0
VERTEX
  5
ADC
  8
LAYER_1
 10
106.8667820359672
 20
21.84185019642823
 30
0.0
  0
VERTEX
  5
ADD
  8
LAYER_1
 10
106.8598244371152
 20
21.84325029687466
 30
0.0
  0
VERTEX
  5
ADE
  8
LAYER_1
 10
106.8526227119876
 20
21.84425036862211
 30
0.0
  0
VERTEX
  5
ADF
  8
LAYER_1
 10
106.8451768605845
 20
21.84485041167058
 30
0.0
  0
VERTEX
  5
AE0
  8
LAYER_1
 10
106.837486882906
 20
21.84505042602007
 30
0.0
  0
VERTEX
  5
AE1
  8
LAYER_1
 10
106.8264951577784
 20
21.84457546747415
 30
0.0
  0
VERTEX
  5
AE2
  8
LAYER_1
 10
106.8156412068855
 20
21.84315059183639
 30
0.0
  0
VERTEX
  5
AE3
  8
LAYER_1
 10
106.8049250302274
 20
21.8407757991068
 30
0.0
  0
VERTEX
  5
AE4
  8
LAYER_1
 10
106.7943466278039
 20
21.83745108928537
 30
0.0
  0
VERTEX
  5
AE5
  8
LAYER_1
 10
106.7839059996151
 20
21.83317646237211
 30
0.0
  0
VERTEX
  5
AE6
  8
LAYER_1
 10
106.7736031456611
 20
21.82795191836701
 30
0.0
  0
VERTEX
  5
AE7
  8
LAYER_1
 10
106.7634380659417
 20
21.82177745727007
 30
0.0
  0
VERTEX
  5
AE8
  8
LAYER_1
 10
106.753410760457
 20
21.81465307908129
 30
0.0
  0
VERTEX
  5
AE9
  8
LAYER_1
 10
106.743521229207
 20
21.80657878380068
 30
0.0
  0
VERTEX
  5
AEA
  8
LAYER_1
 10
106.7337694721917
 20
21.79755457142823
 30
0.0
  0
VERTEX
  5
AEB
  8
LAYER_1
 10
106.7241554894111
 20
21.78758044196395
 30
0.0
  0
VERTEX
  5
AEC
  8
LAYER_1
 10
106.7146792808651
 20
21.77665639540782
 30
0.0
  0
VERTEX
  5
AED
  8
LAYER_1
 10
106.7053408465539
 20
21.76478243175986
 30
0.0
  0
VERTEX
  5
AEE
  8
LAYER_1
 10
106.6961401864774
 20
21.75195855102007
 30
0.0
  0
VERTEX
  5
AEF
  8
LAYER_1
 10
106.6870773006355
 20
21.73818475318843
 30
0.0
  0
VERTEX
  5
AF0
  8
LAYER_1
 10
106.6781521890284
 20
21.72346103826496
 30
0.0
  0
VERTEX
  5
AF1
  8
LAYER_1
 10
106.6695727215539
 20
21.70814271874966
 30
0.0
  0
VERTEX
  5
AF2
  8
LAYER_1
 10
106.66154676811
 20
21.69258510714251
 30
0.0
  0
VERTEX
  5
AF3
  8
LAYER_1
 10
106.6540743286968
 20
21.67678820344353
 30
0.0
  0
VERTEX
  5
AF4
  8
LAYER_1
 10
106.6471554033141
 20
21.66075200765272
 30
0.0
  0
VERTEX
  5
AF5
  8
LAYER_1
 10
106.6407899919621
 20
21.64447651977006
 30
0.0
  0
VERTEX
  5
AF6
  8
LAYER_1
 10
106.6349780946406
 20
21.62796173979557
 30
0.0
  0
VERTEX
  5
AF7
  8
LAYER_1
 10
106.6297197113498
 20
21.61120766772925
 30
0.0
  0
VERTEX
  5
AF8
  8
LAYER_1
 10
106.6250148420896
 20
21.59421430357109
 30
0.0
  0
VERTEX
  5
AF9
  8
LAYER_1
 10
106.62086348686
 20
21.57698164732108
 30
0.0
  0
VERTEX
  5
AFA
  8
LAYER_1
 10
106.6172656456611
 20
21.55950969897925
 30
0.0
  0
VERTEX
  5
AFB
  8
LAYER_1
 10
106.6142213184927
 20
21.54179845854558
 30
0.0
  0
VERTEX
  5
AFC
  8
LAYER_1
 10
106.6117305053549
 20
21.52384792602007
 30
0.0
  0
VERTEX
  5
AFD
  8
LAYER_1
 10
106.6097932062478
 20
21.50565810140272
 30
0.0
  0
VERTEX
  5
AFE
  8
LAYER_1
 10
106.6084094211713
 20
21.48722898469354
 30
0.0
  0
VERTEX
  5
AFF
  8
LAYER_1
 10
106.6075791501253
 20
21.46856057589252
 30
0.0
  0
VERTEX
  5
B00
  8
LAYER_1
 10
106.60730239311
 20
21.44965287499966
 30
0.0
  0
VERTEX
  5
B01
  8
LAYER_1
 10
106.6077882285692
 20
21.42530067474456
 30
0.0
  0
VERTEX
  5
B02
  8
LAYER_1
 10
106.6092457349468
 20
21.40251958418333
 30
0.0
  0
VERTEX
  5
B03
  8
LAYER_1
 10
106.6116749122427
 20
21.38130960331599
 30
0.0
  0
VERTEX
  5
B04
  8
LAYER_1
 10
106.6132538774851
 20
21.37129377901752
 30
0.0
  0
VERTEX
  5
B05
  8
LAYER_1
 10
106.615075760457
 20
21.36167073214252
 30
0.0
  0
VERTEX
  5
B06
  8
LAYER_1
 10
106.6171405611585
 20
21.35244046269099
 30
0.0
  0
VERTEX
  5
B07
  8
LAYER_1
 10
106.6194482795896
 20
21.34360297066292
 30
0.0
  0
VERTEX
  5
B08
  8
LAYER_1
 10
106.6219989157503
 20
21.33515825605833
 30
0.0
  0
VERTEX
  5
B09
  8
LAYER_1
 10
106.6247924696407
 20
21.32710631887721
 30
0.0
  0
VERTEX
  5
B0A
  8
LAYER_1
 10
106.6278289412606
 20
21.31944715911956
 30
0.0
  0
VERTEX
  5
B0B
  8
LAYER_1
 10
106.63110833061
 20
21.31218077678538
 30
0.0
  0
VERTEX
  5
B0C
  8
LAYER_1
 10
106.6346306376891
 20
21.30530717187466
 30
0.0
  0
VERTEX
  5
B0D
  8
LAYER_1
 10
106.6383958624978
 20
21.29882634438741
 30
0.0
  0
VERTEX
  5
B0E
  8
LAYER_1
 10
106.6424040050361
 20
21.29273829432364
 30
0.0
  0
VERTEX
  5
B0F
  8
LAYER_1
 10
106.6466550653039
 20
21.28704302168333
 30
0.0
  0
VERTEX
  5
B10
  8
LAYER_1
 10
106.6511490433014
 20
21.28174052646649
 30
0.0
  0
VERTEX
  5
B11
  8
LAYER_1
 10
106.6558859390284
 20
21.27683080867313
 30
0.0
  0
VERTEX
  5
B12
  8
LAYER_1
 10
106.660865752485
 20
21.27231386830323
 30
0.0
  0
VERTEX
  5
B13
  8
LAYER_1
 10
106.6660884836713
 20
21.2681897053568
 30
0.0
  0
VERTEX
  5
B14
  8
LAYER_1
 10
106.6715541325871
 20
21.26445831983384
 30
0.0
  0
VERTEX
  5
B15
  8
LAYER_1
 10
106.6772626992325
 20
21.26111971173435
 30
0.0
  0
VERTEX
  5
B16
  8
LAYER_1
 10
106.6832141836075
 20
21.25817388105833
 30
0.0
  0
VERTEX
  5
B17
  8
LAYER_1
 10
106.6894085857121
 20
21.25562082780579
 30
0.0
  0
VERTEX
  5
B18
  8
LAYER_1
 10
106.6958459055463
 20
21.2534605519767
 30
0.0
  0
VERTEX
  5
B19
  8
LAYER_1
 10
106.70252614311
 20
21.25169305357109
 30
0.0
  0
VERTEX
  5
B1A
  8
LAYER_1
 10
106.7094492984034
 20
21.25031833258895
 30
0.0
  0
VERTEX
  5
B1B
  8
LAYER_1
 10
106.7166153714264
 20
21.24933638903028
 30
0.0
  0
VERTEX
  5
B1C
  8
LAYER_1
 10
106.7240243621789
 20
21.24874722289507
 30
0.0
  0
SEQEND
  5
F69
  8
LAYER_1
  0
POLYLINE
  5
E9
  8
LAYER_1
 66
     1
 10
0.0
 20
0.0
 30
0.0
 70
     1
  0
VERTEX
  5
B1D
  8
LAYER_1
 10
107.3993350461713
 20
21.19471736479558
 30
0.0
  0
VERTEX
  5
B1E
  8
LAYER_1
 10
107.3893077406866
 20
21.19496511670884
 30
0.0
  0
VERTEX
  5
B1F
  8
LAYER_1
 10
107.3794907221917
 20
21.19570837244864
 30
0.0
  0
VERTEX
  5
B20
  8
LAYER_1
 10
107.3698839906866
 20
21.19694713201496
 30
0.0
  0
VERTEX
  5
B21
  8
LAYER_1
 10
107.3604875461713
 20
21.19868139540782
 30
0.0
  0
VERTEX
  5
B22
  8
LAYER_1
 10
107.3513013886458
 20
21.20091116262721
 30
0.0
  0
VERTEX
  5
B23
  8
LAYER_1
 10
107.34232551811
 20
21.20363643367313
 30
0.0
  0
VERTEX
  5
B24
  8
LAYER_1
 10
107.3335599345641
 20
21.20685720854557
 30
0.0
  0
VERTEX
  5
B25
  8
LAYER_1
 10
107.325004638008
 20
21.21057348724456
 30
0.0
  0
VERTEX
  5
B26
  8
LAYER_1
 10
107.3166596284417
 20
21.21478526977006
 30
0.0
  0
VERTEX
  5
B27
  8
LAYER_1
 10
107.3085249058651
 20
21.21949255612211
 30
0.0
  0
VERTEX
  5
B28
  8
LAYER_1
 10
107.3006004702784
 20
21.22469534630068
 30
0.0
  0
VERTEX
  5
B29
  8
LAYER_1
 10
107.2928863216815
 20
21.23039364030578
 30
0.0
  0
VERTEX
  5
B2A
  8
LAYER_1
 10
107.2853824600743
 20
21.23658743813741
 30
0.0
  0
VERTEX
  5
B2B
  8
LAYER_1
 10
107.278088885457
 20
21.24327673979558
 30
0.0
  0
VERTEX
  5
B2C
  8
LAYER_1
 10
107.2710055978294
 20
21.25046154528027
 30
0.0
  0
VERTEX
  5
B2D
  8
LAYER_1
 10
107.2641325971917
 20
21.2581418545915
 30
0.0
  0
VERTEX
  5
B2E
  8
LAYER_1
 10
107.2575762355846
 20
21.26619197895374
 30
0.0
  0
VERTEX
  5
B2F
  8
LAYER_1
 10
107.2514428650488
 20
21.2744862295915
 30
0.0
  0
VERTEX
  5
B30
  8
LAYER_1
 10
107.2457324855845
 20
21.28302460650476
 30
0.0
  0
VERTEX
  5
B31
  8
LAYER_1
 10
107.2404450971917
 20
21.29180710969354
 30
0.0
  0
VERTEX
  5
B32
  8
LAYER_1
 10
107.2355806998703
 20
21.30083373915782
 30
0.0
  0
VERTEX
  5
B33
  8
LAYER_1
 10
107.2311392936202
 20
21.31010449489762
 30
0.0
  0
VERTEX
  5
B34
  8
LAYER_1
 10
107.2271208784417
 20
21.31961937691292
 30
0.0
  0
VERTEX
  5
B35
  8
LAYER_1
 10
107.2235254543345
 20
21.32937838520374
 30
0.0
  0
VERTEX
  5
B36
  8
LAYER_1
 10
107.2203530212988
 20
21.33938151977006
 30
0.0
  0
VERTEX
  5
B37
  8
LAYER_1
 10
107.2176035793345
 20
21.3496287806119
 30
0.0
  0
VERTEX
  5
B38
  8
LAYER_1
 10
107.2152771284417
 20
21.36012016772925
 30
0.0
  0
VERTEX
  5
B39
  8
LAYER_1
 10
107.2133736686202
 20
21.37085568112211
 30
0.0
  0
VERTEX
  5
B3A
  8
LAYER_1
 10
107.2118931998702
 20
21.38183532079047
 30
0.0
  0
VERTEX
  5
B3B
  8
LAYER_1
 10
107.2108357221917
 20
21.39305908673435
 30
0.0
  0
VERTEX
  5
B3C
  8
LAYER_1
 10
107.2102012355845
 20
21.40452697895374
 30
0.0
  0
VERTEX
  5
B3D
  8
LAYER_1
 10
107.2099897400488
 20
21.41623899744864
 30
0.0
  0
VERTEX
  5
B3E
  8
LAYER_1
 10
107.2105166660692
 20
21.43840977232109
 30
0.0
  0
VERTEX
  5
B3F
  8
LAYER_1
 10
107.2120974441304
 20
21.46037026020374
 30
0.0
  0
VERTEX
  5
B40
  8
LAYER_1
 10
107.2147320742325
 20
21.4821204610966
 30
0.0
  0
VERTEX
  5
B41
  8
LAYER_1
 10
107.2184205563753
 20
21.50366037499966
 30
0.0
  0
VERTEX
  5
B42
  8
LAYER_1
 10
107.223162890559
 20
21.52499000191293
 30
0.0
  0
VERTEX
  5
B43
  8
LAYER_1
 10
107.2289590767835
 20
21.54610934183639
 30
0.0
  0
VERTEX
  5
B44
  8
LAYER_1
 10
107.2358091150488
 20
21.56701839477007
 30
0.0
  0
VERTEX
  5
B45
  8
LAYER_1
 10
107.2437130053549
 20
21.58771716071394
 30
0.0
  0
VERTEX
  5
B46
  8
LAYER_1
 10
107.2526707477019
 20
21.60820563966803
 30
0.0
  0
VERTEX
  5
B47
  8
LAYER_1
 10
107.2626823420896
 20
21.62848383163231
 30
0.0
  0
VERTEX
  5
B48
  8
LAYER_1
 10
107.2737477885182
 20
21.64855173660681
 30
0.0
  0
VERTEX
  5
B49
  8
LAYER_1
 10
107.2858670869876
 20
21.6684093545915
 30
0.0
  0
VERTEX
  5
B4A
  8
LAYER_1
 10
107.2990402374978
 20
21.6880566855864
 30
0.0
  0
VERTEX
  5
B4B
  8
LAYER_1
 10
107.3132672400488
 20
21.7074937295915
 30
0.0
  0
VERTEX
  5
B4C
  8
LAYER_1
 10
107.3285480946407
 20
21.7267204866068
 30
0.0
  0
VERTEX
  5
B4D
  8
LAYER_1
 10
107.3448828012733
 20
21.74573695663231
 30
0.0
  0
VERTEX
  5
B4E
  8
LAYER_1
 10
107.361838700508
 20
21.76405730420884
 30
0.0
  0
VERTEX
  5
B4F
  8
LAYER_1
 10
107.378983132906
 20
21.78119569387721
 30
0.0
  0
VERTEX
  5
B50
  8
LAYER_1
 10
107.3963160984672
 20
21.79715212563741
 30
0.0
  0
VERTEX
  5
B51
  8
LAYER_1
 10
107.4138375971917
 20
21.81192659948945
 30
0.0
  0
VERTEX
  5
B52
  8
LAYER_1
 10
107.4315476290794
 20
21.82551911543333
 30
0.0
  0
VERTEX
  5
B53
  8
LAYER_1
 10
107.4494461941305
 20
21.83792967346904
 30
0.0
  0
VERTEX
  5
B54
  8
LAYER_1
 10
107.4675332923447
 20
21.8491582735966
 30
0.0
  0
VERTEX
  5
B55
  8
LAYER_1
 10
107.4858089237223
 20
21.85920491581599
 30
0.0
  0
VERTEX
  5
B56
  8
LAYER_1
 10
107.5042730882631
 20
21.86806960012721
 30
0.0
  0
VERTEX
  5
B57
  8
LAYER_1
 10
107.5229257859672
 20
21.87575232653027
 30
0.0
  0
VERTEX
  5
B58
  8
LAYER_1
 10
107.5417670168345
 20
21.88225309502517
 30
0.0
  0
VERTEX
  5
B59
  8
LAYER_1
 10
107.5607967808652
 20
21.88757190561191
 30
0.0
  0
VERTEX
  5
B5A
  8
LAYER_1
 10
107.580015078059
 20
21.89170875829048
 30
0.0
  0
VERTEX
  5
B5B
  8
LAYER_1
 10
107.5994219084162
 20
21.89466365306088
 30
0.0
  0
VERTEX
  5
B5C
  8
LAYER_1
 10
107.6190172719366
 20
21.89643658992313
 30
0.0
  0
VERTEX
  5
B5D
  8
LAYER_1
 10
107.6388011686202
 20
21.89702756887721
 30
0.0
  0
VERTEX
  5
B5E
  8
LAYER_1
 10
107.64943395561
 20
21.89678585969354
 30
0.0
  0
VERTEX
  5
B5F
  8
LAYER_1
 10
107.6598298675999
 20
21.89606073214252
 30
0.0
  0
VERTEX
  5
B60
  8
LAYER_1
 10
107.6699889045896
 20
21.89485218622415
 30
0.0
  0
VERTEX
  5
B61
  8
LAYER_1
 10
107.6799110665795
 20
21.89316022193844
 30
0.0
  0
VERTEX
  5
B62
  8
LAYER_1
 10
107.6895963535692
 20
21.89098483928537
 30
0.0
  0
VERTEX
  5
B63
  8
LAYER_1
 10
107.699044765559
 20
21.88832603826497
 30
0.0
  0
VERTEX
  5
B64
  8
LAYER_1
 10
107.7082563025488
 20
21.88518381887721
 30
0.0
  0
VERTEX
  5
B65
  8
LAYER_1
 10
107.7172309645386
 20
21.88155818112211
 30
0.0
  0
VERTEX
  5
B66
  8
LAYER_1
 10
107.7259687515284
 20
21.87744912499966
 30
0.0
  0
VERTEX
  5
B67
  8
LAYER_1
 10
107.7344696635182
 20
21.87285665050986
 30
0.0
  0
VERTEX
  5
B68
  8
LAYER_1
 10
107.742733700508
 20
21.86778075765272
 30
0.0
  0
VERTEX
  5
B69
  8
LAYER_1
 10
107.7507608624978
 20
21.86222144642823
 30
0.0
  0
VERTEX
  5
B6A
  8
LAYER_1
 10
107.7585511494876
 20
21.85617871683639
 30
0.0
  0
VERTEX
  5
B6B
  8
LAYER_1
 10
107.7661045614774
 20
21.84965256887721
 30
0.0
  0
VERTEX
  5
B6C
  8
LAYER_1
 10
107.7734210984672
 20
21.84264300255067
 30
0.0
  0
VERTEX
  5
B6D
  8
LAYER_1
 10
107.780500760457
 20
21.8351500178568
 30
0.0
  0
VERTEX
  5
B6E
  8
LAYER_1
 10
107.7872444466815
 20
21.82728238392823
 30
0.0
  0
VERTEX
  5
B6F
  8
LAYER_1
 10
107.7935530563753
 20
21.81914886989762
 30
0.0
  0
VERTEX
  5
B70
  8
LAYER_1
 10
107.7994265895386
 20
21.81074947576496
 30
0.0
  0
VERTEX
  5
B71
  8
LAYER_1
 10
107.8048650461713
 20
21.80208420153027
 30
0.0
  0
VERTEX
  5
B72
  8
LAYER_1
 10
107.8098684262733
 20
21.79315304719353
 30
0.0
  0
VERTEX
  5
B73
  8
LAYER_1
 10
107.8144367298447
 20
21.78395601275476
 30
0.0
  0
VERTEX
  5
B74
  8
LAYER_1
 10
107.8185699568856
 20
21.77449309821395
 30
0.0
  0
VERTEX
  5
B75
  8
LAYER_1
 10
107.8222681073958
 20
21.76476430357108
 30
0.0
  0
VERTEX
  5
B76
  8
LAYER_1
 10
107.8255311813753
 20
21.75476962882619
 30
0.0
  0
VERTEX
  5
B77
  8
LAYER_1
 10
107.8283591788243
 20
21.74450907397924
 30
0.0
  0
VERTEX
  5
B78
  8
LAYER_1
 10
107.8307520997427
 20
21.73398263903027
 30
0.0
  0
VERTEX
  5
B79
  8
LAYER_1
 10
107.8327099441305
 20
21.72319032397925
 30
0.0
  0
VERTEX
  5
B7A
  8
LAYER_1
 10
107.8342327119876
 20
21.71213212882619
 30
0.0
  0
VERTEX
  5
B7B
  8
LAYER_1
 10
107.8353204033141
 20
21.70080805357109
 30
0.0
  0
VERTEX
  5
B7C
  8
LAYER_1
 10
107.83597301811
 20
21.68921809821395
 30
0.0
  0
VERTEX
  5
B7D
  8
LAYER_1
 10
107.8361905563754
 20
21.67736226275476
 30
0.0
  0
VERTEX
  5
B7E
  8
LAYER_1
 10
107.8356636303549
 20
21.65437692793333
 30
0.0
  0
VERTEX
  5
B7F
  8
LAYER_1
 10
107.8340828522937
 20
21.63167439285681
 30
0.0
  0
VERTEX
  5
B80
  8
LAYER_1
 10
107.8314482221917
 20
21.60925465752517
 30
0.0
  0
VERTEX
  5
B81
  8
LAYER_1
 10
107.8277597400488
 20
21.58711772193844
 30
0.0
  0
VERTEX
  5
B82
  8
LAYER_1
 10
107.8230174058652
 20
21.5652635860966
 30
0.0
  0
VERTEX
  5
B83
  8
LAYER_1
 10
107.8172212196407
 20
21.54369224999966
 30
0.0
  0
VERTEX
  5
B84
  8
LAYER_1
 10
107.8103711813754
 20
21.52240371364762
 30
0.0
  0
VERTEX
  5
B85
  8
LAYER_1
 10
107.8024672910692
 20
21.50139797704048
 30
0.0
  0
VERTEX
  5
B86
  8
LAYER_1
 10
107.7935095487223
 20
21.48067504017823
 30
0.0
  0
VERTEX
  5
B87
  8
LAYER_1
 10
107.7834979543345
 20
21.46023490306089
 30
0.0
  0
VERTEX
  5
B88
  8
LAYER_1
 10
107.772432507906
 20
21.44007756568843
 30
0.0
  0
VERTEX
  5
B89
  8
LAYER_1
 10
107.7603132094366
 20
21.42020302806089
 30
0.0
  0
VERTEX
  5
B8A
  8
LAYER_1
 10
107.7471400589264
 20
21.40061129017823
 30
0.0
  0
VERTEX
  5
B8B
  8
LAYER_1
 10
107.7329130563754
 20
21.38130235204048
 30
0.0
  0
VERTEX
  5
B8C
  8
LAYER_1
 10
107.7176322017835
 20
21.36227621364762
 30
0.0
  0
VERTEX
  5
B8D
  8
LAYER_1
 10
107.7012974951509
 20
21.34353287499966
 30
0.0
  0
VERTEX
  5
B8E
  8
LAYER_1
 10
107.6843101737223
 20
21.32551224681089
 30
0.0
  0
VERTEX
  5
B8F
  8
LAYER_1
 10
107.6670714747427
 20
21.30865423979558
 30
0.0
  0
VERTEX
  5
B90
  8
LAYER_1
 10
107.6495813982121
 20
21.29295885395374
 30
0.0
  0
VERTEX
  5
B91
  8
LAYER_1
 10
107.6318399441305
 20
21.27842608928538
 30
0.0
  0
VERTEX
  5
B92
  8
LAYER_1
 10
107.6138471124978
 20
21.26505594579048
 30
0.0
  0
VERTEX
  5
B93
  8
LAYER_1
 10
107.5956029033141
 20
21.25284842346905
 30
0.0
  0
VERTEX
  5
B94
  8
LAYER_1
 10
107.5771073165795
 20
21.24180352232109
 30
0.0
  0
VERTEX
  5
B95
  8
LAYER_1
 10
107.5583603522937
 20
21.2319212423466
 30
0.0
  0
VERTEX
  5
B96
  8
LAYER_1
 10
107.539362010457
 20
21.22320158354558
 30
0.0
  0
VERTEX
  5
B97
  8
LAYER_1
 10
107.5201122910692
 20
21.21564454591802
 30
0.0
  0
VERTEX
  5
B98
  8
LAYER_1
 10
107.5006111941305
 20
21.20925012946395
 30
0.0
  0
VERTEX
  5
B99
  8
LAYER_1
 10
107.4808587196407
 20
21.20401833418333
 30
0.0
  0
VERTEX
  5
B9A
  8
LAYER_1
 10
107.4608548675999
 20
21.19994916007619
 30
0.0
  0
VERTEX
  5
B9B
  8
LAYER_1
 10
107.440599638008
 20
21.19704260714252
 30
0.0
  0
VERTEX
  5
B9C
  8
LAYER_1
 10
107.4200930308652
 20
21.19529867538231
 30
0.0
  0
SEQEND
  5
F6A
  8
LAYER_1
  0
POLYLINE
  5
EA
  8
LAYER_1
 66
     1
 10
0.0
 20
0.0
 30
0.0
 70
     1
  0
VERTEX
  5
B9D
  8
LAYER_1
 10
107.4698754543345
 20
21.24855083418333
 30
0.0
  0
VERTEX
  5
B9E
  8
LAYER_1
 10
107.4812369945131
 20
21.24901129017823
 30
0.0
  0
VERTEX
  5
B9F
  8
LAYER_1
 10
107.4924269211713
 20
21.25039265816293
 30
0.0
  0
VERTEX
  5
BA0
  8
LAYER_1
 10
107.503445234309
 20
21.25269493813742
 30
0.0
  0
VERTEX
  5
BA1
  8
LAYER_1
 10
107.5142919339264
 20
21.2559181301017
 30
0.0
  0
VERTEX
  5
BA2
  8
LAYER_1
 10
107.5249670200233
 20
21.26006223405578
 30
0.0
  0
VERTEX
  5
BA3
  8
LAYER_1
 10
107.5354704925998
 20
21.26512724999966
 30
0.0
  0
VERTEX
  5
BA4
  8
LAYER_1
 10
107.545802351656
 20
21.27111317793333
 30
0.0
  0
VERTEX
  5
BA5
  8
LAYER_1
 10
107.5559625971917
 20
21.2780200178568
 30
0.0
  0
VERTEX
  5
BA6
  8
LAYER_1
 10
107.565951229207
 20
21.28584776977006
 30
0.0
  0
VERTEX
  5
BA7
  8
LAYER_1
 10
107.5757682477019
 20
21.29459643367313
 30
0.0
  0
VERTEX
  5
BA8
  8
LAYER_1
 10
107.5854136526764
 20
21.30426600956599
 30
0.0
  0
VERTEX
  5
BA9
  8
LAYER_1
 10
107.5948874441305
 20
21.31485649744864
 30
0.0
  0
VERTEX
  5
BAA
  8
LAYER_1
 10
107.6041896220641
 20
21.32636789732109
 30
0.0
  0
VERTEX
  5
BAB
  8
LAYER_1
 10
107.6133201864774
 20
21.33880020918333
 30
0.0
  0
VERTEX
  5
BAC
  8
LAYER_1
 10
107.6222791373703
 20
21.35215343303537
 30
0.0
  0
VERTEX
  5
BAD
  8
LAYER_1
 10
107.6310664747427
 20
21.36642756887721
 30
0.0
  0
VERTEX
  5
BAE
  8
LAYER_1
 10
107.6394960825233
 20
21.3813108118619
 30
0.0
  0
VERTEX
  5
BAF
  8
LAYER_1
 10
107.6473818446407
 20
21.39649135714252
 30
0.0
  0
VERTEX
  5
BB0
  8
LAYER_1
 10
107.6547237610947
 20
21.41196920471905
 30
0.0
  0
VERTEX
  5
BB1
  8
LAYER_1
 10
107.6615218318856
 20
21.4277443545915
 30
0.0
  0
VERTEX
  5
BB2
  8
LAYER_1
 10
107.6677760570131
 20
21.44381680675987
 30
0.0
  0
VERTEX
  5
BB3
  8
LAYER_1
 10
107.6734864364774
 20
21.46018656122415
 30
0.0
  0
VERTEX
  5
BB4
  8
LAYER_1
 10
107.6786529702784
 20
21.47685361798436
 30
0.0
  0
VERTEX
  5
BB5
  8
LAYER_1
 10
107.6832756584162
 20
21.49381797704048
 30
0.0
  0
VERTEX
  5
BB6
  8
LAYER_1
 10
107.6873545008906
 20
21.51107963839252
 30
0.0
  0
VERTEX
  5
BB7
  8
LAYER_1
 10
107.6908894977019
 20
21.52863860204048
 30
0.0
  0
VERTEX
  5
BB8
  8
LAYER_1
 10
107.6938806488498
 20
21.54649486798435
 30
0.0
  0
VERTEX
  5
BB9
  8
LAYER_1
 10
107.6963279543345
 20
21.56464843622415
 30
0.0
  0
VERTEX
  5
BBA
  8
LAYER_1
 10
107.698231414156
 20
21.58309930675986
 30
0.0
  0
VERTEX
  5
BBB
  8
LAYER_1
 10
107.6995910283141
 20
21.60184747959149
 30
0.0
  0
VERTEX
  5
BBC
  8
LAYER_1
 10
107.700406796809
 20
21.62089295471905
 30
0.0
  0
VERTEX
  5
BBD
  8
LAYER_1
 10
107.7006787196407
 20
21.64023573214252
 30
0.0
  0
VERTEX
  5
BBE
  8
LAYER_1
 10
107.7001904670896
 20
21.66503751147926
 30
0.0
  0
VERTEX
  5
BBF
  8
LAYER_1
 10
107.6987257094366
 20
21.68823917602007
 30
0.0
  0
VERTEX
  5
BC0
  8
LAYER_1
 10
107.6962844466815
 20
21.70984072576497
 30
0.0
  0
VERTEX
  5
BC1
  8
LAYER_1
 10
107.6946976258907
 20
21.72004145758894
 30
0.0
  0
VERTEX
  5
BC2
  8
LAYER_1
 10
107.6928666788243
 20
21.72984216071394
 30
0.0
  0
VERTEX
  5
BC3
  8
LAYER_1
 10
107.6907916054825
 20
21.73924283513997
 30
0.0
  0
VERTEX
  5
BC4
  8
LAYER_1
 10
107.6884724058651
 20
21.74824348086701
 30
0.0
  0
VERTEX
  5
BC5
  8
LAYER_1
 10
107.6859090799723
 20
21.75684409789507
 30
0.0
  0
VERTEX
  5
BC6
  8
LAYER_1
 10
107.6831016278039
 20
21.76504468622415
 30
0.0
  0
VERTEX
  5
BC7
  8
LAYER_1
 10
107.68005004936
 20
21.77284524585426
 30
0.0
  0
VERTEX
  5
BC8
  8
LAYER_1
 10
107.6767543446406
 20
21.78024577678538
 30
0.0
  0
VERTEX
  5
BC9
  8
LAYER_1
 10
107.6732145136457
 20
21.78724627901752
 30
0.0
  0
VERTEX
  5
BCA
  8
LAYER_1
 10
107.6694305563753
 20
21.79384675255068
 30
0.0
  0
VERTEX
  5
BCB
  8
LAYER_1
 10
107.6654024728294
 20
21.80004719738486
 30
0.0
  0
VERTEX
  5
BCC
  8
LAYER_1
 10
107.661130263008
 20
21.80584761352007
 30
0.0
  0
VERTEX
  5
BCD
  8
LAYER_1
 10
107.6566139269111
 20
21.8112480009563
 30
0.0
  0
VERTEX
  5
BCE
  8
LAYER_1
 10
107.6518534645386
 20
21.81624835969354
 30
0.0
  0
VERTEX
  5
BCF
  8
LAYER_1
 10
107.6468488758907
 20
21.8208486897318
 30
0.0
  0
VERTEX
  5
BD0
  8
LAYER_1
 10
107.6416001609672
 20
21.82504899107109
 30
0.0
  0
VERTEX
  5
BD1
  8
LAYER_1
 10
107.6361073197682
 20
21.8288492637114
 30
0.0
  0
VERTEX
  5
BD2
  8
LAYER_1
 10
107.6303703522937
 20
21.83224950765272
 30
0.0
  0
VERTEX
  5
BD3
  8
LAYER_1
 10
107.6243892585437
 20
21.83524972289507
 30
0.0
  0
VERTEX
  5
BD4
  8
LAYER_1
 10
107.6181640385182
 20
21.83784990943844
 30
0.0
  0
VERTEX
  5
BD5
  8
LAYER_1
 10
107.6116946922172
 20
21.84005006728282
 30
0.0
  0
VERTEX
  5
BD6
  8
LAYER_1
 10
107.6049812196407
 20
21.84185019642823
 30
0.0
  0
VERTEX
  5
BD7
  8
LAYER_1
 10
107.5980236207886
 20
21.84325029687466
 30
0.0
  0
VERTEX
  5
BD8
  8
LAYER_1
 10
107.5908218956611
 20
21.84425036862211
 30
0.0
  0
VERTEX
  5
BD9
  8
LAYER_1
 10
107.583376044258
 20
21.84485041167058
 30
0.0
  0
VERTEX
  5
BDA
  8
LAYER_1
 10
107.5756860665794
 20
21.84505042602007
 30
0.0
  0
VERTEX
  5
BDB
  8
LAYER_1
 10
107.5646943414519
 20
21.84457546747415
 30
0.0
  0
VERTEX
  5
BDC
  8
LAYER_1
 10
107.553840390559
 20
21.84315059183639
 30
0.0
  0
VERTEX
  5
BDD
  8
LAYER_1
 10
107.5431242139009
 20
21.8407757991068
 30
0.0
  0
VERTEX
  5
BDE
  8
LAYER_1
 10
107.5325458114774
 20
21.83745108928537
 30
0.0
  0
VERTEX
  5
BDF
  8
LAYER_1
 10
107.5221051832886
 20
21.83317646237211
 30
0.0
  0
VERTEX
  5
BE0
  8
LAYER_1
 10
107.5118023293345
 20
21.82795191836701
 30
0.0
  0
VERTEX
  5
BE1
  8
LAYER_1
 10
107.5016372496151
 20
21.82177745727007
 30
0.0
  0
VERTEX
  5
BE2
  8
LAYER_1
 10
107.4916099441305
 20
21.81465307908129
 30
0.0
  0
VERTEX
  5
BE3
  8
LAYER_1
 10
107.4817204128804
 20
21.80657878380068
 30
0.0
  0
VERTEX
  5
BE4
  8
LAYER_1
 10
107.4719686558651
 20
21.79755457142823
 30
0.0
  0
VERTEX
  5
BE5
  8
LAYER_1
 10
107.4623546730845
 20
21.78758044196395
 30
0.0
  0
VERTEX
  5
BE6
  8
LAYER_1
 10
107.4528784645386
 20
21.77665639540782
 30
0.0
  0
VERTEX
  5
BE7
  8
LAYER_1
 10
107.4435400302274
 20
21.76478243175986
 30
0.0
  0
VERTEX
  5
BE8
  8
LAYER_1
 10
107.4343393701509
 20
21.75195855102007
 30
0.0
  0
VERTEX
  5
BE9
  8
LAYER_1
 10
107.425276484309
 20
21.73818475318843
 30
0.0
  0
VERTEX
  5
BEA
  8
LAYER_1
 10
107.4163513727019
 20
21.72346103826496
 30
0.0
  0
VERTEX
  5
BEB
  8
LAYER_1
 10
107.4077719052274
 20
21.70814271874966
 30
0.0
  0
VERTEX
  5
BEC
  8
LAYER_1
 10
107.3997459517835
 20
21.69258510714251
 30
0.0
  0
VERTEX
  5
BED
  8
LAYER_1
 10
107.3922735123703
 20
21.67678820344353
 30
0.0
  0
VERTEX
  5
BEE
  8
LAYER_1
 10
107.3853545869876
 20
21.66075200765272
 30
0.0
  0
VERTEX
  5
BEF
  8
LAYER_1
 10
107.3789891756356
 20
21.64447651977006
 30
0.0
  0
VERTEX
  5
BF0
  8
LAYER_1
 10
107.3731772783141
 20
21.62796173979557
 30
0.0
  0
VERTEX
  5
BF1
  8
LAYER_1
 10
107.3679188950233
 20
21.61120766772925
 30
0.0
  0
VERTEX
  5
BF2
  8
LAYER_1
 10
107.3632140257631
 20
21.59421430357109
 30
0.0
  0
VERTEX
  5
BF3
  8
LAYER_1
 10
107.3590626705335
 20
21.57698164732108
 30
0.0
  0
VERTEX
  5
BF4
  8
LAYER_1
 10
107.3554648293345
 20
21.55950969897925
 30
0.0
  0
VERTEX
  5
BF5
  8
LAYER_1
 10
107.3524205021662
 20
21.54179845854558
 30
0.0
  0
VERTEX
  5
BF6
  8
LAYER_1
 10
107.3499296890284
 20
21.52384792602007
 30
0.0
  0
VERTEX
  5
BF7
  8
LAYER_1
 10
107.3479923899213
 20
21.50565810140272
 30
0.0
  0
VERTEX
  5
BF8
  8
LAYER_1
 10
107.3466086048447
 20
21.48722898469354
 30
0.0
  0
VERTEX
  5
BF9
  8
LAYER_1
 10
107.3457783337988
 20
21.46856057589252
 30
0.0
  0
VERTEX
  5
BFA
  8
LAYER_1
 10
107.3455015767835
 20
21.44965287499966
 30
0.0
  0
VERTEX
  5
BFB
  8
LAYER_1
 10
107.3459874122427
 20
21.42530067474456
 30
0.0
  0
VERTEX
  5
BFC
  8
LAYER_1
 10
107.3474449186203
 20
21.40251958418333
 30
0.0
  0
VERTEX
  5
BFD
  8
LAYER_1
 10
107.3498740959162
 20
21.38130960331599
 30
0.0
  0
VERTEX
  5
BFE
  8
LAYER_1
 10
107.3514530611585
 20
21.37129377901752
 30
0.0
  0
VERTEX
  5
BFF
  8
LAYER_1
 10
107.3532749441305
 20
21.36167073214252
 30
0.0
  0
VERTEX
  5
C00
  8
LAYER_1
 10
107.355339744832
 20
21.35244046269099
 30
0.0
  0
VERTEX
  5
C01
  8
LAYER_1
 10
107.3576474632631
 20
21.34360297066292
 30
0.0
  0
VERTEX
  5
C02
  8
LAYER_1
 10
107.3601980994238
 20
21.33515825605833
 30
0.0
  0
VERTEX
  5
C03
  8
LAYER_1
 10
107.3629916533141
 20
21.32710631887721
 30
0.0
  0
VERTEX
  5
C04
  8
LAYER_1
 10
107.366028124934
 20
21.31944715911956
 30
0.0
  0
VERTEX
  5
C05
  8
LAYER_1
 10
107.3693075142835
 20
21.31218077678538
 30
0.0
  0
VERTEX
  5
C06
  8
LAYER_1
 10
107.3728298213626
 20
21.30530717187466
 30
0.0
  0
VERTEX
  5
C07
  8
LAYER_1
 10
107.3765950461713
 20
21.29882634438741
 30
0.0
  0
VERTEX
  5
C08
  8
LAYER_1
 10
107.3806031887095
 20
21.29273829432364
 30
0.0
  0
VERTEX
  5
C09
  8
LAYER_1
 10
107.3848542489774
 20
21.28704302168333
 30
0.0
  0
VERTEX
  5
C0A
  8
LAYER_1
 10
107.3893482269748
 20
21.28174052646649
 30
0.0
  0
VERTEX
  5
C0B
  8
LAYER_1
 10
107.3940851227019
 20
21.27683080867313
 30
0.0
  0
VERTEX
  5
C0C
  8
LAYER_1
 10
107.3990649361585
 20
21.27231386830323
 30
0.0
  0
VERTEX
  5
C0D
  8
LAYER_1
 10
107.4042876673447
 20
21.2681897053568
 30
0.0
  0
VERTEX
  5
C0E
  8
LAYER_1
 10
107.4097533162606
 20
21.26445831983384
 30
0.0
  0
VERTEX
  5
C0F
  8
LAYER_1
 10
107.415461882906
 20
21.26111971173435
 30
0.0
  0
VERTEX
  5
C10
  8
LAYER_1
 10
107.421413367281
 20
21.25817388105833
 30
0.0
  0
VERTEX
  5
C11
  8
LAYER_1
 10
107.4276077693855
 20
21.25562082780579
 30
0.0
  0
VERTEX
  5
C12
  8
LAYER_1
 10
107.4340450892197
 20
21.2534605519767
 30
0.0
  0
VERTEX
  5
C13
  8
LAYER_1
 10
107.4407253267835
 20
21.25169305357109
 30
0.0
  0
VERTEX
  5
C14
  8
LAYER_1
 10
107.4476484820769
 20
21.25031833258895
 30
0.0
  0
VERTEX
  5
C15
  8
LAYER_1
 10
107.4548145550998
 20
21.24933638903028
 30
0.0
  0
VERTEX
  5
C16
  8
LAYER_1
 10
107.4622235458524
 20
21.24874722289507
 30
0.0
  0
SEQEND
  5
F6B
  8
LAYER_1
  0
POLYLINE
  5
EB
  8
LAYER_1
 66
     1
 10
0.0
 20
0.0
 30
0.0
 70
     1
  0
VERTEX
  5
C17
  8
LAYER_1
 10
108.4326901482121
 20
21.5461818545915
 30
0.0
  0
VERTEX
  5
C18
  8
LAYER_1
 10
108.4215521890284
 20
21.5461818545915
 30
0.0
  0
VERTEX
  5
C19
  8
LAYER_1
 10
108.4125533561202
 20
21.52691763265272
 30
0.0
  0
VERTEX
  5
C1A
  8
LAYER_1
 10
108.4033466533141
 20
21.50810782397925
 30
0.0
  0
VERTEX
  5
C1B
  8
LAYER_1
 10
108.39393208061
 20
21.48975242857109
 30
0.0
  0
VERTEX
  5
C1C
  8
LAYER_1
 10
108.384309638008
 20
21.47185144642823
 30
0.0
  0
VERTEX
  5
C1D
  8
LAYER_1
 10
108.374479325508
 20
21.45440487755068
 30
0.0
  0
VERTEX
  5
C1E
  8
LAYER_1
 10
108.36444114311
 20
21.43741272193844
 30
0.0
  0
VERTEX
  5
C1F
  8
LAYER_1
 10
108.3541950908141
 20
21.4208749795915
 30
0.0
  0
VERTEX
  5
C20
  8
LAYER_1
 10
108.3437411686203
 20
21.40479165050986
 30
0.0
  0
VERTEX
  5
C21
  8
LAYER_1
 10
108.3330793765284
 20
21.38916273469354
 30
0.0
  0
VERTEX
  5
C22
  8
LAYER_1
 10
108.3222097145386
 20
21.37398823214252
 30
0.0
  0
VERTEX
  5
C23
  8
LAYER_1
 10
108.3111321826509
 20
21.35926814285681
 30
0.0
  0
VERTEX
  5
C24
  8
LAYER_1
 10
108.2998467808652
 20
21.3450024668364
 30
0.0
  0
VERTEX
  5
C25
  8
LAYER_1
 10
108.2883535091815
 20
21.3311912040813
 30
0.0
  0
VERTEX
  5
C26
  8
LAYER_1
 10
108.2766523675999
 20
21.3178343545915
 30
0.0
  0
VERTEX
  5
C27
  8
LAYER_1
 10
108.2647433561203
 20
21.30493191836701
 30
0.0
  0
VERTEX
  5
C28
  8
LAYER_1
 10
108.2526264747427
 20
21.29248389540782
 30
0.0
  0
VERTEX
  5
C29
  8
LAYER_1
 10
108.2404540002529
 20
21.2806449795915
 30
0.0
  0
VERTEX
  5
C2A
  8
LAYER_1
 10
108.2283782094366
 20
21.26956986479557
 30
0.0
  0
VERTEX
  5
C2B
  8
LAYER_1
 10
108.2163991022937
 20
21.25925855102006
 30
0.0
  0
VERTEX
  5
C2C
  8
LAYER_1
 10
108.2045166788243
 20
21.24971103826496
 30
0.0
  0
VERTEX
  5
C2D
  8
LAYER_1
 10
108.1927309390284
 20
21.24092732653027
 30
0.0
  0
VERTEX
  5
C2E
  8
LAYER_1
 10
108.181041882906
 20
21.23290741581598
 30
0.0
  0
VERTEX
  5
C2F
  8
LAYER_1
 10
108.169449510457
 20
21.22565130612211
 30
0.0
  0
VERTEX
  5
C30
  8
LAYER_1
 10
108.1579538216815
 20
21.21915899744864
 30
0.0
  0
VERTEX
  5
C31
  8
LAYER_1
 10
108.1465548165795
 20
21.21343048979558
 30
0.0
  0
VERTEX
  5
C32
  8
LAYER_1
 10
108.1352524951509
 20
21.20846578316292
 30
0.0
  0
VERTEX
  5
C33
  8
LAYER_1
 10
108.1240468573958
 20
21.20426487755068
 30
0.0
  0
VERTEX
  5
C34
  8
LAYER_1
 10
108.1129379033141
 20
21.20082777295884
 30
0.0
  0
VERTEX
  5
C35
  8
LAYER_1
 10
108.101925632906
 20
21.19815446938741
 30
0.0
  0
VERTEX
  5
C36
  8
LAYER_1
 10
108.0910100461713
 20
21.19624496683639
 30
0.0
  0
VERTEX
  5
C37
  8
LAYER_1
 10
108.0801911431101
 20
21.19509926530578
 30
0.0
  0
VERTEX
  5
C38
  8
LAYER_1
 10
108.0694689237223
 20
21.19471736479558
 30
0.0
  0
VERTEX
  5
C39
  8
LAYER_1
 10
108.0613982540794
 20
21.19487749712976
 30
0.0
  0
VERTEX
  5
C3A
  8
LAYER_1
 10
108.0535837961713
 20
21.19535789413231
 30
0.0
  0
VERTEX
  5
C3B
  8
LAYER_1
 10
108.0460255499978
 20
21.19615855580323
 30
0.0
  0
VERTEX
  5
C3C
  8
LAYER_1
 10
108.038723515559
 20
21.19727948214252
 30
0.0
  0
VERTEX
  5
C3D
  8
LAYER_1
 10
108.0316776928549
 20
21.19872067315017
 30
0.0
  0
VERTEX
  5
C3E
  8
LAYER_1
 10
108.0248880818856
 20
21.20048212882619
 30
0.0
  0
VERTEX
  5
C3F
  8
LAYER_1
 10
108.0183546826509
 20
21.20256384917058
 30
0.0
  0
VERTEX
  5
C40
  8
LAYER_1
 10
108.0120774951509
 20
21.20496583418333
 30
0.0
  0
VERTEX
  5
C41
  8
LAYER_1
 10
108.0060565193856
 20
21.20768808386445
 30
0.0
  0
VERTEX
  5
C42
  8
LAYER_1
 10
108.000291755355
 20
21.21073059821394
 30
0.0
  0
VERTEX
  5
C43
  8
LAYER_1
 10
107.994783203059
 20
21.2140933772318
 30
0.0
  0
VERTEX
  5
C44
  8
LAYER_1
 10
107.9895308624978
 20
21.21777642091802
 30
0.0
  0
VERTEX
  5
C45
  8
LAYER_1
 10
107.9845347336713
 20
21.22177972927262
 30
0.0
  0
VERTEX
  5
C46
  8
LAYER_1
 10
107.9797948165794
 20
21.22610330229557
 30
0.0
  0
VERTEX
  5
C47
  8
LAYER_1
 10
107.9753111112223
 20
21.2307471399869
 30
0.0
  0
VERTEX
  5
C48
  8
LAYER_1
 10
107.9710836175998
 20
21.2357112423466
 30
0.0
  0
VERTEX
  5
C49
  8
LAYER_1
 10
107.9671123357121
 20
21.24099560937466
 30
0.0
  0
VERTEX
  5
C4A
  8
LAYER_1
 10
107.9633972655591
 20
21.24660024107109
 30
0.0
  0
VERTEX
  5
C4B
  8
LAYER_1
 10
107.9599384071407
 20
21.25252513743589
 30
0.0
  0
VERTEX
  5
C4C
  8
LAYER_1
 10
107.956735760457
 20
21.25877029846905
 30
0.0
  0
VERTEX
  5
C4D
  8
LAYER_1
 10
107.953789325508
 20
21.26533572417058
 30
0.0
  0
VERTEX
  5
C4E
  8
LAYER_1
 10
107.9510991022937
 20
21.27222141454047
 30
0.0
  0
VERTEX
  5
C4F
  8
LAYER_1
 10
107.9486650908141
 20
21.27942736957874
 30
0.0
  0
VERTEX
  5
C50
  8
LAYER_1
 10
107.9464872910692
 20
21.28695358928537
 30
0.0
  0
VERTEX
  5
C51
  8
LAYER_1
 10
107.944565703059
 20
21.29480007366038
 30
0.0
  0
VERTEX
  5
C52
  8
LAYER_1
 10
107.9429003267835
 20
21.30296682270374
 30
0.0
  0
VERTEX
  5
C53
  8
LAYER_1
 10
107.9414911622427
 20
21.31145383641547
 30
0.0
  0
VERTEX
  5
C54
  8
LAYER_1
 10
107.9403382094366
 20
21.32026111479557
 30
0.0
  0
VERTEX
  5
C55
  8
LAYER_1
 10
107.9388009390284
 20
21.33883646556088
 30
0.0
  0
VERTEX
  5
C56
  8
LAYER_1
 10
107.938288515559
 20
21.35869287499966
 30
0.0
  0
VERTEX
  5
C57
  8
LAYER_1
 10
107.9385386845641
 20
21.37265641454047
 30
0.0
  0
VERTEX
  5
C58
  8
LAYER_1
 10
107.9392891915794
 20
21.38670213520374
 30
0.0
  0
VERTEX
  5
C59
  8
LAYER_1
 10
107.9405400366049
 20
21.40083003698945
 30
0.0
  0
VERTEX
  5
C5A
  8
LAYER_1
 10
107.9422912196407
 20
21.41504011989762
 30
0.0
  0
VERTEX
  5
C5B
  8
LAYER_1
 10
107.9445427406866
 20
21.42933238392823
 30
0.0
  0
VERTEX
  5
C5C
  8
LAYER_1
 10
107.9472945997427
 20
21.44370682908129
 30
0.0
  0
VERTEX
  5
C5D
  8
LAYER_1
 10
107.950546796809
 20
21.4581634553568
 30
0.0
  0
VERTEX
  5
C5E
  8
LAYER_1
 10
107.9542993318856
 20
21.47270226275476
 30
0.0
  0
VERTEX
  5
C5F
  8
LAYER_1
 10
107.9585522049723
 20
21.48732325127517
 30
0.0
  0
VERTEX
  5
C60
  8
LAYER_1
 10
107.9633054160693
 20
21.50202642091803
 30
0.0
  0
VERTEX
  5
C61
  8
LAYER_1
 10
107.9685589651764
 20
21.51681177168334
 30
0.0
  0
VERTEX
  5
C62
  8
LAYER_1
 10
107.9743128522937
 20
21.53167930357109
 30
0.0
  0
VERTEX
  5
C63
  8
LAYER_1
 10
107.9805670774213
 20
21.54662901658129
 30
0.0
  0
VERTEX
  5
C64
  8
LAYER_1
 10
107.987321640559
 20
21.56166091071395
 30
0.0
  0
VERTEX
  5
C65
  8
LAYER_1
 10
107.994576541707
 20
21.57677498596905
 30
0.0
  0
VERTEX
  5
C66
  8
LAYER_1
 10
108.0023317808651
 20
21.5919712423466
 30
0.0
  0
VERTEX
  5
C67
  8
LAYER_1
 10
108.0104834230845
 20
21.60705631249966
 30
0.0
  0
VERTEX
  5
C68
  8
LAYER_1
 10
108.0189275334162
 20
21.62183682908129
 30
0.0
  0
VERTEX
  5
C69
  8
LAYER_1
 10
108.02766411186
 20
21.63631279209149
 30
0.0
  0
VERTEX
  5
C6A
  8
LAYER_1
 10
108.0366931584162
 20
21.65048420153027
 30
0.0
  0
VERTEX
  5
C6B
  8
LAYER_1
 10
108.0460146730845
 20
21.66435105739762
 30
0.0
  0
VERTEX
  5
C6C
  8
LAYER_1
 10
108.0556286558651
 20
21.67791335969354
 30
0.0
  0
VERTEX
  5
C6D
  8
LAYER_1
 10
108.065535106758
 20
21.69117110841803
 30
0.0
  0
VERTEX
  5
C6E
  8
LAYER_1
 10
108.0757340257631
 20
21.70412430357109
 30
0.0
  0
VERTEX
  5
C6F
  8
LAYER_1
 10
108.0862254128805
 20
21.71677294515272
 30
0.0
  0
VERTEX
  5
C70
  8
LAYER_1
 10
108.09700926811
 20
21.72911703316293
 30
0.0
  0
VERTEX
  5
C71
  8
LAYER_1
 10
108.1080855914519
 20
21.7411565676017
 30
0.0
  0
VERTEX
  5
C72
  8
LAYER_1
 10
108.119454382906
 20
21.75289154846905
 30
0.0
  0
VERTEX
  5
C73
  8
LAYER_1
 10
108.1311156424723
 20
21.76432197576496
 30
0.0
  0
VERTEX
  5
C74
  8
LAYER_1
 10
108.1430693701509
 20
21.77544784948946
 30
0.0
  0
VERTEX
  5
C75
  8
LAYER_1
 10
108.1553155659417
 20
21.78626916964252
 30
0.0
  0
VERTEX
  5
C76
  8
LAYER_1
 10
108.1678542298447
 20
21.79678593622415
 30
0.0
  0
VERTEX
  5
C77
  8
LAYER_1
 10
108.1848705563754
 20
21.8099880918364
 30
0.0
  0
VERTEX
  5
C78
  8
LAYER_1
 10
108.201886882906
 20
21.82205904846905
 30
0.0
  0
VERTEX
  5
C79
  8
LAYER_1
 10
108.2189032094366
 20
21.83299880612211
 30
0.0
  0
VERTEX
  5
C7A
  8
LAYER_1
 10
108.2359195359672
 20
21.84280736479558
 30
0.0
  0
VERTEX
  5
C7B
  8
LAYER_1
 10
108.2529358624978
 20
21.85148472448945
 30
0.0
  0
VERTEX
  5
C7C
  8
LAYER_1
 10
108.2699521890284
 20
21.85903088520374
 30
0.0
  0
VERTEX
  5
C7D
  8
LAYER_1
 10
108.286968515559
 20
21.86544584693844
 30
0.0
  0
VERTEX
  5
C7E
  8
LAYER_1
 10
108.3039848420896
 20
21.87072960969354
 30
0.0
  0
VERTEX
  5
C7F
  8
LAYER_1
 10
108.3219583369876
 20
21.87515288775476
 30
0.0
  0
VERTEX
  5
C80
  8
LAYER_1
 10
108.3418461686203
 20
21.87898639540782
 30
0.0
  0
VERTEX
  5
C81
  8
LAYER_1
 10
108.3636483369876
 20
21.88223013265272
 30
0.0
  0
VERTEX
  5
C82
  8
LAYER_1
 10
108.3873648420896
 20
21.88488409948945
 30
0.0
  0
VERTEX
  5
C83
  8
LAYER_1
 10
108.4129956839264
 20
21.88694829591802
 30
0.0
  0
VERTEX
  5
C84
  8
LAYER_1
 10
108.4405408624978
 20
21.88842272193843
 30
0.0
  0
VERTEX
  5
C85
  8
LAYER_1
 10
108.4700003778039
 20
21.88930737755068
 30
0.0
  0
VERTEX
  5
C86
  8
LAYER_1
 10
108.5013742298447
 20
21.88960226275476
 30
0.0
  0
VERTEX
  5
C87
  8
LAYER_1
 10
108.510549510457
 20
21.91932765816292
 30
0.0
  0
VERTEX
  5
C88
  8
LAYER_1
 10
108.5198214747427
 20
21.94724506887721
 30
0.0
  0
VERTEX
  5
C89
  8
LAYER_1
 10
108.5291901227019
 20
21.97335449489762
 30
0.0
  0
VERTEX
  5
C8A
  8
LAYER_1
 10
108.5386554543346
 20
21.99765593622415
 30
0.0
  0
VERTEX
  5
C8B
  8
LAYER_1
 10
108.5482174696407
 20
22.0201493928568
 30
0.0
  0
VERTEX
  5
C8C
  8
LAYER_1
 10
108.5578761686203
 20
22.04083486479558
 30
0.0
  0
VERTEX
  5
C8D
  8
LAYER_1
 10
108.5676315512733
 20
22.05971235204047
 30
0.0
  0
VERTEX
  5
C8E
  8
LAYER_1
 10
108.5774836175999
 20
22.07678185459149
 30
0.0
  0
VERTEX
  5
C8F
  8
LAYER_1
 10
108.5878867808651
 20
22.09281684183639
 30
0.0
  0
VERTEX
  5
C90
  8
LAYER_1
 10
108.5992954543345
 20
22.10859078316292
 30
0.0
  0
VERTEX
  5
C91
  8
LAYER_1
 10
108.611709638008
 20
22.12410367857109
 30
0.0
  0
VERTEX
  5
C92
  8
LAYER_1
 10
108.6251293318856
 20
22.13935552806088
 30
0.0
  0
VERTEX
  5
C93
  8
LAYER_1
 10
108.6395545359672
 20
22.15434633163231
 30
0.0
  0
VERTEX
  5
C94
  8
LAYER_1
 10
108.6549852502529
 20
22.16907608928537
 30
0.0
  0
VERTEX
  5
C95
  8
LAYER_1
 10
108.6714214747427
 20
22.18354480102007
 30
0.0
  0
VERTEX
  5
C96
  8
LAYER_1
 10
108.6888632094366
 20
22.19775246683639
 30
0.0
  0
VERTEX
  5
C97
  8
LAYER_1
 10
108.7042770040794
 20
22.20944152295884
 30
0.0
  0
VERTEX
  5
C98
  8
LAYER_1
 10
108.7198890002529
 20
22.22037644642823
 30
0.0
  0
VERTEX
  5
C99
  8
LAYER_1
 10
108.735699197957
 20
22.23055723724455
 30
0.0
  0
VERTEX
  5
C9A
  8
LAYER_1
 10
108.7517075971917
 20
22.23998389540782
 30
0.0
  0
VERTEX
  5
C9B
  8
LAYER_1
 10
108.767914197957
 20
22.24865642091802
 30
0.0
  0
VERTEX
  5
C9C
  8
LAYER_1
 10
108.7843190002529
 20
22.25657481377517
 30
0.0
  0
VERTEX
  5
C9D
  8
LAYER_1
 10
108.8009220040795
 20
22.26373907397925
 30
0.0
  0
VERTEX
  5
C9E
  8
LAYER_1
 10
108.8177232094366
 20
22.27014920153027
 30
0.0
  0
VERTEX
  5
C9F
  8
LAYER_1
 10
108.8347226163244
 20
22.27580519642823
 30
0.0
  0
VERTEX
  5
CA0
  8
LAYER_1
 10
108.8519202247427
 20
22.28070705867313
 30
0.0
  0
VERTEX
  5
CA1
  8
LAYER_1
 10
108.8693160346917
 20
22.28485478826496
 30
0.0
  0
VERTEX
  5
CA2
  8
LAYER_1
 10
108.8869100461713
 20
22.28824838520374
 30
0.0
  0
VERTEX
  5
CA3
  8
LAYER_1
 10
108.9047022591815
 20
22.29088784948945
 30
0.0
  0
VERTEX
  5
CA4
  8
LAYER_1
 10
108.9226926737223
 20
22.29277318112211
 30
0.0
  0
VERTEX
  5
CA5
  8
LAYER_1
 10
108.9408812897937
 20
22.2939043801017
 30
0.0
  0
VERTEX
  5
CA6
  8
LAYER_1
 10
108.9592681073958
 20
22.29428144642823
 30
0.0
  0
VERTEX
  5
CA7
  8
LAYER_1
 10
108.9744087706611
 20
22.29407841071394
 30
0.0
  0
VERTEX
  5
CA8
  8
LAYER_1
 10
108.9892013727019
 20
22.29346930357109
 30
0.0
  0
VERTEX
  5
CA9
  8
LAYER_1
 10
109.0036459135182
 20
22.29245412499966
 30
0.0
  0
VERTEX
  5
CAA
  8
LAYER_1
 10
109.01774239311
 20
22.29103287499966
 30
0.0
  0
VERTEX
  5
CAB
  8
LAYER_1
 10
109.0314908114774
 20
22.28920555357109
 30
0.0
  0
VERTEX
  5
CAC
  8
LAYER_1
 10
109.0448911686203
 20
22.28697216071394
 30
0.0
  0
VERTEX
  5
CAD
  8
LAYER_1
 10
109.0579434645386
 20
22.28433269642823
 30
0.0
  0
VERTEX
  5
CAE
  8
LAYER_1
 10
109.0706476992325
 20
22.28128716071394
 30
0.0
  0
VERTEX
  5
CAF
  8
LAYER_1
 10
108.9858754543345
 20
22.19342103826497
 30
0.0
  0
VERTEX
  5
CB0
  8
LAYER_1
 10
108.9678149441305
 20
22.20096236479558
 30
0.0
  0
VERTEX
  5
CB1
  8
LAYER_1
 10
108.9504505563754
 20
22.20749818112211
 30
0.0
  0
VERTEX
  5
CB2
  8
LAYER_1
 10
108.9337822910692
 20
22.21302848724456
 30
0.0
  0
VERTEX
  5
CB3
  8
LAYER_1
 10
108.9178101482121
 20
22.21755328316292
 30
0.0
  0
VERTEX
  5
CB4
  8
LAYER_1
 10
108.9025341278039
 20
22.22107256887721
 30
0.0
  0
VERTEX
  5
CB5
  8
LAYER_1
 10
108.8879542298448
 20
22.22358634438741
 30
0.0
  0
VERTEX
  5
CB6
  8
LAYER_1
 10
108.8740704543345
 20
22.22509460969354
 30
0.0
  0
VERTEX
  5
CB7
  8
LAYER_1
 10
108.8608828012733
 20
22.22559736479558
 30
0.0
  0
VERTEX
  5
CB8
  8
LAYER_1
 10
108.8486982413243
 20
22.2253157735966
 30
0.0
  0
VERTEX
  5
CB9
  8
LAYER_1
 10
108.8368955818856
 20
22.22447099999966
 30
0.0
  0
VERTEX
  5
CBA
  8
LAYER_1
 10
108.825474822957
 20
22.22306304400477
 30
0.0
  0
VERTEX
  5
CBB
  8
LAYER_1
 10
108.8144359645386
 20
22.22109190561191
 30
0.0
  0
VERTEX
  5
CBC
  8
LAYER_1
 10
108.8037790066304
 20
22.21855758482109
 30
0.0
  0
VERTEX
  5
CBD
  8
LAYER_1
 10
108.7935039492325
 20
22.21546008163232
 30
0.0
  0
VERTEX
  5
CBE
  8
LAYER_1
 10
108.7836107923447
 20
22.21179939604558
 30
0.0
  0
VERTEX
  5
CBF
  8
LAYER_1
 10
108.7740995359672
 20
22.20757552806089
 30
0.0
  0
VERTEX
  5
CC0
  8
LAYER_1
 10
108.7649701800998
 20
22.20278847767823
 30
0.0
  0
VERTEX
  5
CC1
  8
LAYER_1
 10
108.7562227247427
 20
22.19743824489762
 30
0.0
  0
VERTEX
  5
CC2
  8
LAYER_1
 10
108.7478571698958
 20
22.19152482971905
 30
0.0
  0
VERTEX
  5
CC3
  8
LAYER_1
 10
108.739873515559
 20
22.18504823214251
 30
0.0
  0
VERTEX
  5
CC4
  8
LAYER_1
 10
108.7322717617325
 20
22.17800845216802
 30
0.0
  0
VERTEX
  5
CC5
  8
LAYER_1
 10
108.7250519084162
 20
22.17040548979558
 30
0.0
  0
VERTEX
  5
CC6
  8
LAYER_1
 10
108.71821395561
 20
22.16223934502517
 30
0.0
  0
VERTEX
  5
CC7
  8
LAYER_1
 10
108.7117579033141
 20
22.1535100178568
 30
0.0
  0
VERTEX
  5
CC8
  8
LAYER_1
 10
108.7055338918345
 20
22.14400722130068
 30
0.0
  0
VERTEX
  5
CC9
  8
LAYER_1
 10
108.6993920614774
 20
22.13352066836701
 30
0.0
  0
VERTEX
  5
CCA
  8
LAYER_1
 10
108.6933324122427
 20
22.12205035905578
 30
0.0
  0
VERTEX
  5
CCB
  8
LAYER_1
 10
108.6873549441305
 20
22.10959629336701
 30
0.0
  0
VERTEX
  5
CCC
  8
LAYER_1
 10
108.6814596571407
 20
22.09615847130068
 30
0.0
  0
VERTEX
  5
CCD
  8
LAYER_1
 10
108.6756465512733
 20
22.0817368928568
 30
0.0
  0
VERTEX
  5
CCE
  8
LAYER_1
 10
108.6699156265284
 20
22.06633155803537
 30
0.0
  0
VERTEX
  5
CCF
  8
LAYER_1
 10
108.664266882906
 20
22.0499424668364
 30
0.0
  0
VERTEX
  5
CD0
  8
LAYER_1
 10
108.658700320406
 20
22.03256961925986
 30
0.0
  0
VERTEX
  5
CD1
  8
LAYER_1
 10
108.6532159390284
 20
22.01421301530578
 30
0.0
  0
VERTEX
  5
CD2
  8
LAYER_1
 10
108.6478137387733
 20
21.99487265497415
 30
0.0
  0
VERTEX
  5
CD3
  8
LAYER_1
 10
108.6424937196407
 20
21.97454853826496
 30
0.0
  0
VERTEX
  5
CD4
  8
LAYER_1
 10
108.6372558816305
 20
21.95324066517822
 30
0.0
  0
VERTEX
  5
CD5
  8
LAYER_1
 10
108.6321002247427
 20
21.93094903571394
 30
0.0
  0
VERTEX
  5
CD6
  8
LAYER_1
 10
108.6220354543345
 20
21.88341450765272
 30
0.0
  0
VERTEX
  5
CD7
  8
LAYER_1
 10
108.5248876992325
 20
21.39334430357109
 30
0.0
  0
VERTEX
  5
CD8
  8
LAYER_1
 10
108.5183905563754
 20
21.36070389540782
 30
0.0
  0
VERTEX
  5
CD9
  8
LAYER_1
 10
108.5137497400488
 20
21.3345606301017
 30
0.0
  0
VERTEX
  5
CDA
  8
LAYER_1
 10
108.5109652502529
 20
21.31491450765272
 30
0.0
  0
VERTEX
  5
CDB
  8
LAYER_1
 10
108.5102691278039
 20
21.30752787499966
 30
0.0
  0
VERTEX
  5
CDC
  8
LAYER_1
 10
108.5100370869876
 20
21.30176552806088
 30
0.0
  0
VERTEX
  5
CDD
  8
LAYER_1
 10
108.510179695406
 20
21.29689508800987
 30
0.0
  0
VERTEX
  5
CDE
  8
LAYER_1
 10
108.5106075206611
 20
21.29233886989762
 30
0.0
  0
VERTEX
  5
CDF
  8
LAYER_1
 10
108.5113205627529
 20
21.28809687372415
 30
0.0
  0
VERTEX
  5
CE0
  8
LAYER_1
 10
108.5123188216815
 20
21.28416909948946
 30
0.0
  0
VERTEX
  5
CE1
  8
LAYER_1
 10
108.5136022974468
 20
21.28055554719354
 30
0.0
  0
VERTEX
  5
CE2
  8
LAYER_1
 10
108.5151709900488
 20
21.27725621683639
 30
0.0
  0
VERTEX
  5
CE3
  8
LAYER_1
 10
108.5170248994876
 20
21.27427110841803
 30
0.0
  0
VERTEX
  5
CE4
  8
LAYER_1
 10
108.5191640257631
 20
21.27160022193844
 30
0.0
  0
VERTEX
  5
CE5
  8
LAYER_1
 10
108.5215883688753
 20
21.26924355739762
 30
0.0
  0
VERTEX
  5
CE6
  8
LAYER_1
 10
108.5242979288243
 20
21.26720111479558
 30
0.0
  0
VERTEX
  5
CE7
  8
LAYER_1
 10
108.5272927056101
 20
21.26547289413231
 30
0.0
  0
VERTEX
  5
CE8
  8
LAYER_1
 10
108.5305726992325
 20
21.26405889540782
 30
0.0
  0
VERTEX
  5
CE9
  8
LAYER_1
 10
108.5341379096917
 20
21.26295911862211
 30
0.0
  0
VERTEX
  5
CEA
  8
LAYER_1
 10
108.5379883369876
 20
21.26217356377517
 30
0.0
  0
VERTEX
  5
CEB
  8
LAYER_1
 10
108.5421239811202
 20
21.26170223086701
 30
0.0
  0
VERTEX
  5
CEC
  8
LAYER_1
 10
108.5465448420896
 20
21.26154511989762
 30
0.0
  0
VERTEX
  5
CED
  8
LAYER_1
 10
108.554518828059
 20
21.2620768801017
 30
0.0
  0
VERTEX
  5
CEE
  8
LAYER_1
 10
108.5629713982121
 20
21.26367216071395
 30
0.0
  0
VERTEX
  5
CEF
  8
LAYER_1
 10
108.5719025525488
 20
21.26633096173436
 30
0.0
  0
VERTEX
  5
CF0
  8
LAYER_1
 10
108.5813122910693
 20
21.27005328316293
 30
0.0
  0
VERTEX
  5
CF1
  8
LAYER_1
 10
108.5912006137733
 20
21.27483912499966
 30
0.0
  0
VERTEX
  5
CF2
  8
LAYER_1
 10
108.6015675206611
 20
21.28068848724456
 30
0.0
  0
VERTEX
  5
CF3
  8
LAYER_1
 10
108.6124130117325
 20
21.28760136989762
 30
0.0
  0
VERTEX
  5
CF4
  8
LAYER_1
 10
108.6237370869876
 20
21.29557777295884
 30
0.0
  0
VERTEX
  5
CF5
  8
LAYER_1
 10
108.6355397464264
 20
21.30461769642823
 30
0.0
  0
VERTEX
  5
CF6
  8
LAYER_1
 10
108.6478209900488
 20
21.31472114030579
 30
0.0
  0
VERTEX
  5
CF7
  8
LAYER_1
 10
108.6605808178549
 20
21.3258881045915
 30
0.0
  0
VERTEX
  5
CF8
  8
LAYER_1
 10
108.6738192298448
 20
21.33811858928538
 30
0.0
  0
VERTEX
  5
CF9
  8
LAYER_1
 10
108.6875362260182
 20
21.35141259438742
 30
0.0
  0
VERTEX
  5
CFA
  8
LAYER_1
 10
108.7017318063754
 20
21.36577011989762
 30
0.0
  0
VERTEX
  5
CFB
  8
LAYER_1
 10
108.7164059709162
 20
21.38119116581599
 30
0.0
  0
VERTEX
  5
CFC
  8
LAYER_1
 10
108.7315587196407
 20
21.39767573214252
 30
0.0
  0
VERTEX
  5
CFD
  8
LAYER_1
 10
108.7198019849468
 20
21.34012960969354
 30
0.0
  0
VERTEX
  5
CFE
  8
LAYER_1
 10
108.7030467043345
 20
21.32252109566292
 30
0.0
  0
VERTEX
  5
CFF
  8
LAYER_1
 10
108.6865041278039
 20
21.30604861479558
 30
0.0
  0
VERTEX
  5
D00
  8
LAYER_1
 10
108.670174255355
 20
21.2907121670915
 30
0.0
  0
VERTEX
  5
D01
  8
LAYER_1
 10
108.6540570869876
 20
21.27651175255068
 30
0.0
  0
VERTEX
  5
D02
  8
LAYER_1
 10
108.6381526227019
 20
21.26344737117313
 30
0.0
  0
VERTEX
  5
D03
  8
LAYER_1
 10
108.6224608624978
 20
21.25151902295885
 30
0.0
  0
VERTEX
  5
D04
  8
LAYER_1
 10
108.6069818063754
 20
21.24072670790783
 30
0.0
  0
VERTEX
  5
D05
  8
LAYER_1
 10
108.5917154543345
 20
21.23107042602007
 30
0.0
  0
VERTEX
  5
D06
  8
LAYER_1
 10
108.5766618063754
 20
21.22255017729558
 30
0.0
  0
VERTEX
  5
D07
  8
LAYER_1
 10
108.5618208624978
 20
21.21516596173436
 30
0.0
  0
VERTEX
  5
D08
  8
LAYER_1
 10
108.5471926227019
 20
21.2089177793364
 30
0.0
  0
VERTEX
  5
D09
  8
LAYER_1
 10
108.5327770869876
 20
21.20380563010171
 30
0.0
  0
VERTEX
  5
D0A
  8
LAYER_1
 10
108.5185742553549
 20
21.19982951403027
 30
0.0
  0
VERTEX
  5
D0B
  8
LAYER_1
 10
108.5045841278039
 20
21.19698943112211
 30
0.0
  0
VERTEX
  5
D0C
  8
LAYER_1
 10
108.4908067043345
 20
21.19528538137721
 30
0.0
  0
VERTEX
  5
D0D
  8
LAYER_1
 10
108.4772419849468
 20
21.19471736479558
 30
0.0
  0
VERTEX
  5
D0E
  8
LAYER_1
 10
108.4663771571407
 20
21.19508234566293
 30
0.0
  0
VERTEX
  5
D0F
  8
LAYER_1
 10
108.4562132859672
 20
21.19617728826497
 30
0.0
  0
VERTEX
  5
D10
  8
LAYER_1
 10
108.4467503714264
 20
21.19800219260171
 30
0.0
  0
VERTEX
  5
D11
  8
LAYER_1
 10
108.4379884135182
 20
21.20055705867313
 30
0.0
  0
VERTEX
  5
D12
  8
LAYER_1
 10
108.4299274122427
 20
21.20384188647925
 30
0.0
  0
VERTEX
  5
D13
  8
LAYER_1
 10
108.4225673675999
 20
21.20785667602007
 30
0.0
  0
VERTEX
  5
D14
  8
LAYER_1
 10
108.4159082795897
 20
21.21260142729558
 30
0.0
  0
VERTEX
  5
D15
  8
LAYER_1
 10
108.4099501482121
 20
21.21807614030578
 30
0.0
  0
VERTEX
  5
D16
  8
LAYER_1
 10
108.4046929734672
 20
21.22428081505068
 30
0.0
  0
VERTEX
  5
D17
  8
LAYER_1
 10
108.4001367553549
 20
21.23121545153028
 30
0.0
  0
VERTEX
  5
D18
  8
LAYER_1
 10
108.3962814938754
 20
21.23888004974456
 30
0.0
  0
VERTEX
  5
D19
  8
LAYER_1
 10
108.3931271890284
 20
21.24727460969354
 30
0.0
  0
VERTEX
  5
D1A
  8
LAYER_1
 10
108.3906738408141
 20
21.25639913137721
 30
0.0
  0
VERTEX
  5
D1B
  8
LAYER_1
 10
108.3889214492325
 20
21.26625361479558
 30
0.0
  0
VERTEX
  5
D1C
  8
LAYER_1
 10
108.3878700142835
 20
21.27683805994864
 30
0.0
  0
VERTEX
  5
D1D
  8
LAYER_1
 10
108.3875195359672
 20
21.28815246683639
 30
0.0
  0
VERTEX
  5
D1E
  8
LAYER_1
 10
108.3877515767835
 20
21.29642858928538
 30
0.0
  0
VERTEX
  5
D1F
  8
LAYER_1
 10
108.3884476992325
 20
21.30609695663231
 30
0.0
  0
VERTEX
  5
D20
  8
LAYER_1
 10
108.3912321890284
 20
21.32961042602007
 30
0.0
  0
VERTEX
  5
D21
  8
LAYER_1
 10
108.3958730053549
 20
21.35869287499966
 30
0.0
  0
VERTEX
  5
D22
  8
LAYER_1
 10
108.4023701482121
 20
21.39334430357109
 30
0.0
  0
SEQEND
  5
F6C
  8
LAYER_1
  0
POLYLINE
  5
EC
  8
LAYER_1
 66
     1
 10
0.0
 20
0.0
 30
0.0
 70
     1
  0
VERTEX
  5
D23
  8
LAYER_1
 10
108.4821921890284
 20
21.79369205867313
 30
0.0
  0
VERTEX
  5
D24
  8
LAYER_1
 10
108.4629908114774
 20
21.80181348724456
 30
0.0
  0
VERTEX
  5
D25
  8
LAYER_1
 10
108.443750760457
 20
21.80885205867313
 30
0.0
  0
VERTEX
  5
D26
  8
LAYER_1
 10
108.4244720359672
 20
21.81480777295884
 30
0.0
  0
VERTEX
  5
D27
  8
LAYER_1
 10
108.405154638008
 20
21.8196806301017
 30
0.0
  0
VERTEX
  5
D28
  8
LAYER_1
 10
108.3857985665794
 20
21.8234706301017
 30
0.0
  0
VERTEX
  5
D29
  8
LAYER_1
 10
108.3664038216815
 20
21.82617777295884
 30
0.0
  0
VERTEX
  5
D2A
  8
LAYER_1
 10
108.3469704033141
 20
21.82780205867313
 30
0.0
  0
VERTEX
  5
D2B
  8
LAYER_1
 10
108.3274983114774
 20
21.82834348724456
 30
0.0
  0
VERTEX
  5
D2C
  8
LAYER_1
 10
108.3136725461713
 20
21.8277875561221
 30
0.0
  0
VERTEX
  5
D2D
  8
LAYER_1
 10
108.3001948420896
 20
21.82611976275476
 30
0.0
  0
VERTEX
  5
D2E
  8
LAYER_1
 10
108.2870651992325
 20
21.82334010714251
 30
0.0
  0
VERTEX
  5
D2F
  8
LAYER_1
 10
108.2742836175998
 20
21.81944858928537
 30
0.0
  0
VERTEX
  5
D30
  8
LAYER_1
 10
108.2618500971917
 20
21.81444520918333
 30
0.0
  0
VERTEX
  5
D31
  8
LAYER_1
 10
108.249764638008
 20
21.8083299668364
 30
0.0
  0
VERTEX
  5
D32
  8
LAYER_1
 10
108.2380272400488
 20
21.80110286224456
 30
0.0
  0
VERTEX
  5
D33
  8
LAYER_1
 10
108.2266379033141
 20
21.79276389540782
 30
0.0
  0
VERTEX
  5
D34
  8
LAYER_1
 10
108.2155966278039
 20
21.78331306632619
 30
0.0
  0
VERTEX
  5
D35
  8
LAYER_1
 10
108.2049034135182
 20
21.77275037499966
 30
0.0
  0
VERTEX
  5
D36
  8
LAYER_1
 10
108.194558260457
 20
21.76107582142824
 30
0.0
  0
VERTEX
  5
D37
  8
LAYER_1
 10
108.1845611686203
 20
21.74828940561191
 30
0.0
  0
VERTEX
  5
D38
  8
LAYER_1
 10
108.174912138008
 20
21.73439112755068
 30
0.0
  0
VERTEX
  5
D39
  8
LAYER_1
 10
108.1656111686202
 20
21.71938098724456
 30
0.0
  0
VERTEX
  5
D3A
  8
LAYER_1
 10
108.156658260457
 20
21.70325898469354
 30
0.0
  0
VERTEX
  5
D3B
  8
LAYER_1
 10
108.1480534135182
 20
21.68602511989762
 30
0.0
  0
VERTEX
  5
D3C
  8
LAYER_1
 10
108.1383874632631
 20
21.6651196926017
 30
0.0
  0
VERTEX
  5
D3D
  8
LAYER_1
 10
108.1293451227019
 20
21.64448014540782
 30
0.0
  0
VERTEX
  5
D3E
  8
LAYER_1
 10
108.1209263918345
 20
21.62410647831599
 30
0.0
  0
VERTEX
  5
D3F
  8
LAYER_1
 10
108.1131312706611
 20
21.60399869132619
 30
0.0
  0
VERTEX
  5
D40
  8
LAYER_1
 10
108.1059597591815
 20
21.58415678443843
 30
0.0
  0
VERTEX
  5
D41
  8
LAYER_1
 10
108.0994118573958
 20
21.56458075765272
 30
0.0
  0
VERTEX
  5
D42
  8
LAYER_1
 10
108.0934875653039
 20
21.54527061096904
 30
0.0
  0
VERTEX
  5
D43
  8
LAYER_1
 10
108.088186882906
 20
21.52622634438741
 30
0.0
  0
VERTEX
  5
D44
  8
LAYER_1
 10
108.0835098102019
 20
21.50744795790783
 30
0.0
  0
VERTEX
  5
D45
  8
LAYER_1
 10
108.0794563471917
 20
21.48893545153027
 30
0.0
  0
VERTEX
  5
D46
  8
LAYER_1
 10
108.0760264938754
 20
21.47068882525476
 30
0.0
  0
VERTEX
  5
D47
  8
LAYER_1
 10
108.0732202502529
 20
21.45270807908129
 30
0.0
  0
VERTEX
  5
D48
  8
LAYER_1
 10
108.0710376163243
 20
21.43499321300986
 30
0.0
  0
VERTEX
  5
D49
  8
LAYER_1
 10
108.0694785920897
 20
21.41754422704048
 30
0.0
  0
VERTEX
  5
D4A
  8
LAYER_1
 10
108.0685431775488
 20
21.40036112117313
 30
0.0
  0
VERTEX
  5
D4B
  8
LAYER_1
 10
108.0682313727019
 20
21.38344389540782
 30
0.0
  0
VERTEX
  5
D4C
  8
LAYER_1
 10
108.0684561622427
 20
21.37167990943843
 30
0.0
  0
VERTEX
  5
D4D
  8
LAYER_1
 10
108.0691305308652
 20
21.36067489030578
 30
0.0
  0
VERTEX
  5
D4E
  8
LAYER_1
 10
108.0702544785692
 20
21.35042883800987
 30
0.0
  0
VERTEX
  5
D4F
  8
LAYER_1
 10
108.0718280053549
 20
21.34094175255068
 30
0.0
  0
VERTEX
  5
D50
  8
LAYER_1
 10
108.0738511112223
 20
21.33221363392823
 30
0.0
  0
VERTEX
  5
D51
  8
LAYER_1
 10
108.0763237961713
 20
21.32424448214252
 30
0.0
  0
VERTEX
  5
D52
  8
LAYER_1
 10
108.0792460602019
 20
21.31703429719354
 30
0.0
  0
VERTEX
  5
D53
  8
LAYER_1
 10
108.0826179033141
 20
21.31058307908129
 30
0.0
  0
VERTEX
  5
D54
  8
LAYER_1
 10
108.086439325508
 20
21.30489082780578
 30
0.0
  0
VERTEX
  5
D55
  8
LAYER_1
 10
108.0907103267835
 20
21.29995754336701
 30
0.0
  0
VERTEX
  5
D56
  8
LAYER_1
 10
108.0954309071407
 20
21.29578322576496
 30
0.0
  0
VERTEX
  5
D57
  8
LAYER_1
 10
108.1006010665794
 20
21.29236787499966
 30
0.0
  0
VERTEX
  5
D58
  8
LAYER_1
 10
108.1062208050999
 20
21.28971149107109
 30
0.0
  0
VERTEX
  5
D59
  8
LAYER_1
 10
108.1122901227019
 20
21.28781407397925
 30
0.0
  0
VERTEX
  5
D5A
  8
LAYER_1
 10
108.1188090193856
 20
21.28667562372415
 30
0.0
  0
VERTEX
  5
D5B
  8
LAYER_1
 10
108.1257774951509
 20
21.28629614030578
 30
0.0
  0
VERTEX
  5
D5C
  8
LAYER_1
 10
108.1326118223192
 20
21.28673363392823
 30
0.0
  0
VERTEX
  5
D5D
  8
LAYER_1
 10
108.1398111303549
 20
21.28804611479558
 30
0.0
  0
VERTEX
  5
D5E
  8
LAYER_1
 10
108.147375419258
 20
21.29023358290782
 30
0.0
  0
VERTEX
  5
D5F
  8
LAYER_1
 10
108.1553046890284
 20
21.29329603826497
 30
0.0
  0
VERTEX
  5
D60
  8
LAYER_1
 10
108.1635989396662
 20
21.29723348086701
 30
0.0
  0
VERTEX
  5
D61
  8
LAYER_1
 10
108.1722581711713
 20
21.30204591071395
 30
0.0
  0
VERTEX
  5
D62
  8
LAYER_1
 10
108.1812823835437
 20
21.30773332780578
 30
0.0
  0
VERTEX
  5
D63
  8
LAYER_1
 10
108.1906715767835
 20
21.31429573214252
 30
0.0
  0
VERTEX
  5
D64
  8
LAYER_1
 10
108.2004257508907
 20
21.32173312372415
 30
0.0
  0
VERTEX
  5
D65
  8
LAYER_1
 10
108.2105449058652
 20
21.33004550255068
 30
0.0
  0
VERTEX
  5
D66
  8
LAYER_1
 10
108.221029041707
 20
21.33923286862211
 30
0.0
  0
VERTEX
  5
D67
  8
LAYER_1
 10
108.2318781584162
 20
21.34929522193844
 30
0.0
  0
VERTEX
  5
D68
  8
LAYER_1
 10
108.2430922559927
 20
21.36023256249966
 30
0.0
  0
VERTEX
  5
D69
  8
LAYER_1
 10
108.2546713344366
 20
21.37204489030579
 30
0.0
  0
VERTEX
  5
D6A
  8
LAYER_1
 10
108.2666153937478
 20
21.3847322053568
 30
0.0
  0
VERTEX
  5
D6B
  8
LAYER_1
 10
108.2789244339264
 20
21.39829450765272
 30
0.0
  0
VERTEX
  5
D6C
  8
LAYER_1
 10
108.2913204894111
 20
21.41241757525476
 30
0.0
  0
VERTEX
  5
D6D
  8
LAYER_1
 10
108.3035255946407
 20
21.42678718622415
 30
0.0
  0
VERTEX
  5
D6E
  8
LAYER_1
 10
108.3155397496151
 20
21.44140334056089
 30
0.0
  0
VERTEX
  5
D6F
  8
LAYER_1
 10
108.3273629543345
 20
21.45626603826496
 30
0.0
  0
VERTEX
  5
D70
  8
LAYER_1
 10
108.3389952087988
 20
21.47137527933639
 30
0.0
  0
VERTEX
  5
D71
  8
LAYER_1
 10
108.350436513008
 20
21.48673106377517
 30
0.0
  0
VERTEX
  5
D72
  8
LAYER_1
 10
108.3727462706611
 20
21.51818226275476
 30
0.0
  0
VERTEX
  5
D73
  8
LAYER_1
 10
108.3942922272937
 20
21.55061963520374
 30
0.0
  0
VERTEX
  5
D74
  8
LAYER_1
 10
108.415074382906
 20
21.58404318112211
 30
0.0
  0
VERTEX
  5
D75
  8
LAYER_1
 10
108.4350927374978
 20
21.61845290050987
 30
0.0
  0
VERTEX
  5
D76
  8
LAYER_1
 10
108.4543472910692
 20
21.65384879336701
 30
0.0
  0
SEQEND
  5
F6D
  8
LAYER_1
  0
POLYLINE
  5
ED
  8
LAYER_1
 66
     1
 10
0.0
 20
0.0
 30
0.0
 70
     1
  0
VERTEX
  5
D77
  8
LAYER_1
 10
118.8590574951509
 20
21.32058017091803
 30
0.0
  0
VERTEX
  5
D78
  8
LAYER_1
 10
118.9803374951509
 20
21.40819491581599
 30
0.0
  0
VERTEX
  5
D79
  8
LAYER_1
 10
119.0743913727019
 20
21.28788175255068
 30
0.0
  0
VERTEX
  5
D7A
  8
LAYER_1
 10
118.9500174951509
 20
21.19471736479558
 30
0.0
  0
SEQEND
  5
F6E
  8
LAYER_1
  0
POLYLINE
  5
EE
  8
LAYER_1
 66
     1
 10
0.0
 20
0.0
 30
0.0
 70
     1
  0
VERTEX
  5
D7B
  8
LAYER_1
 10
99.4688817103321
 20
-41.74111093201526
 30
0.0
  0
VERTEX
  5
D7C
  8
LAYER_1
 10
99.4688817103321
 20
-37.83876785187589
 30
0.0
  0
VERTEX
  5
D7D
  8
LAYER_1
 10
98.27373255353768
 20
-37.83876785187589
 30
0.0
  0
VERTEX
  5
D7E
  8
LAYER_1
 10
98.27373255353768
 20
-37.31664460913489
 30
0.0
  0
VERTEX
  5
D7F
  8
LAYER_1
 10
101.1499374687525
 20
-37.31664460913489
 30
0.0
  0
VERTEX
  5
D80
  8
LAYER_1
 10
101.1499374687525
 20
-37.83876785187589
 30
0.0
  0
VERTEX
  5
D81
  8
LAYER_1
 10
99.94875220510562
 20
-37.83876785187589
 30
0.0
  0
VERTEX
  5
D82
  8
LAYER_1
 10
99.94875220510562
 20
-41.74111093201526
 30
0.0
  0
SEQEND
  5
F6F
  8
LAYER_1
  0
POLYLINE
  5
EF
  8
LAYER_1
 66
     1
 10
0.0
 20
0.0
 30
0.0
 70
     1
  0
VERTEX
  5
D83
  8
LAYER_1
 10
101.6448982306573
 20
-41.74111093201526
 30
0.0
  0
VERTEX
  5
D84
  8
LAYER_1
 10
101.6448982306573
 20
-37.31664460913489
 30
0.0
  0
VERTEX
  5
D85
  8
LAYER_1
 10
104.2675866580673
 20
-37.31664460913489
 30
0.0
  0
VERTEX
  5
D86
  8
LAYER_1
 10
104.2675866580673
 20
-37.83876785187589
 30
0.0
  0
VERTEX
  5
D87
  8
LAYER_1
 10
102.1247687254308
 20
-37.83876785187589
 30
0.0
  0
VERTEX
  5
D88
  8
LAYER_1
 10
102.1247687254308
 20
-39.19085578683524
 30
0.0
  0
VERTEX
  5
D89
  8
LAYER_1
 10
104.1317742538861
 20
-39.19085578683524
 30
0.0
  0
VERTEX
  5
D8A
  8
LAYER_1
 10
104.1317742538861
 20
-39.71297902957624
 30
0.0
  0
VERTEX
  5
D8B
  8
LAYER_1
 10
102.1247687254308
 20
-39.71297902957624
 30
0.0
  0
VERTEX
  5
D8C
  8
LAYER_1
 10
102.1247687254308
 20
-41.21898768927426
 30
0.0
  0
VERTEX
  5
D8D
  8
LAYER_1
 10
104.3520921540023
 20
-41.21898768927426
 30
0.0
  0
VERTEX
  5
D8E
  8
LAYER_1
 10
104.3520921540023
 20
-41.74111093201526
 30
0.0
  0
SEQEND
  5
F70
  8
LAYER_1
  0
POLYLINE
  5
F0
  8
LAYER_1
 66
     1
 10
0.0
 20
0.0
 30
0.0
 70
     1
  0
VERTEX
  5
D8F
  8
LAYER_1
 10
105.0009736406457
 20
-41.74111093201526
 30
0.0
  0
VERTEX
  5
D90
  8
LAYER_1
 10
105.0009736406457
 20
-37.31664460913489
 30
0.0
  0
VERTEX
  5
D91
  8
LAYER_1
 10
105.7225713520278
 20
-37.31664460913489
 30
0.0
  0
VERTEX
  5
D92
  8
LAYER_1
 10
106.5837540343739
 20
-40.44938406558088
 30
0.0
  0
VERTEX
  5
D93
  8
LAYER_1
 10
106.7559717080092
 20
-41.10430165907682
 30
0.0
  0
VERTEX
  5
D94
  8
LAYER_1
 10
106.7918611968485
 20
-40.9683006265565
 30
0.0
  0
VERTEX
  5
D95
  8
LAYER_1
 10
106.8360562272456
 20
-40.80475985652164
 30
0.0
  0
VERTEX
  5
D96
  8
LAYER_1
 10
106.8885567992004
 20
-40.61367934897228
 30
0.0
  0
VERTEX
  5
D97
  8
LAYER_1
 10
106.9493629127131
 20
-40.39505910390841
 30
0.0
  0
VERTEX
  5
D98
  8
LAYER_1
 10
107.8195997553379
 20
-37.31664460913489
 30
0.0
  0
VERTEX
  5
D99
  8
LAYER_1
 10
108.465698973979
 20
-37.31664460913489
 30
0.0
  0
VERTEX
  5
D9A
  8
LAYER_1
 10
108.465698973979
 20
-41.74111093201526
 30
0.0
  0
VERTEX
  5
D9B
  8
LAYER_1
 10
108.003936799763
 20
-41.74111093201526
 30
0.0
  0
VERTEX
  5
D9C
  8
LAYER_1
 10
108.003936799763
 20
-38.04074164601062
 30
0.0
  0
VERTEX
  5
D9D
  8
LAYER_1
 10
106.9459204455237
 20
-41.74111093201526
 30
0.0
  0
VERTEX
  5
D9E
  8
LAYER_1
 10
106.5146217480789
 20
-41.74111093201526
 30
0.0
  0
VERTEX
  5
D9F
  8
LAYER_1
 10
105.4627358148617
 20
-37.97707958155068
 30
0.0
  0
VERTEX
  5
DA0
  8
LAYER_1
 10
105.4627358148617
 20
-41.74111093201526
 30
0.0
  0
SEQEND
  5
F71
  8
LAYER_1
  0
POLYLINE
  5
F1
  8
LAYER_1
 66
     1
 10
0.0
 20
0.0
 30
0.0
 70
     1
  0
VERTEX
  5
DA1
  8
LAYER_1
 10
109.2353025976724
 20
-41.74111093201526
 30
0.0
  0
VERTEX
  5
DA2
  8
LAYER_1
 10
109.2353025976724
 20
-37.31664460913489
 30
0.0
  0
VERTEX
  5
DA3
  8
LAYER_1
 10
110.602480799763
 20
-37.31664460913489
 30
0.0
  0
VERTEX
  5
DA4
  8
LAYER_1
 10
110.6618515695075
 20
-37.31697470872839
 30
0.0
  0
VERTEX
  5
DA5
  8
LAYER_1
 10
110.719241741691
 20
-37.31796500750887
 30
0.0
  0
VERTEX
  5
DA6
  8
LAYER_1
 10
110.7746513163135
 20
-37.31961550547635
 30
0.0
  0
VERTEX
  5
DA7
  8
LAYER_1
 10
110.8280802933751
 20
-37.32192620263083
 30
0.0
  0
VERTEX
  5
DA8
  8
LAYER_1
 10
110.8795286728757
 20
-37.32489709897229
 30
0.0
  0
VERTEX
  5
DA9
  8
LAYER_1
 10
110.9289964548153
 20
-37.32852819450075
 30
0.0
  0
VERTEX
  5
DAA
  8
LAYER_1
 10
110.9764836391939
 20
-37.33281948921619
 30
0.0
  0
VERTEX
  5
DAB
  8
LAYER_1
 10
111.0219902260116
 20
-37.33777098311863
 30
0.0
  0
VERTEX
  5
DAC
  8
LAYER_1
 10
111.0655162152682
 20
-37.34338267620805
 30
0.0
  0
VERTEX
  5
DAD
  8
LAYER_1
 10
111.1070616069639
 20
-37.34965456848448
 30
0.0
  0
VERTEX
  5
DAE
  8
LAYER_1
 10
111.1466264010986
 20
-37.35658665994789
 30
0.0
  0
VERTEX
  5
DAF
  8
LAYER_1
 10
111.1842105976724
 20
-37.3641789505983
 30
0.0
  0
VERTEX
  5
DB0
  8
LAYER_1
 10
111.2198141966852
 20
-37.3724314404357
 30
0.0
  0
VERTEX
  5
DB1
  8
LAYER_1
 10
111.253437198137
 20
-37.38134412946009
 30
0.0
  0
VERTEX
  5
DB2
  8
LAYER_1
 10
111.2695059747775
 20
-37.3860480486674
 30
0.0
  0
VERTEX
  5
DB3
  8
LAYER_1
 10
111.2850796020278
 20
-37.39091701767147
 30
0.0
  0
VERTEX
  5
DB4
  8
LAYER_1
 10
111.3001580798879
 20
-37.39595103647228
 30
0.0
  0
VERTEX
  5
DB5
  8
LAYER_1
 10
111.3147414083577
 20
-37.40115010506985
 30
0.0
  0
VERTEX
  5
DB6
  8
LAYER_1
 10
111.3342349682807
 20
-37.40850955761412
 30
0.0
  0
VERTEX
  5
DB7
  8
LAYER_1
 10
111.3534809535087
 20
-37.41625216147229
 30
0.0
  0
VERTEX
  5
DB8
  8
LAYER_1
 10
111.3724793640415
 20
-37.42437791664432
 30
0.0
  0
VERTEX
  5
DB9
  8
LAYER_1
 10
111.3912301998791
 20
-37.43288682313025
 30
0.0
  0
VERTEX
  5
DBA
  8
LAYER_1
 10
111.4097334610217
 20
-37.44177888093003
 30
0.0
  0
VERTEX
  5
DBB
  8
LAYER_1
 10
111.4279891474692
 20
-37.45105409004371
 30
0.0
  0
VERTEX
  5
DBC
  8
LAYER_1
 10
111.4459972592215
 20
-37.46071245047127
 30
0.0
  0
VERTEX
  5
DBD
  8
LAYER_1
 10
111.4637577962787
 20
-37.4707539622127
 30
0.0
  0
VERTEX
  5
DBE
  8
LAYER_1
 10
111.4812707586408
 20
-37.48117862526801
 30
0.0
  0
VERTEX
  5
DBF
  8
LAYER_1
 10
111.4985361463077
 20
-37.4919864396372
 30
0.0
  0
VERTEX
  5
DC0
  8
LAYER_1
 10
111.5155539592795
 20
-37.50317740532027
 30
0.0
  0
VERTEX
  5
DC1
  8
LAYER_1
 10
111.5323241975562
 20
-37.51475152231723
 30
0.0
  0
VERTEX
  5
DC2
  8
LAYER_1
 10
111.5488468611378
 20
-37.52670879062806
 30
0.0
  0
VERTEX
  5
DC3
  8
LAYER_1
 10
111.5651219500243
 20
-37.53904921025277
 30
0.0
  0
VERTEX
  5
DC4
  8
LAYER_1
 10
111.5811494642157
 20
-37.55177278119136
 30
0.0
  0
VERTEX
  5
DC5
  8
LAYER_1
 10
111.5969294037119
 20
-37.56487950344383
 30
0.0
  0
VERTEX
  5
DC6
  8
LAYER_1
 10
111.612461768513
 20
-37.57836937701018
 30
0.0
  0
VERTEX
  5
DC7
  8
LAYER_1
 10
111.627746558619
 20
-37.5922424018904
 30
0.0
  0
VERTEX
  5
DC8
  8
LAYER_1
 10
111.6427837740298
 20
-37.60649857808451
 30
0.0
  0
VERTEX
  5
DC9
  8
LAYER_1
 10
111.6575734147456
 20
-37.6211379055925
 30
0.0
  0
VERTEX
  5
DCA
  8
LAYER_1
 10
111.6721154807662
 20
-37.63616038441435
 30
0.0
  0
VERTEX
  5
DCB
  8
LAYER_1
 10
111.6864099720917
 20
-37.6515660145501
 30
0.0
  0
VERTEX
  5
DCC
  8
LAYER_1
 10
111.7004568887221
 20
-37.66735479599972
 30
0.0
  0
VERTEX
  5
DCD
  8
LAYER_1
 10
111.7142562306573
 20
-37.68352672876323
 30
0.0
  0
VERTEX
  5
DCE
  8
LAYER_1
 10
111.7278079978974
 20
-37.7000818128406
 30
0.0
  0
VERTEX
  5
DCF
  8
LAYER_1
 10
111.7411121904424
 20
-37.71702004823187
 30
0.0
  0
VERTEX
  5
DD0
  8
LAYER_1
 10
111.7541688082923
 20
-37.73434143493701
 30
0.0
  0
VERTEX
  5
DD1
  8
LAYER_1
 10
111.7669778514471
 20
-37.75204597295603
 30
0.0
  0
VERTEX
  5
DD2
  8
LAYER_1
 10
111.7795393199067
 20
-37.77013366228893
 30
0.0
  0
VERTEX
  5
DD3
  8
LAYER_1
 10
111.7918532136712
 20
-37.7886045029357
 30
0.0
  0
VERTEX
  5
DD4
  8
LAYER_1
 10
111.8039195327407
 20
-37.80745849489635
 30
0.0
  0
VERTEX
  5
DD5
  8
LAYER_1
 10
111.8157382771149
 20
-37.8266956381709
 30
0.0
  0
VERTEX
  5
DD6
  8
LAYER_1
 10
111.8272505004381
 20
-37.84626288103893
 30
0.0
  0
VERTEX
  5
DD7
  8
LAYER_1
 10
111.8383972563542
 20
-37.86610717178007
 30
0.0
  0
VERTEX
  5
DD8
  8
LAYER_1
 10
111.8491785448632
 20
-37.88622851039433
 30
0.0
  0
VERTEX
  5
DD9
  8
LAYER_1
 10
111.8595943659651
 20
-37.9066268968817
 30
0.0
  0
VERTEX
  5
DDA
  8
LAYER_1
 10
111.8696447196599
 20
-37.92730233124218
 30
0.0
  0
VERTEX
  5
DDB
  8
LAYER_1
 10
111.8793296059477
 20
-37.94825481347577
 30
0.0
  0
VERTEX
  5
DDC
  8
LAYER_1
 10
111.8886490248283
 20
-37.96948434358248
 30
0.0
  0
VERTEX
  5
DDD
  8
LAYER_1
 10
111.8976029763019
 20
-37.9909909215623
 30
0.0
  0
VERTEX
  5
DDE
  8
LAYER_1
 10
111.9061914603684
 20
-38.01277454741523
 30
0.0
  0
VERTEX
  5
DDF
  8
LAYER_1
 10
111.9144144770278
 20
-38.03483522114128
 30
0.0
  0
VERTEX
  5
DE0
  8
LAYER_1
 10
111.9222720262801
 20
-38.05717294274044
 30
0.0
  0
VERTEX
  5
DE1
  8
LAYER_1
 10
111.9297641081254
 20
-38.07978771221271
 30
0.0
  0
VERTEX
  5
DE2
  8
LAYER_1
 10
111.9368907225635
 20
-38.10267952955809
 30
0.0
  0
VERTEX
  5
DE3
  8
LAYER_1
 10
111.9436518695946
 20
-38.12584839477659
 30
0.0
  0
VERTEX
  5
DE4
  8
LAYER_1
 10
111.9500475492186
 20
-38.1492943078682
 30
0.0
  0
VERTEX
  5
DE5
  8
LAYER_1
 10
111.9560777614355
 20
-38.17301726883291
 30
0.0
  0
VERTEX
  5
DE6
  8
LAYER_1
 10
111.9617425062453
 20
-38.19701727767075
 30
0.0
  0
VERTEX
  5
DE7
  8
LAYER_1
 10
111.967041783648
 20
-38.22129433438169
 30
0.0
  0
VERTEX
  5
DE8
  8
LAYER_1
 10
111.9719755936436
 20
-38.24584843896575
 30
0.0
  0
VERTEX
  5
DE9
  8
LAYER_1
 10
111.9765439362322
 20
-38.27067959142292
 30
0.0
  0
VERTEX
  5
DEA
  8
LAYER_1
 10
111.9807468114137
 20
-38.2957877917532
 30
0.0
  0
VERTEX
  5
DEB
  8
LAYER_1
 10
111.9845842191881
 20
-38.3211730399566
 30
0.0
  0
VERTEX
  5
DEC
  8
LAYER_1
 10
111.9880561595554
 20
-38.34683533603311
 30
0.0
  0
VERTEX
  5
DED
  8
LAYER_1
 10
111.9911626325156
 20
-38.37277467998273
 30
0.0
  0
VERTEX
  5
DEE
  8
LAYER_1
 10
111.9939036380688
 20
-38.39899107180547
 30
0.0
  0
VERTEX
  5
DEF
  8
LAYER_1
 10
111.9962791762148
 20
-38.42548451150132
 30
0.0
  0
VERTEX
  5
DF0
  8
LAYER_1
 10
111.9982892469538
 20
-38.45225499907028
 30
0.0
  0
VERTEX
  5
DF1
  8
LAYER_1
 10
111.9999338502857
 20
-38.47930253451235
 30
0.0
  0
VERTEX
  5
DF2
  8
LAYER_1
 10
112.0012129862104
 20
-38.50662711782753
 30
0.0
  0
VERTEX
  5
DF3
  8
LAYER_1
 10
112.0021266547282
 20
-38.53422874901584
 30
0.0
  0
VERTEX
  5
DF4
  8
LAYER_1
 10
112.0026748558388
 20
-38.56210742807725
 30
0.0
  0
VERTEX
  5
DF5
  8
LAYER_1
 10
112.0028575895423
 20
-38.59026315501178
 30
0.0
  0
VERTEX
  5
DF6
  8
LAYER_1
 10
112.0025599104446
 20
-38.62739641196227
 30
0.0
  0
VERTEX
  5
DF7
  8
LAYER_1
 10
112.0016668731515
 20
-38.6640993605141
 30
0.0
  0
VERTEX
  5
DF8
  8
LAYER_1
 10
112.000178477663
 20
-38.70037200066727
 30
0.0
  0
VERTEX
  5
DF9
  8
LAYER_1
 10
111.998094723979
 20
-38.73621433242177
 30
0.0
  0
VERTEX
  5
DFA
  8
LAYER_1
 10
111.9954156120997
 20
-38.7716263557776
 30
0.0
  0
VERTEX
  5
DFB
  8
LAYER_1
 10
111.9921411420249
 20
-38.80660807073477
 30
0.0
  0
VERTEX
  5
DFC
  8
LAYER_1
 10
111.9882713137547
 20
-38.84115947729328
 30
0.0
  0
VERTEX
  5
DFD
  8
LAYER_1
 10
111.9838061272891
 20
-38.87528057545313
 30
0.0
  0
VERTEX
  5
DFE
  8
LAYER_1
 10
111.9787455826281
 20
-38.90897136521431
 30
0.0
  0
VERTEX
  5
DFF
  8
LAYER_1
 10
111.9730896797717
 20
-38.94223184657682
 30
0.0
  0
VERTEX
  5
E00
  8
LAYER_1
 10
111.9668384187199
 20
-38.97506201954067
 30
0.0
  0
VERTEX
  5
E01
  8
LAYER_1
 10
111.9599917994726
 20
-39.00746188410586
 30
0.0
  0
VERTEX
  5
E02
  8
LAYER_1
 10
111.95254982203
 20
-39.03943144027238
 30
0.0
  0
VERTEX
  5
E03
  8
LAYER_1
 10
111.9445124863919
 20
-39.07097068804023
 30
0.0
  0
VERTEX
  5
E04
  8
LAYER_1
 10
111.9358797925584
 20
-39.10207962740942
 30
0.0
  0
VERTEX
  5
E05
  8
LAYER_1
 10
111.9266517405296
 20
-39.13275825837995
 30
0.0
  0
VERTEX
  5
E06
  8
LAYER_1
 10
111.9168283303053
 20
-39.16300658095182
 30
0.0
  0
VERTEX
  5
E07
  8
LAYER_1
 10
111.9064095618855
 20
-39.19282459512502
 30
0.0
  0
VERTEX
  5
E08
  8
LAYER_1
 10
111.8953954352704
 20
-39.22221230089956
 30
0.0
  0
VERTEX
  5
E09
  8
LAYER_1
 10
111.8837859504599
 20
-39.25116969827543
 30
0.0
  0
VERTEX
  5
E0A
  8
LAYER_1
 10
111.8715811074539
 20
-39.27969678725263
 30
0.0
  0
VERTEX
  5
E0B
  8
LAYER_1
 10
111.8587809062525
 20
-39.30779356783118
 30
0.0
  0
VERTEX
  5
E0C
  8
LAYER_1
 10
111.8453853468558
 20
-39.33546004001106
 30
0.0
  0
VERTEX
  5
E0D
  8
LAYER_1
 10
111.8313944292636
 20
-39.36269620379227
 30
0.0
  0
VERTEX
  5
E0E
  8
LAYER_1
 10
111.816808153476
 20
-39.38950205917482
 30
0.0
  0
VERTEX
  5
E0F
  8
LAYER_1
 10
111.8016265194929
 20
-39.4158776061587
 30
0.0
  0
VERTEX
  5
E10
  8
LAYER_1
 10
111.7858495273145
 20
-39.44182284474392
 30
0.0
  0
VERTEX
  5
E11
  8
LAYER_1
 10
111.7694771769407
 20
-39.46733777493048
 30
0.0
  0
VERTEX
  5
E12
  8
LAYER_1
 10
111.7525094683714
 20
-39.49242239671837
 30
0.0
  0
VERTEX
  5
E13
  8
LAYER_1
 10
111.7349464016068
 20
-39.5170767101076
 30
0.0
  0
VERTEX
  5
E14
  8
LAYER_1
 10
111.7167879766467
 20
-39.54130071509816
 30
0.0
  0
VERTEX
  5
E15
  8
LAYER_1
 10
111.6980341934912
 20
-39.56509441169005
 30
0.0
  0
VERTEX
  5
E16
  8
LAYER_1
 10
111.6785494755216
 20
-39.58830453935774
 30
0.0
  0
VERTEX
  5
E17
  8
LAYER_1
 10
111.658198246119
 20
-39.61077783757566
 30
0.0
  0
VERTEX
  5
E18
  8
LAYER_1
 10
111.6369805052835
 20
-39.63251430634381
 30
0.0
  0
VERTEX
  5
E19
  8
LAYER_1
 10
111.614896253015
 20
-39.65351394566218
 30
0.0
  0
VERTEX
  5
E1A
  8
LAYER_1
 10
111.5919454893137
 20
-39.6737767555308
 30
0.0
  0
VERTEX
  5
E1B
  8
LAYER_1
 10
111.5681282141794
 20
-39.69330273594964
 30
0.0
  0
VERTEX
  5
E1C
  8
LAYER_1
 10
111.5434444276122
 20
-39.71209188691871
 30
0.0
  0
VERTEX
  5
E1D
  8
LAYER_1
 10
111.517894129612
 20
-39.73014420843803
 30
0.0
  0
VERTEX
  5
E1E
  8
LAYER_1
 10
111.4914773201789
 20
-39.74745970050757
 30
0.0
  0
VERTEX
  5
E1F
  8
LAYER_1
 10
111.4641939993129
 20
-39.76403836312734
 30
0.0
  0
VERTEX
  5
E20
  8
LAYER_1
 10
111.436044167014
 20
-39.77988019629734
 30
0.0
  0
VERTEX
  5
E21
  8
LAYER_1
 10
111.4070278232822
 20
-39.79498520001758
 30
0.0
  0
VERTEX
  5
E22
  8
LAYER_1
 10
111.3771449681174
 20
-39.80935337428805
 30
0.0
  0
VERTEX
  5
E23
  8
LAYER_1
 10
111.3463956015197
 20
-39.82298471910876
 30
0.0
  0
VERTEX
  5
E24
  8
LAYER_1
 10
111.3147797234891
 20
-39.83587923447969
 30
0.0
  0
VERTEX
  5
E25
  8
LAYER_1
 10
111.2822973340255
 20
-39.84803692040086
 30
0.0
  0
VERTEX
  5
E26
  8
LAYER_1
 10
111.248948433129
 20
-39.85945777687226
 30
0.0
  0
VERTEX
  5
E27
  8
LAYER_1
 10
111.2147330207996
 20
-39.87014180389389
 30
0.0
  0
VERTEX
  5
E28
  8
LAYER_1
 10
111.1796510970372
 20
-39.88008900146576
 30
0.0
  0
VERTEX
  5
E29
  8
LAYER_1
 10
111.143702661842
 20
-39.88929936958785
 30
0.0
  0
VERTEX
  5
E2A
  8
LAYER_1
 10
111.1068877152138
 20
-39.89777290826017
 30
0.0
  0
VERTEX
  5
E2B
  8
LAYER_1
 10
111.0692062571526
 20
-39.90550961748274
 30
0.0
  0
VERTEX
  5
E2C
  8
LAYER_1
 10
111.0306582876586
 20
-39.91250949725553
 30
0.0
  0
VERTEX
  5
E2D
  8
LAYER_1
 10
110.9912438067316
 20
-39.91877254757856
 30
0.0
  0
VERTEX
  5
E2E
  8
LAYER_1
 10
110.9509628143717
 20
-39.92429876845181
 30
0.0
  0
VERTEX
  5
E2F
  8
LAYER_1
 10
110.9098153105789
 20
-39.92908815987531
 30
0.0
  0
VERTEX
  5
E30
  8
LAYER_1
 10
110.8678012953532
 20
-39.93314072184903
 30
0.0
  0
VERTEX
  5
E31
  8
LAYER_1
 10
110.8249207686945
 20
-39.93645645437298
 30
0.0
  0
VERTEX
  5
E32
  8
LAYER_1
 10
110.7811737306029
 20
-39.93903535744717
 30
0.0
  0
VERTEX
  5
E33
  8
LAYER_1
 10
110.7365601810783
 20
-39.94087743107159
 30
0.0
  0
VERTEX
  5
E34
  8
LAYER_1
 10
110.6910801201209
 20
-39.94198267524624
 30
0.0
  0
VERTEX
  5
E35
  8
LAYER_1
 10
110.6447335477305
 20
-39.94235108997113
 30
0.0
  0
VERTEX
  5
E36
  8
LAYER_1
 10
109.7151730924459
 20
-39.94235108997113
 30
0.0
  0
VERTEX
  5
E37
  8
LAYER_1
 10
109.7151730924459
 20
-41.74111093201526
 30
0.0
  0
SEQEND
  5
F72
  8
LAYER_1
  0
POLYLINE
  5
F2
  8
LAYER_1
 66
     1
 10
0.0
 20
0.0
 30
0.0
 70
     1
  0
VERTEX
  5
E38
  8
LAYER_1
 10
109.7151730924459
 20
-39.42022784723013
 30
0.0
  0
VERTEX
  5
E39
  8
LAYER_1
 10
110.6537877080092
 20
-39.42022784723013
 30
0.0
  0
VERTEX
  5
E3A
  8
LAYER_1
 10
110.6812832357568
 20
-39.42003185059649
 30
0.0
  0
VERTEX
  5
E3B
  8
LAYER_1
 10
110.708313087292
 20
-39.41944386069558
 30
0.0
  0
VERTEX
  5
E3C
  8
LAYER_1
 10
110.7348772626151
 20
-39.41846387752739
 30
0.0
  0
VERTEX
  5
E3D
  8
LAYER_1
 10
110.7609757617258
 20
-39.41709190109192
 30
0.0
  0
VERTEX
  5
E3E
  8
LAYER_1
 10
110.7866085846243
 20
-39.41532793138918
 30
0.0
  0
VERTEX
  5
E3F
  8
LAYER_1
 10
110.8117757313106
 20
-39.41317196841916
 30
0.0
  0
VERTEX
  5
E40
  8
LAYER_1
 10
110.8364772017846
 20
-39.41062401218186
 30
0.0
  0
VERTEX
  5
E41
  8
LAYER_1
 10
110.8607129960464
 20
-39.40768406267729
 30
0.0
  0
VERTEX
  5
E42
  8
LAYER_1
 10
110.8844831140959
 20
-39.40435211990544
 30
0.0
  0
VERTEX
  5
E43
  8
LAYER_1
 10
110.9077875559331
 20
-39.40062818386632
 30
0.0
  0
VERTEX
  5
E44
  8
LAYER_1
 10
110.9306263215582
 20
-39.39651225455992
 30
0.0
  0
VERTEX
  5
E45
  8
LAYER_1
 10
110.9529994109709
 20
-39.39200433198624
 30
0.0
  0
VERTEX
  5
E46
  8
LAYER_1
 10
110.9749068241714
 20
-39.38710441614528
 30
0.0
  0
VERTEX
  5
E47
  8
LAYER_1
 10
110.9963485611596
 20
-39.38181250703705
 30
0.0
  0
VERTEX
  5
E48
  8
LAYER_1
 10
111.0173246219356
 20
-39.37612860466154
 30
0.0
  0
VERTEX
  5
E49
  8
LAYER_1
 10
111.0378350064993
 20
-39.37005270901875
 30
0.0
  0
VERTEX
  5
E4A
  8
LAYER_1
 10
111.0578797148508
 20
-39.36358482010869
 30
0.0
  0
VERTEX
  5
E4B
  8
LAYER_1
 10
111.0774587469901
 20
-39.35672493793135
 30
0.0
  0
VERTEX
  5
E4C
  8
LAYER_1
 10
111.096572102917
 20
-39.34947306248674
 30
0.0
  0
VERTEX
  5
E4D
  8
LAYER_1
 10
111.1152197826318
 20
-39.34182919377485
 30
0.0
  0
VERTEX
  5
E4E
  8
LAYER_1
 10
111.1334017861342
 20
-39.33379333179568
 30
0.0
  0
VERTEX
  5
E4F
  8
LAYER_1
 10
111.1511181134244
 20
-39.32536547654924
 30
0.0
  0
VERTEX
  5
E50
  8
LAYER_1
 10
111.1683687645024
 20
-39.31654562803551
 30
0.0
  0
VERTEX
  5
E51
  8
LAYER_1
 10
111.1851537393681
 20
-39.30733378625452
 30
0.0
  0
VERTEX
  5
E52
  8
LAYER_1
 10
111.2014730380216
 20
-39.29772995120624
 30
0.0
  0
VERTEX
  5
E53
  8
LAYER_1
 10
111.2173266604628
 20
-39.2877341228907
 30
0.0
  0
VERTEX
  5
E54
  8
LAYER_1
 10
111.2327146066917
 20
-39.27734630130787
 30
0.0
  0
VERTEX
  5
E55
  8
LAYER_1
 10
111.2476368767084
 20
-39.26656648645777
 30
0.0
  0
VERTEX
  5
E56
  8
LAYER_1
 10
111.2620934705129
 20
-39.25539467834039
 30
0.0
  0
VERTEX
  5
E57
  8
LAYER_1
 10
111.276084388105
 20
-39.24383087695573
 30
0.0
  0
VERTEX
  5
E58
  8
LAYER_1
 10
111.289609629485
 20
-39.2318750823038
 30
0.0
  0
VERTEX
  5
E59
  8
LAYER_1
 10
111.3026691946527
 20
-39.2195272943846
 30
0.0
  0
VERTEX
  5
E5A
  8
LAYER_1
 10
111.3152955041039
 20
-39.20678456588032
 30
0.0
  0
VERTEX
  5
E5B
  8
LAYER_1
 10
111.3275209783344
 20
-39.19364394947316
 30
0.0
  0
VERTEX
  5
E5C
  8
LAYER_1
 10
111.3393456173443
 20
-39.18010544516312
 30
0.0
  0
VERTEX
  5
E5D
  8
LAYER_1
 10
111.3507694211335
 20
-39.16616905295022
 30
0.0
  0
VERTEX
  5
E5E
  8
LAYER_1
 10
111.361792389702
 20
-39.15183477283443
 30
0.0
  0
VERTEX
  5
E5F
  8
LAYER_1
 10
111.3724145230499
 20
-39.13710260481578
 30
0.0
  0
VERTEX
  5
E60
  8
LAYER_1
 10
111.382635821177
 20
-39.12197254889425
 30
0.0
  0
VERTEX
  5
E61
  8
LAYER_1
 10
111.3924562840836
 20
-39.10644460506985
 30
0.0
  0
VERTEX
  5
E62
  8
LAYER_1
 10
111.4018759117694
 20
-39.09051877334257
 30
0.0
  0
VERTEX
  5
E63
  8
LAYER_1
 10
111.4108947042346
 20
-39.07419505371242
 30
0.0
  0
VERTEX
  5
E64
  8
LAYER_1
 10
111.419512661479
 20
-39.05747344617938
 30
0.0
  0
VERTEX
  5
E65
  8
LAYER_1
 10
111.4277297835028
 20
-39.04035395074348
 30
0.0
  0
VERTEX
  5
E66
  8
LAYER_1
 10
111.435546070306
 20
-39.0228365674047
 30
0.0
  0
VERTEX
  5
E67
  8
LAYER_1
 10
111.4429615218884
 20
-39.00492129616305
 30
0.0
  0
VERTEX
  5
E68
  8
LAYER_1
 10
111.4499761382502
 20
-38.98660813701852
 30
0.0
  0
VERTEX
  5
E69
  8
LAYER_1
 10
111.4565899193913
 20
-38.96789708997112
 30
0.0
  0
VERTEX
  5
E6A
  8
LAYER_1
 10
111.4628028653118
 20
-38.94878815502085
 30
0.0
  0
VERTEX
  5
E6B
  8
LAYER_1
 10
111.4686149760116
 20
-38.9292813321677
 30
0.0
  0
VERTEX
  5
E6C
  8
LAYER_1
 10
111.4740262514906
 20
-38.90937662141167
 30
0.0
  0
VERTEX
  5
E6D
  8
LAYER_1
 10
111.4790366917491
 20
-38.88907402275277
 30
0.0
  0
VERTEX
  5
E6E
  8
LAYER_1
 10
111.4836462967868
 20
-38.86837353619099
 30
0.0
  0
VERTEX
  5
E6F
  8
LAYER_1
 10
111.4878550666039
 20
-38.84727516172634
 30
0.0
  0
VERTEX
  5
E70
  8
LAYER_1
 10
111.4916630012003
 20
-38.82577889935882
 30
0.0
  0
VERTEX
  5
E71
  8
LAYER_1
 10
111.495070100576
 20
-38.80388474908843
 30
0.0
  0
VERTEX
  5
E72
  8
LAYER_1
 10
111.4980763647311
 20
-38.78159271091515
 30
0.0
  0
VERTEX
  5
E73
  8
LAYER_1
 10
111.5006817936654
 20
-38.75890278483901
 30
0.0
  0
VERTEX
  5
E74
  8
LAYER_1
 10
111.5028863873791
 20
-38.73581497085998
 30
0.0
  0
VERTEX
  5
E75
  8
LAYER_1
 10
111.5046901458722
 20
-38.71232926897808
 30
0.0
  0
VERTEX
  5
E76
  8
LAYER_1
 10
111.5060930691445
 20
-38.68844567919331
 30
0.0
  0
VERTEX
  5
E77
  8
LAYER_1
 10
111.5070951571962
 20
-38.66416420150567
 30
0.0
  0
VERTEX
  5
E78
  8
LAYER_1
 10
111.5076964100272
 20
-38.63948483591516
 30
0.0
  0
VERTEX
  5
E79
  8
LAYER_1
 10
111.5078968276376
 20
-38.61440758242176
 30
0.0
  0
VERTEX
  5
E7A
  8
LAYER_1
 10
111.5075018870525
 20
-38.58188098319122
 30
0.0
  0
VERTEX
  5
E7B
  8
LAYER_1
 10
111.5063170652973
 20
-38.54994384752049
 30
0.0
  0
VERTEX
  5
E7C
  8
LAYER_1
 10
111.5043423623719
 20
-38.51859617540957
 30
0.0
  0
VERTEX
  5
E7D
  8
LAYER_1
 10
111.5015777782764
 20
-38.48783796685846
 30
0.0
  0
VERTEX
  5
E7E
  8
LAYER_1
 10
111.4980233130107
 20
-38.45766922186718
 30
0.0
  0
VERTEX
  5
E7F
  8
LAYER_1
 10
111.4936789665749
 20
-38.4280899404357
 30
0.0
  0
VERTEX
  5
E80
  8
LAYER_1
 10
111.4885447389689
 20
-38.39910012256404
 30
0.0
  0
VERTEX
  5
E81
  8
LAYER_1
 10
111.4826206301927
 20
-38.37069976825219
 30
0.0
  0
VERTEX
  5
E82
  8
LAYER_1
 10
111.4759066402464
 20
-38.34288887750017
 30
0.0
  0
VERTEX
  5
E83
  8
LAYER_1
 10
111.46840276913
 20
-38.31566745030795
 30
0.0
  0
VERTEX
  5
E84
  8
LAYER_1
 10
111.4601090168434
 20
-38.28903548667554
 30
0.0
  0
VERTEX
  5
E85
  8
LAYER_1
 10
111.4510253833867
 20
-38.26299298660295
 30
0.0
  0
VERTEX
  5
E86
  8
LAYER_1
 10
111.4411518687598
 20
-38.23753995009018
 30
0.0
  0
VERTEX
  5
E87
  8
LAYER_1
 10
111.4304884729628
 20
-38.21267637713722
 30
0.0
  0
VERTEX
  5
E88
  8
LAYER_1
 10
111.4190351959956
 20
-38.18840226774407
 30
0.0
  0
VERTEX
  5
E89
  8
LAYER_1
 10
111.4067920378582
 20
-38.16471762191073
 30
0.0
  0
VERTEX
  5
E8A
  8
LAYER_1
 10
111.3939888893391
 20
-38.14178748943395
 30
0.0
  0
VERTEX
  5
E8B
  8
LAYER_1
 10
111.3808556412264
 20
-38.11977692011049
 30
0.0
  0
VERTEX
  5
E8C
  8
LAYER_1
 10
111.3673922935203
 20
-38.09868591394034
 30
0.0
  0
VERTEX
  5
E8D
  8
LAYER_1
 10
111.3535988462206
 20
-38.0785144709235
 30
0.0
  0
VERTEX
  5
E8E
  8
LAYER_1
 10
111.3394752993275
 20
-38.05926259105998
 30
0.0
  0
VERTEX
  5
E8F
  8
LAYER_1
 10
111.3250216528408
 20
-38.04093027434975
 30
0.0
  0
VERTEX
  5
E90
  8
LAYER_1
 10
111.3102379067607
 20
-38.02351752079284
 30
0.0
  0
VERTEX
  5
E91
  8
LAYER_1
 10
111.295124061087
 20
-38.00702433038924
 30
0.0
  0
VERTEX
  5
E92
  8
LAYER_1
 10
111.2796801158199
 20
-37.99145070313895
 30
0.0
  0
VERTEX
  5
E93
  8
LAYER_1
 10
111.2639060709593
 20
-37.97679663904196
 30
0.0
  0
VERTEX
  5
E94
  8
LAYER_1
 10
111.2478019265052
 20
-37.96306213809829
 30
0.0
  0
VERTEX
  5
E95
  8
LAYER_1
 10
111.2313676824575
 20
-37.95024720030794
 30
0.0
  0
VERTEX
  5
E96
  8
LAYER_1
 10
111.2146033388164
 20
-37.93835182567089
 30
0.0
  0
VERTEX
  5
E97
  8
LAYER_1
 10
111.1975088955818
 20
-37.92737601418715
 30
0.0
  0
VERTEX
  5
E98
  8
LAYER_1
 10
111.1800843527537
 20
-37.91731976585672
 30
0.0
  0
VERTEX
  5
E99
  8
LAYER_1
 10
111.1623297103321
 20
-37.90818308067961
 30
0.0
  0
VERTEX
  5
E9A
  8
LAYER_1
 10
111.1531443944113
 20
-37.90391241718875
 30
0.0
  0
VERTEX
  5
E9B
  8
LAYER_1
 10
111.1435081388672
 20
-37.89977733031665
 30
0.0
  0
VERTEX
  5
E9C
  8
LAYER_1
 10
111.1228828089093
 20
-37.89191388642874
 30
0.0
  0
VERTEX
  5
E9D
  8
LAYER_1
 10
111.1004537204584
 20
-37.88459274901584
 30
0.0
  0
VERTEX
  5
E9E
  8
LAYER_1
 10
111.0762208735144
 20
-37.87781391807798
 30
0.0
  0
VERTEX
  5
E9F
  8
LAYER_1
 10
111.0501842680775
 20
-37.87157739361514
 30
0.0
  0
VERTEX
  5
EA0
  8
LAYER_1
 10
111.0223439041474
 20
-37.86588317562735
 30
0.0
  0
VERTEX
  5
EA1
  8
LAYER_1
 10
110.9926997817244
 20
-37.86073126411456
 30
0.0
  0
VERTEX
  5
EA2
  8
LAYER_1
 10
110.9612519008083
 20
-37.85612165907682
 30
0.0
  0
VERTEX
  5
EA3
  8
LAYER_1
 10
110.9280002613992
 20
-37.8520543605141
 30
0.0
  0
VERTEX
  5
EA4
  8
LAYER_1
 10
110.892944863497
 20
-37.84852936842641
 30
0.0
  0
VERTEX
  5
EA5
  8
LAYER_1
 10
110.8560857071018
 20
-37.84554668281375
 30
0.0
  0
VERTEX
  5
EA6
  8
LAYER_1
 10
110.8174227922136
 20
-37.84310630367612
 30
0.0
  0
VERTEX
  5
EA7
  8
LAYER_1
 10
110.7769561188324
 20
-37.84120823101351
 30
0.0
  0
VERTEX
  5
EA8
  8
LAYER_1
 10
110.7346856869581
 20
-37.83985246482595
 30
0.0
  0
VERTEX
  5
EA9
  8
LAYER_1
 10
110.6906114965908
 20
-37.8390390051134
 30
0.0
  0
VERTEX
  5
EAA
  8
LAYER_1
 10
110.6447335477305
 20
-37.83876785187589
 30
0.0
  0
VERTEX
  5
EAB
  8
LAYER_1
 10
109.7151730924459
 20
-37.83876785187589
 30
0.0
  0
SEQEND
  5
F73
  8
LAYER_1
  0
POLYLINE
  5
F3
  8
LAYER_1
 66
     1
 10
0.0
 20
0.0
 30
0.0
 70
     1
  0
VERTEX
  5
EAC
  8
LAYER_1
 10
112.5883599542345
 20
-41.74111093201526
 30
0.0
  0
VERTEX
  5
EAD
  8
LAYER_1
 10
112.5883599542345
 20
-37.31664460913489
 30
0.0
  0
VERTEX
  5
EAE
  8
LAYER_1
 10
113.0682304490081
 20
-37.31664460913489
 30
0.0
  0
VERTEX
  5
EAF
  8
LAYER_1
 10
113.0682304490081
 20
-41.21898768927426
 30
0.0
  0
VERTEX
  5
EB0
  8
LAYER_1
 10
114.8549180773472
 20
-41.21898768927426
 30
0.0
  0
VERTEX
  5
EB1
  8
LAYER_1
 10
114.8549180773472
 20
-41.74111093201526
 30
0.0
  0
SEQEND
  5
F74
  8
LAYER_1
  0
POLYLINE
  5
F4
  8
LAYER_1
 66
     1
 10
0.0
 20
0.0
 30
0.0
 70
     1
  0
VERTEX
  5
EB2
  8
LAYER_1
 10
115.0390193363484
 20
-41.74111093201526
 30
0.0
  0
VERTEX
  5
EB3
  8
LAYER_1
 10
116.4382643560929
 20
-37.31664460913489
 30
0.0
  0
VERTEX
  5
EB4
  8
LAYER_1
 10
116.9515220668942
 20
-37.31664460913489
 30
0.0
  0
VERTEX
  5
EB5
  8
LAYER_1
 10
118.4373474943042
 20
-41.74111093201526
 30
0.0
  0
VERTEX
  5
EB6
  8
LAYER_1
 10
117.8880146136422
 20
-41.74111093201526
 30
0.0
  0
VERTEX
  5
EB7
  8
LAYER_1
 10
117.4660058619001
 20
-40.40109521076091
 30
0.0
  0
VERTEX
  5
EB8
  8
LAYER_1
 10
115.9396253415749
 20
-40.40109521076091
 30
0.0
  0
VERTEX
  5
EB9
  8
LAYER_1
 10
115.5452506415168
 20
-41.74111093201526
 30
0.0
  0
SEQEND
  5
F75
  8
LAYER_1
  0
POLYLINE
  5
F5
  8
LAYER_1
 66
     1
 10
0.0
 20
0.0
 30
0.0
 70
     1
  0
VERTEX
  5
EBA
  8
LAYER_1
 10
116.0799648258954
 20
-39.92424276941364
 30
0.0
  0
VERTEX
  5
EBB
  8
LAYER_1
 10
117.3158577039442
 20
-39.92424276941364
 30
0.0
  0
VERTEX
  5
EBC
  8
LAYER_1
 10
116.9387896540023
 20
-38.69891307835672
 30
0.0
  0
VERTEX
  5
EBD
  8
LAYER_1
 10
116.8965015382212
 20
-38.56112007661457
 30
0.0
  0
VERTEX
  5
EBE
  8
LAYER_1
 10
116.8571371616968
 20
-38.42992906674233
 30
0.0
  0
VERTEX
  5
EBF
  8
LAYER_1
 10
116.8206965244291
 20
-38.30534004874
 30
0.0
  0
VERTEX
  5
EC0
  8
LAYER_1
 10
116.7871796264181
 20
-38.1873530226076
 30
0.0
  0
VERTEX
  5
EC1
  8
LAYER_1
 10
116.7565864676637
 20
-38.07596798834511
 30
0.0
  0
VERTEX
  5
EC2
  8
LAYER_1
 10
116.728917048166
 20
-37.97118494595254
 30
0.0
  0
VERTEX
  5
EC3
  8
LAYER_1
 10
116.7161787406384
 20
-37.92126917170748
 30
0.0
  0
VERTEX
  5
EC4
  8
LAYER_1
 10
116.704171367925
 20
-37.87300389542989
 30
0.0
  0
VERTEX
  5
EC5
  8
LAYER_1
 10
116.6928949300258
 20
-37.82638911711979
 30
0.0
  0
VERTEX
  5
EC6
  8
LAYER_1
 10
116.6823494269407
 20
-37.78142483677716
 30
0.0
  0
VERTEX
  5
EC7
  8
LAYER_1
 10
116.673333397586
 20
-37.83459444987241
 30
0.0
  0
VERTEX
  5
EC8
  8
LAYER_1
 10
116.6638631128755
 20
-37.88771690588285
 30
0.0
  0
VERTEX
  5
EC9
  8
LAYER_1
 10
116.6539385728092
 20
-37.94079220480852
 30
0.0
  0
VERTEX
  5
ECA
  8
LAYER_1
 10
116.6435597773871
 20
-37.9938203466494
 30
0.0
  0
VERTEX
  5
ECB
  8
LAYER_1
 10
116.6327267266093
 20
-38.0468013314055
 30
0.0
  0
VERTEX
  5
ECC
  8
LAYER_1
 10
116.6214394204757
 20
-38.09973515907681
 30
0.0
  0
VERTEX
  5
ECD
  8
LAYER_1
 10
116.6096978589863
 20
-38.15262182966335
 30
0.0
  0
VERTEX
  5
ECE
  8
LAYER_1
 10
116.5975020421411
 20
-38.20546134316508
 30
0.0
  0
VERTEX
  5
ECF
  8
LAYER_1
 10
116.5848519699401
 20
-38.25825369958204
 30
0.0
  0
VERTEX
  5
ED0
  8
LAYER_1
 10
116.5717476423833
 20
-38.31099889891421
 30
0.0
  0
VERTEX
  5
ED1
  8
LAYER_1
 10
116.5581890594708
 20
-38.36369694116161
 30
0.0
  0
VERTEX
  5
ED2
  8
LAYER_1
 10
116.5441762212025
 20
-38.4163478263242
 30
0.0
  0
VERTEX
  5
ED3
  8
LAYER_1
 10
116.5297091275784
 20
-38.46895155440203
 30
0.0
  0
VERTEX
  5
ED4
  8
LAYER_1
 10
116.5147877785985
 20
-38.52150812539504
 30
0.0
  0
VERTEX
  5
ED5
  8
LAYER_1
 10
116.4994121742628
 20
-38.5740175393033
 30
0.0
  0
VERTEX
  5
ED6
  8
LAYER_1
 10
116.4835823145714
 20
-38.62647979612676
 30
0.0
  0
SEQEND
  5
F76
  8
LAYER_1
  0
POLYLINE
  5
F6
  8
LAYER_1
 66
     1
 10
0.0
 20
0.0
 30
0.0
 70
     1
  0
VERTEX
  5
ED7
  8
LAYER_1
 10
119.3759621098675
 20
-41.74111093201526
 30
0.0
  0
VERTEX
  5
ED8
  8
LAYER_1
 10
119.3759621098675
 20
-37.83876785187589
 30
0.0
  0
VERTEX
  5
ED9
  8
LAYER_1
 10
118.1808129530731
 20
-37.83876785187589
 30
0.0
  0
VERTEX
  5
EDA
  8
LAYER_1
 10
118.1808129530731
 20
-37.31664460913489
 30
0.0
  0
VERTEX
  5
EDB
  8
LAYER_1
 10
121.057017868288
 20
-37.31664460913489
 30
0.0
  0
VERTEX
  5
EDC
  8
LAYER_1
 10
121.057017868288
 20
-37.83876785187589
 30
0.0
  0
VERTEX
  5
EDD
  8
LAYER_1
 10
119.8558326046411
 20
-37.83876785187589
 30
0.0
  0
VERTEX
  5
EDE
  8
LAYER_1
 10
119.8558326046411
 20
-41.74111093201526
 30
0.0
  0
SEQEND
  5
F77
  8
LAYER_1
  0
POLYLINE
  5
F7
  8
LAYER_1
 66
     1
 10
0.0
 20
0.0
 30
0.0
 70
     1
  0
VERTEX
  5
EDF
  8
LAYER_1
 10
121.5519786301927
 20
-41.74111093201526
 30
0.0
  0
VERTEX
  5
EE0
  8
LAYER_1
 10
121.5519786301927
 20
-37.31664460913489
 30
0.0
  0
VERTEX
  5
EE1
  8
LAYER_1
 10
124.1746670576027
 20
-37.31664460913489
 30
0.0
  0
VERTEX
  5
EE2
  8
LAYER_1
 10
124.1746670576027
 20
-37.83876785187589
 30
0.0
  0
VERTEX
  5
EE3
  8
LAYER_1
 10
122.0318491249663
 20
-37.83876785187589
 30
0.0
  0
VERTEX
  5
EE4
  8
LAYER_1
 10
122.0318491249663
 20
-39.19085578683524
 30
0.0
  0
VERTEX
  5
EE5
  8
LAYER_1
 10
124.0388546534215
 20
-39.19085578683524
 30
0.0
  0
VERTEX
  5
EE6
  8
LAYER_1
 10
124.0388546534215
 20
-39.71297902957624
 30
0.0
  0
VERTEX
  5
EE7
  8
LAYER_1
 10
122.0318491249663
 20
-39.71297902957624
 30
0.0
  0
VERTEX
  5
EE8
  8
LAYER_1
 10
122.0318491249663
 20
-41.21898768927426
 30
0.0
  0
VERTEX
  5
EE9
  8
LAYER_1
 10
124.2591725535377
 20
-41.21898768927426
 30
0.0
  0
VERTEX
  5
EEA
  8
LAYER_1
 10
124.2591725535377
 20
-41.74111093201526
 30
0.0
  0
SEQEND
  5
F78
  8
LAYER_1
  0
ENDSEC
  0
EOF
