  0
SECTION
  2
HEADER
  9
$ACADVER
  1
AC1009
  9
$DWGCODEPAGE
  3
ansi_1252
  9
$INSBASE
 10
0.0
 20
0.0
 30
0.0
  9
$EXTMIN
 10
0.0
 20
-33.80781152221527
 30
0.0
  9
$EXTMAX
 10
147.6507344964511
 20
48.0
 30
0.0
  9
$LIMMIN
 10
0.0
 20
0.0
  9
$LIMMAX
 10
12.0
 20
9.0
  9
$ORTHOMODE
 70
     0
  9
$REGENMODE
 70
     1
  9
$FILLMODE
 70
     1
  9
$QTEXTMODE
 70
     0
  9
$MIRRTEXT
 70
     1
  9
$DRAGMODE
 70
     2
  9
$LTSCALE
 40
1.0
  9
$OSMODE
 70
    37
  9
$ATTMODE
 70
     1
  9
$TEXTSIZE
 40
0.2
  9
$TRACEWID
 40
0.05
  9
$TEXTSTYLE
  7
STANDARD
  9
$CLAYER
  8
0
  9
$CELTYPE
  6
BYLAYER
  9
$CECOLOR
 62
   256
  9
$DIMSCALE
 40
1.0
  9
$DIMASZ
 40
0.18
  9
$DIMEXO
 40
0.0625
  9
$DIMDLI
 40
0.38
  9
$DIMRND
 40
0.0
  9
$DIMDLE
 40
0.0
  9
$DIMEXE
 40
0.18
  9
$DIMTP
 40
0.0
  9
$DIMTM
 40
0.0
  9
$DIMTXT
 40
0.18
  9
$DIMCEN
 40
0.09
  9
$DIMTSZ
 40
0.0
  9
$DIMTOL
 70
     0
  9
$DIMLIM
 70
     0
  9
$DIMTIH
 70
     1
  9
$DIMTOH
 70
     1
  9
$DIMSE1
 70
     0
  9
$DIMSE2
 70
     0
  9
$DIMTAD
 70
     0
  9
$DIMZIN
 70
     0
  9
$DIMBLK
  1

  9
$DIMASO
 70
     1
  9
$DIMSHO
 70
     1
  9
$DIMPOST
  1

  9
$DIMAPOST
  1

  9
$DIMALT
 70
     0
  9
$DIMALTD
 70
     2
  9
$DIMALTF
 40
25.4
  9
$DIMLFAC
 40
1.0
  9
$DIMTOFL
 70
     0
  9
$DIMTVP
 40
0.0
  9
$DIMTIX
 70
     0
  9
$DIMSOXD
 70
     0
  9
$DIMSAH
 70
     0
  9
$DIMBLK1
  1

  9
$DIMBLK2
  1

  9
$DIMSTYLE
  2
STANDARD
  9
$DIMCLRD
 70
     0
  9
$DIMCLRE
 70
     0
  9
$DIMCLRT
 70
     0
  9
$DIMTFAC
 40
1.0
  9
$DIMGAP
 40
0.09
  9
$LUNITS
 70
     2
  9
$LUPREC
 70
     4
  9
$SKETCHINC
 40
0.1
  9
$FILLETRAD
 40
0.5
  9
$AUNITS
 70
     0
  9
$AUPREC
 70
     0
  9
$MENU
  1
.
  9
$ELEVATION
 40
0.0
  9
$PELEVATION
 40
0.0
  9
$THICKNESS
 40
0.0
  9
$LIMCHECK
 70
     0
  9
$CHAMFERA
 40
0.0
  9
$CHAMFERB
 40
0.0
  9
$SKPOLY
 70
     0
  9
$TDCREATE
 40
2454910.5
  9
$TDUPDATE
 40
2457556.564184085
  9
$TDINDWG
 40
0.0000000116
  9
$TDUSRTIMER
 40
0.0000000116
  9
$USRTIMER
 70
     1
  9
$ANGBASE
 50
0.0
  9
$ANGDIR
 70
     0
  9
$PDMODE
 70
     0
  9
$PDSIZE
 40
0.0
  9
$PLINEWID
 40
0.0
  9
$COORDS
 70
     1
  9
$SPLFRAME
 70
     0
  9
$SPLINETYPE
 70
     6
  9
$SPLINESEGS
 70
     8
  9
$ATTDIA
 70
     0
  9
$ATTREQ
 70
     1
  9
$HANDLING
 70
     1
  9
$HANDSEED
  5
849
  9
$SURFTAB1
 70
     6
  9
$SURFTAB2
 70
     6
  9
$SURFTYPE
 70
     6
  9
$SURFU
 70
     6
  9
$SURFV
 70
     6
  9
$UCSNAME
  2

  9
$UCSORG
 10
0.0
 20
0.0
 30
0.0
  9
$UCSXDIR
 10
1.0
 20
0.0
 30
0.0
  9
$UCSYDIR
 10
0.0
 20
1.0
 30
0.0
  9
$PUCSNAME
  2

  9
$PUCSORG
 10
0.0
 20
0.0
 30
0.0
  9
$PUCSXDIR
 10
1.0
 20
0.0
 30
0.0
  9
$PUCSYDIR
 10
0.0
 20
1.0
 30
0.0
  9
$USERI1
 70
     0
  9
$USERI2
 70
     0
  9
$USERI3
 70
     0
  9
$USERI4
 70
     0
  9
$USERI5
 70
     0
  9
$USERR1
 40
0.0
  9
$USERR2
 40
0.0
  9
$USERR3
 40
0.0
  9
$USERR4
 40
0.0
  9
$USERR5
 40
0.0
  9
$WORLDVIEW
 70
     1
  9
$SHADEDGE
 70
     3
  9
$SHADEDIF
 70
    70
  9
$TILEMODE
 70
     1
  9
$MAXACTVP
 70
    64
  9
$PLIMCHECK
 70
     0
  9
$PEXTMIN
 10
1.000000000000000E+20
 20
1.000000000000000E+20
 30
1.000000000000000E+20
  9
$PEXTMAX
 10
-1.000000000000000E+20
 20
-1.000000000000000E+20
 30
-1.000000000000000E+20
  9
$PLIMMIN
 10
0.0
 20
0.0
  9
$PLIMMAX
 10
12.0
 20
9.0
  9
$UNITMODE
 70
     0
  9
$VISRETAIN
 70
     1
  9
$PLINEGEN
 70
     0
  9
$PSLTSCALE
 70
     1
  0
ENDSEC
  0
SECTION
  2
TABLES
  0
TABLE
  2
VPORT
 70
     1
  0
VPORT
  2
*ACTIVE
 70
     0
 10
0.0
 20
0.0
 11
1.0
 21
1.0
 12
10.42990654205607
 22
4.5
 13
0.0
 23
0.0
 14
0.5
 24
0.5
 15
0.5
 25
0.5
 16
0.0
 26
0.0
 36
1.0
 17
0.0
 27
0.0
 37
0.0
 40
9.0
 41
1.972972972850329
 42
50.0
 43
0.0
 44
0.0
 50
0.0
 51
0.0
 71
     0
 72
   100
 73
     1
 74
     3
 75
     0
 76
     0
 77
     0
 78
     0
  0
ENDTAB
  0
TABLE
  2
LTYPE
 70
     2
  0
LTYPE
  2
CONTINUOUS
 70
     0
  3
Solid line
 72
    65
 73
     0
 40
0.0
  0
LTYPE
  2
CONTINUOUS2
 70
     0
  3
Solid Line
 72
    65
 73
     0
 40
0.0
  0
ENDTAB
  0
TABLE
  2
LAYER
 70
     2
  0
LAYER
  2
0
 70
     0
 62
     7
  6
CONTINUOUS
  0
LAYER
  2
LAYER_1
 70
     0
 62
    18
  6
CONTINUOUS
  0
ENDTAB
  0
TABLE
  2
STYLE
 70
     1
  0
STYLE
  2
STANDARD
 70
     0
 40
0.0
 41
1.0
 50
0.0
 71
     0
 42
0.2
  3
txt
  4

  0
ENDTAB
  0
TABLE
  2
VIEW
 70
     0
  0
ENDTAB
  0
TABLE
  2
UCS
 70
     0
  0
ENDTAB
  0
TABLE
  2
APPID
 70
     1
  0
APPID
  2
ACAD
 70
     0
  0
ENDTAB
  0
TABLE
  2
DIMSTYLE
 70
     1
  0
DIMSTYLE
  2
STANDARD
 70
     0
  3

  4

  5

  6

  7

 40
1.0
 41
0.18
 42
0.0625
 43
0.38
 44
0.18
 45
0.0
 46
0.0
 47
0.0
 48
0.0
140
0.18
141
0.09
142
0.0
143
25.4
144
1.0
145
0.0
146
1.0
147
0.09
 71
     0
 72
     0
 73
     1
 74
     1
 75
     0
 76
     0
 77
     0
 78
     0
170
     0
171
     2
172
     0
173
     0
174
     0
175
     0
176
     0
177
     0
178
     0
  0
ENDTAB
  0
ENDSEC
  0
SECTION
  2
BLOCKS
  0
BLOCK
  8
0
  2
$MODEL_SPACE
 70
     0
 10
0.0
 20
0.0
 30
0.0
  3
$MODEL_SPACE
  1

  0
ENDBLK
  5
21
  8
0
  0
BLOCK
 67
     1
  8
0
  2
$PAPER_SPACE
 70
     0
 10
0.0
 20
0.0
 30
0.0
  3
$PAPER_SPACE
  1

  0
ENDBLK
  5
1D
 67
     1
  8
0
  0
ENDSEC
  0
SECTION
  2
ENTITIES
  0
POLYLINE
  5
70
  8
LAYER_1
 66
     1
 10
0.0
 20
0.0
 30
0.0
 70
     1
  0
VERTEX
  5
EA
  8
LAYER_1
 10
3.05348744776531
 20
2.954538222633559
 30
0.0
  0
VERTEX
  5
EB
  8
LAYER_1
 10
0.1769267614038115
 20
5.829538222633559
 30
0.0
  0
VERTEX
  5
EC
  8
LAYER_1
 10
0.1769267614038115
 20
7.32991962211004
 30
0.0
  0
VERTEX
  5
ED
  8
LAYER_1
 10
0.1769267614038113
 20
34.95453822263424
 30
0.0
  0
VERTEX
  5
EE
  8
LAYER_1
 10
39.61442676134008
 20
34.95453822258455
 30
0.0
  0
VERTEX
  5
EF
  8
LAYER_1
 10
39.64448082199272
 20
34.95423427013743
 30
0.0
  0
VERTEX
  5
F0
  8
LAYER_1
 10
39.6753655757077
 20
34.95327325844889
 30
0.0
  0
VERTEX
  5
F1
  8
LAYER_1
 10
39.70693718652478
 20
34.95158145599796
 30
0.0
  0
VERTEX
  5
F2
  8
LAYER_1
 10
39.73905181848372
 20
34.94908513126373
 30
0.0
  0
VERTEX
  5
F3
  8
LAYER_1
 10
39.77156563562428
 20
34.94571055272525
 30
0.0
  0
VERTEX
  5
F4
  8
LAYER_1
 10
39.80433480198622
 20
34.94138398886157
 30
0.0
  0
VERTEX
  5
F5
  8
LAYER_1
 10
39.83721548160931
 20
34.93603170815177
 30
0.0
  0
VERTEX
  5
F6
  8
LAYER_1
 10
39.87006383853328
 20
34.92957997907491
 30
0.0
  0
VERTEX
  5
F7
  8
LAYER_1
 10
39.88643094724554
 20
34.92591878029853
 30
0.0
  0
VERTEX
  5
F8
  8
LAYER_1
 10
39.90273603679792
 20
34.92195507011005
 30
0.0
  0
VERTEX
  5
F9
  8
LAYER_1
 10
39.91896112769541
 20
34.91767963206934
 30
0.0
  0
VERTEX
  5
FA
  8
LAYER_1
 10
39.93508824044299
 20
34.91308324973626
 30
0.0
  0
VERTEX
  5
FB
  8
LAYER_1
 10
39.9510993955456
 20
34.90815670667072
 30
0.0
  0
VERTEX
  5
FC
  8
LAYER_1
 10
39.96697661350822
 20
34.90289078643261
 30
0.0
  0
VERTEX
  5
FD
  8
LAYER_1
 10
39.98270191483584
 20
34.89727627258178
 30
0.0
  0
VERTEX
  5
FE
  8
LAYER_1
 10
39.9982573200334
 20
34.89130394867814
 30
0.0
  0
VERTEX
  5
FF
  8
LAYER_1
 10
40.01362484960589
 20
34.88496459828156
 30
0.0
  0
VERTEX
  5
100
  8
LAYER_1
 10
40.02878652405828
 20
34.87824900495193
 30
0.0
  0
VERTEX
  5
101
  8
LAYER_1
 10
40.04372436389552
 20
34.87114795224912
 30
0.0
  0
VERTEX
  5
102
  8
LAYER_1
 10
40.05842038962261
 20
34.86365222373303
 30
0.0
  0
VERTEX
  5
103
  8
LAYER_1
 10
40.07285662174451
 20
34.85575260296353
 30
0.0
  0
VERTEX
  5
104
  8
LAYER_1
 10
40.08701508076617
 20
34.84743987350051
 30
0.0
  0
VERTEX
  5
105
  8
LAYER_1
 10
40.10087778719258
 20
34.83870481890385
 30
0.0
  0
VERTEX
  5
106
  8
LAYER_1
 10
40.11442676152871
 20
34.82953822273343
 30
0.0
  0
VERTEX
  5
107
  8
LAYER_1
 10
40.12982881754431
 20
34.81834920917507
 30
0.0
  0
VERTEX
  5
108
  8
LAYER_1
 10
40.14484938413381
 20
34.80666234884029
 30
0.0
  0
VERTEX
  5
109
  8
LAYER_1
 10
40.15949024616872
 20
34.79449880713936
 30
0.0
  0
VERTEX
  5
10A
  8
LAYER_1
 10
40.17375318852054
 20
34.78187974948253
 30
0.0
  0
VERTEX
  5
10B
  8
LAYER_1
 10
40.18763999606078
 20
34.76882634128002
 30
0.0
  0
VERTEX
  5
10C
  8
LAYER_1
 10
40.20115245366095
 20
34.75535974794208
 30
0.0
  0
VERTEX
  5
10D
  8
LAYER_1
 10
40.21429234619254
 20
34.74150113487897
 30
0.0
  0
VERTEX
  5
10E
  8
LAYER_1
 10
40.22706145852705
 20
34.72727166750094
 30
0.0
  0
VERTEX
  5
10F
  8
LAYER_1
 10
40.239461575536
 20
34.71269251121821
 30
0.0
  0
VERTEX
  5
110
  8
LAYER_1
 10
40.25149448209088
 20
34.69778483144104
 30
0.0
  0
VERTEX
  5
111
  8
LAYER_1
 10
40.2631619630632
 20
34.68256979357967
 30
0.0
  0
VERTEX
  5
112
  8
LAYER_1
 10
40.27446580332447
 20
34.66706856304436
 30
0.0
  0
VERTEX
  5
113
  8
LAYER_1
 10
40.28540778774617
 20
34.65130230524534
 30
0.0
  0
VERTEX
  5
114
  8
LAYER_1
 10
40.29598970119982
 20
34.63529218559285
 30
0.0
  0
VERTEX
  5
115
  8
LAYER_1
 10
40.30621332855692
 20
34.61905936949716
 30
0.0
  0
VERTEX
  5
116
  8
LAYER_1
 10
40.31608045468897
 20
34.60262502236849
 30
0.0
  0
VERTEX
  5
117
  8
LAYER_1
 10
40.32559286446748
 20
34.5860103096171
 30
0.0
  0
VERTEX
  5
118
  8
LAYER_1
 10
40.33475234276395
 20
34.56923639665323
 30
0.0
  0
VERTEX
  5
119
  8
LAYER_1
 10
40.34356067444988
 20
34.55232444888712
 30
0.0
  0
VERTEX
  5
11A
  8
LAYER_1
 10
40.35201964439676
 20
34.53529563172902
 30
0.0
  0
VERTEX
  5
11B
  8
LAYER_1
 10
40.36013103747612
 20
34.51817111058918
 30
0.0
  0
VERTEX
  5
11C
  8
LAYER_1
 10
40.36789663855944
 20
34.50097205087783
 30
0.0
  0
VERTEX
  5
11D
  8
LAYER_1
 10
40.37531823251824
 20
34.48371961800524
 30
0.0
  0
VERTEX
  5
11E
  8
LAYER_1
 10
40.38239760422402
 20
34.46643497738162
 30
0.0
  0
VERTEX
  5
11F
  8
LAYER_1
 10
40.38913653854829
 20
34.44913929441725
 30
0.0
  0
VERTEX
  5
120
  8
LAYER_1
 10
40.39553682036252
 20
34.43185373452236
 30
0.0
  0
VERTEX
  5
121
  8
LAYER_1
 10
40.40732856594697
 20
34.39739764558201
 30
0.0
  0
VERTEX
  5
122
  8
LAYER_1
 10
40.41778711994938
 20
34.36323603384253
 30
0.0
  0
VERTEX
  5
123
  8
LAYER_1
 10
40.42692676134178
 20
34.32953822258586
 30
0.0
  0
VERTEX
  5
124
  8
LAYER_1
 10
41.42692676162549
 20
30.39203822278293
 30
0.0
  0
VERTEX
  5
125
  8
LAYER_1
 10
41.43769635973031
 20
30.35065255882426
 30
0.0
  0
VERTEX
  5
126
  8
LAYER_1
 10
41.44902981290474
 20
30.30931638941577
 30
0.0
  0
VERTEX
  5
127
  8
LAYER_1
 10
41.4610007351162
 20
30.26808548469527
 30
0.0
  0
VERTEX
  5
128
  8
LAYER_1
 10
41.47368274033209
 20
30.22701561480054
 30
0.0
  0
VERTEX
  5
129
  8
LAYER_1
 10
41.48714944251981
 20
30.1861625498694
 30
0.0
  0
VERTEX
  5
12A
  8
LAYER_1
 10
41.50147445564677
 20
30.14558206003964
 30
0.0
  0
VERTEX
  5
12B
  8
LAYER_1
 10
41.51673139368038
 20
30.10532991544907
 30
0.0
  0
VERTEX
  5
12C
  8
LAYER_1
 10
41.53299387058804
 20
30.06546188623549
 30
0.0
  0
VERTEX
  5
12D
  8
LAYER_1
 10
41.54152519048446
 20
30.04568934306313
 30
0.0
  0
VERTEX
  5
12E
  8
LAYER_1
 10
41.55033550033716
 20
30.02603374253669
 30
0.0
  0
VERTEX
  5
12F
  8
LAYER_1
 10
41.55943400189208
 20
30.0065020559234
 30
0.0
  0
VERTEX
  5
130
  8
LAYER_1
 10
41.56882989689515
 20
29.98710125449048
 30
0.0
  0
VERTEX
  5
131
  8
LAYER_1
 10
41.57853238709228
 20
29.96783830950517
 30
0.0
  0
VERTEX
  5
132
  8
LAYER_1
 10
41.5885506742294
 20
29.94872019223467
 30
0.0
  0
VERTEX
  5
133
  8
LAYER_1
 10
41.59889396005244
 20
29.92975387394622
 30
0.0
  0
VERTEX
  5
134
  8
LAYER_1
 10
41.60957144630733
 20
29.91094632590705
 30
0.0
  0
VERTEX
  5
135
  8
LAYER_1
 10
41.62059233473998
 20
29.89230451938437
 30
0.0
  0
VERTEX
  5
136
  8
LAYER_1
 10
41.63196582709634
 20
29.87383542564542
 30
0.0
  0
VERTEX
  5
137
  8
LAYER_1
 10
41.64370112512231
 20
29.85554601595742
 30
0.0
  0
VERTEX
  5
138
  8
LAYER_1
 10
41.65580743056383
 20
29.83744326158759
 30
0.0
  0
VERTEX
  5
139
  8
LAYER_1
 10
41.66829394516682
 20
29.81953413380316
 30
0.0
  0
VERTEX
  5
13A
  8
LAYER_1
 10
41.68116987067722
 20
29.80182560387136
 30
0.0
  0
VERTEX
  5
13B
  8
LAYER_1
 10
41.69444440884095
 20
29.7843246430594
 30
0.0
  0
VERTEX
  5
13C
  8
LAYER_1
 10
41.70812676140392
 20
29.76703822263452
 30
0.0
  0
VERTEX
  5
13D
  8
LAYER_1
 10
41.7655707399464
 20
29.69667063129705
 30
0.0
  0
VERTEX
  5
13E
  8
LAYER_1
 10
41.79523905745592
 20
29.6610288662693
 30
0.0
  0
VERTEX
  5
13F
  8
LAYER_1
 10
41.82554125220625
 20
29.62526265585242
 30
0.0
  0
VERTEX
  5
140
  8
LAYER_1
 10
41.85647956800887
 20
29.58950765068411
 30
0.0
  0
VERTEX
  5
141
  8
LAYER_1
 10
41.88805624867527
 20
29.55389950140201
 30
0.0
  0
VERTEX
  5
142
  8
LAYER_1
 10
41.9202735380169
 20
29.51857385864382
 30
0.0
  0
VERTEX
  5
143
  8
LAYER_1
 10
41.95313367984525
 20
29.4836663730472
 30
0.0
  0
VERTEX
  5
144
  8
LAYER_1
 10
41.9866389179718
 20
29.44931269524982
 30
0.0
  0
VERTEX
  5
145
  8
LAYER_1
 10
42.02079149620801
 20
29.41564847588936
 30
0.0
  0
VERTEX
  5
146
  8
LAYER_1
 10
42.05559365836537
 20
29.38280936560348
 30
0.0
  0
VERTEX
  5
147
  8
LAYER_1
 10
42.07323903460556
 20
29.36674161718778
 30
0.0
  0
VERTEX
  5
148
  8
LAYER_1
 10
42.09104764825534
 20
29.35093101502986
 30
0.0
  0
VERTEX
  5
149
  8
LAYER_1
 10
42.10901977979115
 20
29.33539451545942
 30
0.0
  0
VERTEX
  5
14A
  8
LAYER_1
 10
42.12715570968942
 20
29.32014907480617
 30
0.0
  0
VERTEX
  5
14B
  8
LAYER_1
 10
42.14545571842658
 20
29.30521164939982
 30
0.0
  0
VERTEX
  5
14C
  8
LAYER_1
 10
42.16392008647906
 20
29.29059919557008
 30
0.0
  0
VERTEX
  5
14D
  8
LAYER_1
 10
42.18254909432331
 20
29.27632866964666
 30
0.0
  0
VERTEX
  5
14E
  8
LAYER_1
 10
42.20134302243575
 20
29.26241702795927
 30
0.0
  0
VERTEX
  5
14F
  8
LAYER_1
 10
42.22030215129283
 20
29.24888122683761
 30
0.0
  0
VERTEX
  5
150
  8
LAYER_1
 10
42.23942676137096
 20
29.2357382226114
 30
0.0
  0
VERTEX
  5
151
  8
LAYER_1
 10
42.26230552370626
 20
29.22073985552248
 30
0.0
  0
VERTEX
  5
152
  8
LAYER_1
 10
42.28557133930506
 20
29.20628887139836
 30
0.0
  0
VERTEX
  5
153
  8
LAYER_1
 10
42.30920170840658
 20
29.19236429156891
 30
0.0
  0
VERTEX
  5
154
  8
LAYER_1
 10
42.33317413124997
 20
29.17894513736402
 30
0.0
  0
VERTEX
  5
155
  8
LAYER_1
 10
42.35746610807445
 20
29.16601043011357
 30
0.0
  0
VERTEX
  5
156
  8
LAYER_1
 10
42.38205513911922
 20
29.15353919114743
 30
0.0
  0
VERTEX
  5
157
  8
LAYER_1
 10
42.40691872462347
 20
29.1415104417955
 30
0.0
  0
VERTEX
  5
158
  8
LAYER_1
 10
42.43203436482638
 20
29.12990320338766
 30
0.0
  0
VERTEX
  5
159
  8
LAYER_1
 10
42.45737955996717
 20
29.11869649725377
 30
0.0
  0
VERTEX
  5
15A
  8
LAYER_1
 10
42.48293181028502
 20
29.10786934472372
 30
0.0
  0
VERTEX
  5
15B
  8
LAYER_1
 10
42.50866861601912
 20
29.09740076712739
 30
0.0
  0
VERTEX
  5
15C
  8
LAYER_1
 10
42.53456747740869
 20
29.08726978579467
 30
0.0
  0
VERTEX
  5
15D
  8
LAYER_1
 10
42.5606058946929
 20
29.07745542205544
 30
0.0
  0
VERTEX
  5
15E
  8
LAYER_1
 10
42.58676136811094
 20
29.06793669723957
 30
0.0
  0
VERTEX
  5
15F
  8
LAYER_1
 10
42.63933348430537
 20
29.04970224969744
 30
0.0
  0
VERTEX
  5
160
  8
LAYER_1
 10
42.69210382790551
 20
29.03239861380734
 30
0.0
  0
VERTEX
  5
161
  8
LAYER_1
 10
42.74489240082492
 20
29.01585796020831
 30
0.0
  0
VERTEX
  5
162
  8
LAYER_1
 10
42.84980424227584
 20
28.98439428243963
 30
0.0
  0
VERTEX
  5
163
  8
LAYER_1
 10
42.95262902396661
 20
28.95396858150378
 30
0.0
  0
VERTEX
  5
164
  8
LAYER_1
 10
43.00280877218584
 20
28.93872539894578
 30
0.0
  0
VERTEX
  5
165
  8
LAYER_1
 10
43.05192676120571
 20
28.92323822251311
 30
0.0
  0
VERTEX
  5
166
  8
LAYER_1
 10
55.92692676144798
 20
24.76703822265183
 30
0.0
  0
VERTEX
  5
167
  8
LAYER_1
 10
55.98533980285023
 20
24.74826332368104
 30
0.0
  0
VERTEX
  5
168
  8
LAYER_1
 10
56.04447521734419
 20
24.7295374702069
 30
0.0
  0
VERTEX
  5
169
  8
LAYER_1
 10
56.10429498094122
 20
24.7110517567363
 30
0.0
  0
VERTEX
  5
16A
  8
LAYER_1
 10
56.16476106965275
 20
24.69299727777616
 30
0.0
  0
VERTEX
  5
16B
  8
LAYER_1
 10
56.22583545949016
 20
24.67556512783339
 30
0.0
  0
VERTEX
  5
16C
  8
LAYER_1
 10
56.28748012646486
 20
24.65894640141489
 30
0.0
  0
VERTEX
  5
16D
  8
LAYER_1
 10
56.31850443138226
 20
24.65100178906066
 30
0.0
  0
VERTEX
  5
16E
  8
LAYER_1
 10
56.34965704658826
 20
24.64333219302758
 30
0.0
  0
VERTEX
  5
16F
  8
LAYER_1
 10
56.38093321908427
 20
24.63596150012904
 30
0.0
  0
VERTEX
  5
170
  8
LAYER_1
 10
56.41232819587174
 20
24.62891359717837
 30
0.0
  0
VERTEX
  5
171
  8
LAYER_1
 10
56.44383722395208
 20
24.62221237098896
 30
0.0
  0
VERTEX
  5
172
  8
LAYER_1
 10
56.47545555032672
 20
24.61588170837417
 30
0.0
  0
VERTEX
  5
173
  8
LAYER_1
 10
56.50717842199708
 20
24.60994549614736
 30
0.0
  0
VERTEX
  5
174
  8
LAYER_1
 10
56.5390010859646
 20
24.60442762112189
 30
0.0
  0
VERTEX
  5
175
  8
LAYER_1
 10
56.57091878923069
 20
24.59935197011113
 30
0.0
  0
VERTEX
  5
176
  8
LAYER_1
 10
56.60292677879677
 20
24.59474242992844
 30
0.0
  0
VERTEX
  5
177
  8
LAYER_1
 10
56.63502030166428
 20
24.59062288738719
 30
0.0
  0
VERTEX
  5
178
  8
LAYER_1
 10
56.66719460483465
 20
24.58701722930073
 30
0.0
  0
VERTEX
  5
179
  8
LAYER_1
 10
56.69944493530929
 20
24.58394934248244
 30
0.0
  0
VERTEX
  5
17A
  8
LAYER_1
 10
56.73176654008962
 20
24.58144311374568
 30
0.0
  0
VERTEX
  5
17B
  8
LAYER_1
 10
56.76415466617709
 20
24.57952242990381
 30
0.0
  0
VERTEX
  5
17C
  8
LAYER_1
 10
56.7966045605731
 20
24.57821117777019
 30
0.0
  0
VERTEX
  5
17D
  8
LAYER_1
 10
56.82911147027909
 20
24.57753324415819
 30
0.0
  0
VERTEX
  5
17E
  8
LAYER_1
 10
56.86167064229647
 20
24.57751251588117
 30
0.0
  0
VERTEX
  5
17F
  8
LAYER_1
 10
56.89427732362669
 20
24.5781728797525
 30
0.0
  0
VERTEX
  5
180
  8
LAYER_1
 10
56.92692676127115
 20
24.57953822258555
 30
0.0
  0
VERTEX
  5
181
  8
LAYER_1
 10
56.97893294904318
 20
24.58177560152766
 30
0.0
  0
VERTEX
  5
182
  8
LAYER_1
 10
57.03197460151053
 20
24.58320078194264
 30
0.0
  0
VERTEX
  5
183
  8
LAYER_1
 10
57.08590644230252
 20
24.58403548840239
 30
0.0
  0
VERTEX
  5
184
  8
LAYER_1
 10
57.14058319504852
 20
24.5845014454788
 30
0.0
  0
VERTEX
  5
185
  8
LAYER_1
 10
57.25159033091987
 20
24.58521400976922
 30
0.0
  0
VERTEX
  5
186
  8
LAYER_1
 10
57.3076301613039
 20
24.58590406612704
 30
0.0
  0
VERTEX
  5
187
  8
LAYER_1
 10
57.36383379815931
 20
24.5871122713891
 30
0.0
  0
VERTEX
  5
188
  8
LAYER_1
 10
57.42005596511541
 20
24.58906035012733
 30
0.0
  0
VERTEX
  5
189
  8
LAYER_1
 10
57.47615138580157
 20
24.59197002691362
 30
0.0
  0
VERTEX
  5
18A
  8
LAYER_1
 10
57.50410616742759
 20
24.5938547535035
 30
0.0
  0
VERTEX
  5
18B
  8
LAYER_1
 10
57.53197478384712
 20
24.59606302631986
 30
0.0
  0
VERTEX
  5
18C
  8
LAYER_1
 10
57.55973907551383
 20
24.59862256093419
 30
0.0
  0
VERTEX
  5
18D
  8
LAYER_1
 10
57.58738088288139
 20
24.60156107291797
 30
0.0
  0
VERTEX
  5
18E
  8
LAYER_1
 10
57.61488204640347
 20
24.60490627784268
 30
0.0
  0
VERTEX
  5
18F
  8
LAYER_1
 10
57.64222440653374
 20
24.60868589127983
 30
0.0
  0
VERTEX
  5
190
  8
LAYER_1
 10
57.66938980372586
 20
24.61292762880088
 30
0.0
  0
VERTEX
  5
191
  8
LAYER_1
 10
57.69636007843351
 20
24.61765920597734
 30
0.0
  0
VERTEX
  5
192
  8
LAYER_1
 10
57.72311707111034
 20
24.62290833838068
 30
0.0
  0
VERTEX
  5
193
  8
LAYER_1
 10
57.74964262221003
 20
24.6287027415824
 30
0.0
  0
VERTEX
  5
194
  8
LAYER_1
 10
57.77591857218624
 20
24.63507013115399
 30
0.0
  0
VERTEX
  5
195
  8
LAYER_1
 10
57.80192676149264
 20
24.64203822266692
 30
0.0
  0
VERTEX
  5
196
  8
LAYER_1
 10
57.91038214361522
 20
24.67281568393617
 30
0.0
  0
VERTEX
  5
197
  8
LAYER_1
 10
57.96567549994705
 20
24.68882696357451
 30
0.0
  0
VERTEX
  5
198
  8
LAYER_1
 10
58.02148091316977
 20
24.70530766228539
 30
0.0
  0
VERTEX
  5
199
  8
LAYER_1
 10
58.07764959331629
 20
24.72229856987134
 30
0.0
  0
VERTEX
  5
19A
  8
LAYER_1
 10
58.13403275041954
 20
24.73984047613491
 30
0.0
  0
VERTEX
  5
19B
  8
LAYER_1
 10
58.19048159451241
 20
24.75797417087864
 30
0.0
  0
VERTEX
  5
19C
  8
LAYER_1
 10
58.24684733562783
 20
24.77674044390508
 30
0.0
  0
VERTEX
  5
19D
  8
LAYER_1
 10
58.30298118379869
 20
24.79618008501676
 30
0.0
  0
VERTEX
  5
19E
  8
LAYER_1
 10
58.35873434905791
 20
24.81633388401623
 30
0.0
  0
VERTEX
  5
19F
  8
LAYER_1
 10
58.4139580414384
 20
24.83724263070603
 30
0.0
  0
VERTEX
  5
1A0
  8
LAYER_1
 10
58.46850347097307
 20
24.85894711488871
 30
0.0
  0
VERTEX
  5
1A1
  8
LAYER_1
 10
58.52222184769483
 20
24.8814881263668
 30
0.0
  0
VERTEX
  5
1A2
  8
LAYER_1
 10
58.54872439438616
 20
24.89308507665493
 30
0.0
  0
VERTEX
  5
1A3
  8
LAYER_1
 10
58.57496438163659
 20
24.90490645494285
 30
0.0
  0
VERTEX
  5
1A4
  8
LAYER_1
 10
58.60092321070025
 20
24.91695735995591
 30
0.0
  0
VERTEX
  5
1A5
  8
LAYER_1
 10
58.62658228283125
 20
24.92924289041941
 30
0.0
  0
VERTEX
  5
1A6
  8
LAYER_1
 10
58.65192299928371
 20
24.94176814505867
 30
0.0
  0
VERTEX
  5
1A7
  8
LAYER_1
 10
58.67692676131174
 20
24.95453822259902
 30
0.0
  0
VERTEX
  5
1A8
  8
LAYER_1
 10
58.69373562218306
 20
24.96350785360867
 30
0.0
  0
VERTEX
  5
1A9
  8
LAYER_1
 10
58.71041844841027
 20
24.97287651282949
 30
0.0
  0
VERTEX
  5
1AA
  8
LAYER_1
 10
58.72698020564578
 20
24.98262203369193
 30
0.0
  0
VERTEX
  5
1AB
  8
LAYER_1
 10
58.74342585954199
 20
24.99272224962646
 30
0.0
  0
VERTEX
  5
1AC
  8
LAYER_1
 10
58.7597603757513
 20
25.00315499406354
 30
0.0
  0
VERTEX
  5
1AD
  8
LAYER_1
 10
58.77598871992612
 20
25.01389810043361
 30
0.0
  0
VERTEX
  5
1AE
  8
LAYER_1
 10
58.80814675478187
 20
25.0362267326946
 30
0.0
  0
VERTEX
  5
1AF
  8
LAYER_1
 10
58.83993968932846
 20
25.05953081385309
 30
0.0
  0
VERTEX
  5
1B0
  8
LAYER_1
 10
58.87140724878508
 20
25.08363301135276
 30
0.0
  0
VERTEX
  5
1B1
  8
LAYER_1
 10
58.90258915837097
 20
25.10835599263726
 30
0.0
  0
VERTEX
  5
1B2
  8
LAYER_1
 10
58.9335251433053
 20
25.13352242515028
 30
0.0
  0
VERTEX
  5
1B3
  8
LAYER_1
 10
58.99481824009619
 20
25.18447631363647
 30
0.0
  0
VERTEX
  5
1B4
  8
LAYER_1
 10
59.05560434091146
 20
25.23507601636069
 30
0.0
  0
VERTEX
  5
1B5
  8
LAYER_1
 10
59.08590658087626
 20
25.25979971667122
 30
0.0
  0
VERTEX
  5
1B6
  8
LAYER_1
 10
59.11620124750478
 20
25.28390287287225
 30
0.0
  0
VERTEX
  5
1B7
  8
LAYER_1
 10
59.14652806601624
 20
25.30720815240745
 30
0.0
  0
VERTEX
  5
1B8
  8
LAYER_1
 10
59.17692676162984
 20
25.32953822272049
 30
0.0
  0
VERTEX
  5
1B9
  8
LAYER_1
 10
59.19600168581593
 20
25.34347743389382
 30
0.0
  0
VERTEX
  5
1BA
  8
LAYER_1
 10
59.21502038440514
 20
25.35794369569206
 30
0.0
  0
VERTEX
  5
1BB
  8
LAYER_1
 10
59.23397882318814
 20
25.3729077799161
 30
0.0
  0
VERTEX
  5
1BC
  8
LAYER_1
 10
59.2528729679556
 20
25.38834045836682
 30
0.0
  0
VERTEX
  5
1BD
  8
LAYER_1
 10
59.27169878449818
 20
25.40421250284508
 30
0.0
  0
VERTEX
  5
1BE
  8
LAYER_1
 10
59.29045223860658
 20
25.42049468515177
 30
0.0
  0
VERTEX
  5
1BF
  8
LAYER_1
 10
59.30912929607146
 20
25.43715777708777
 30
0.0
  0
VERTEX
  5
1C0
  8
LAYER_1
 10
59.32772592268348
 20
25.45417255045395
 30
0.0
  0
VERTEX
  5
1C1
  8
LAYER_1
 10
59.36466174651167
 20
25.48914022868038
 30
0.0
  0
VERTEX
  5
1C2
  8
LAYER_1
 10
59.40122743641654
 20
25.52516389423809
 30
0.0
  0
VERTEX
  5
1C3
  8
LAYER_1
 10
59.43739071872346
 20
25.5620097215341
 30
0.0
  0
VERTEX
  5
1C4
  8
LAYER_1
 10
59.47311931975781
 20
25.59944388497542
 30
0.0
  0
VERTEX
  5
1C5
  8
LAYER_1
 10
59.50838096584499
 20
25.63723255896908
 30
0.0
  0
VERTEX
  5
1C6
  8
LAYER_1
 10
59.54314338331037
 20
25.67514191792211
 30
0.0
  0
VERTEX
  5
1C7
  8
LAYER_1
 10
59.61104143767724
 20
25.75038738833436
 30
0.0
  0
VERTEX
  5
1C8
  8
LAYER_1
 10
59.67655529346149
 20
25.82330969146835
 30
0.0
  0
VERTEX
  5
1C9
  8
LAYER_1
 10
59.70833746269858
 20
25.85831509132355
 30
0.0
  0
VERTEX
  5
1CA
  8
LAYER_1
 10
59.73942676126616
 20
25.89203822258025
 30
0.0
  0
VERTEX
  5
1CB
  8
LAYER_1
 10
59.75996509758056
 20
25.91464191697169
 30
0.0
  0
VERTEX
  5
1CC
  8
LAYER_1
 10
59.77977988058584
 20
25.93753518095614
 30
0.0
  0
VERTEX
  5
1CD
  8
LAYER_1
 10
59.79889916586242
 20
25.96070703777175
 30
0.0
  0
VERTEX
  5
1CE
  8
LAYER_1
 10
59.8173510089907
 20
25.98414651065668
 30
0.0
  0
VERTEX
  5
1CF
  8
LAYER_1
 10
59.8351634655511
 20
26.00784262284903
 30
0.0
  0
VERTEX
  5
1D0
  8
LAYER_1
 10
59.85236459112404
 20
26.03178439758697
 30
0.0
  0
VERTEX
  5
1D1
  8
LAYER_1
 10
59.86898244128992
 20
26.05596085810863
 30
0.0
  0
VERTEX
  5
1D2
  8
LAYER_1
 10
59.88504507162916
 20
26.08036102765214
 30
0.0
  0
VERTEX
  5
1D3
  8
LAYER_1
 10
59.90058053772216
 20
26.10497392945565
 30
0.0
  0
VERTEX
  5
1D4
  8
LAYER_1
 10
59.91561689514936
 20
26.12978858675728
 30
0.0
  0
VERTEX
  5
1D5
  8
LAYER_1
 10
59.93018219949114
 20
26.15479402279519
 30
0.0
  0
VERTEX
  5
1D6
  8
LAYER_1
 10
59.94430450632792
 20
26.17997926080751
 30
0.0
  0
VERTEX
  5
1D7
  8
LAYER_1
 10
59.95801187124013
 20
26.20533332403238
 30
0.0
  0
VERTEX
  5
1D8
  8
LAYER_1
 10
59.97133234980816
 20
26.23084523570794
 30
0.0
  0
VERTEX
  5
1D9
  8
LAYER_1
 10
59.98429399761245
 20
26.25650401907233
 30
0.0
  0
VERTEX
  5
1DA
  8
LAYER_1
 10
59.99692487023339
 20
26.28229869736368
 30
0.0
  0
VERTEX
  5
1DB
  8
LAYER_1
 10
60.02130651224689
 20
26.33425183167984
 30
0.0
  0
VERTEX
  5
1DC
  8
LAYER_1
 10
60.04470172049198
 20
26.38661682456152
 30
0.0
  0
VERTEX
  5
1DD
  8
LAYER_1
 10
60.06733493961194
 20
26.43930586191385
 30
0.0
  0
VERTEX
  5
1DE
  8
LAYER_1
 10
60.08943061425006
 20
26.49223112964192
 30
0.0
  0
VERTEX
  5
1DF
  8
LAYER_1
 10
60.13290710865407
 20
26.59843909984574
 30
0.0
  0
VERTEX
  5
1E0
  8
LAYER_1
 10
60.15473681770654
 20
26.65154617413171
 30
0.0
  0
VERTEX
  5
1E1
  8
LAYER_1
 10
60.17692676085039
 20
26.70453822241387
 30
0.0
  0
VERTEX
  5
1E2
  8
LAYER_1
 10
62.36442676140718
 20
31.86073822263378
 30
0.0
  0
VERTEX
  5
1E3
  8
LAYER_1
 10
62.3828709294152
 20
31.9039735782317
 30
0.0
  0
VERTEX
  5
1E4
  8
LAYER_1
 10
62.40227662017402
 20
31.94825641306785
 30
0.0
  0
VERTEX
  5
1E5
  8
LAYER_1
 10
62.42287640544994
 20
31.99302579386625
 30
0.0
  0
VERTEX
  5
1E6
  8
LAYER_1
 10
62.43369676220877
 20
32.01541764735255
 30
0.0
  0
VERTEX
  5
1E7
  8
LAYER_1
 10
62.44490285700924
 20
32.03772078735093
 30
0.0
  0
VERTEX
  5
1E8
  8
LAYER_1
 10
62.45652376132212
 20
32.05986509720188
 30
0.0
  0
VERTEX
  5
1E9
  8
LAYER_1
 10
62.46858854661821
 20
32.08178046024592
 30
0.0
  0
VERTEX
  5
1EA
  8
LAYER_1
 10
62.48112628436831
 20
32.10339675982354
 30
0.0
  0
VERTEX
  5
1EB
  8
LAYER_1
 10
62.49416604604317
 20
32.12464387927524
 30
0.0
  0
VERTEX
  5
1EC
  8
LAYER_1
 10
62.5077369031136
 20
32.14545170194154
 30
0.0
  0
VERTEX
  5
1ED
  8
LAYER_1
 10
62.52186792705039
 20
32.16575011116293
 30
0.0
  0
VERTEX
  5
1EE
  8
LAYER_1
 10
62.53658818932432
 20
32.18546899027992
 30
0.0
  0
VERTEX
  5
1EF
  8
LAYER_1
 10
62.55192676140618
 20
32.20453822263299
 30
0.0
  0
VERTEX
  5
1F0
  8
LAYER_1
 10
62.56940333160918
 20
32.22460396346807
 30
0.0
  0
VERTEX
  5
1F1
  8
LAYER_1
 10
62.58757142690494
 20
32.24385692610274
 30
0.0
  0
VERTEX
  5
1F2
  8
LAYER_1
 10
62.60639728276795
 20
32.26228850612757
 30
0.0
  0
VERTEX
  5
1F3
  8
LAYER_1
 10
62.6258471346727
 20
32.27989009913318
 30
0.0
  0
VERTEX
  5
1F4
  8
LAYER_1
 10
62.64588721809368
 20
32.29665310071017
 30
0.0
  0
VERTEX
  5
1F5
  8
LAYER_1
 10
62.66648376850539
 20
32.31256890644914
 30
0.0
  0
VERTEX
  5
1F6
  8
LAYER_1
 10
62.68760302138232
 20
32.32762891194069
 30
0.0
  0
VERTEX
  5
1F7
  8
LAYER_1
 10
62.70921121219894
 20
32.34182451277542
 30
0.0
  0
VERTEX
  5
1F8
  8
LAYER_1
 10
62.73127457642977
 20
32.35514710454393
 30
0.0
  0
VERTEX
  5
1F9
  8
LAYER_1
 10
62.75375934954928
 20
32.36758808283682
 30
0.0
  0
VERTEX
  5
1FA
  8
LAYER_1
 10
62.77663176703199
 20
32.3791388432447
 30
0.0
  0
VERTEX
  5
1FB
  8
LAYER_1
 10
62.79985806435236
 20
32.38979078135815
 30
0.0
  0
VERTEX
  5
1FC
  8
LAYER_1
 10
62.8234044769849
 20
32.39953529276779
 30
0.0
  0
VERTEX
  5
1FD
  8
LAYER_1
 10
62.8472372404041
 20
32.40836377306422
 30
0.0
  0
VERTEX
  5
1FE
  8
LAYER_1
 10
62.87132259008445
 20
32.41626761783803
 30
0.0
  0
VERTEX
  5
1FF
  8
LAYER_1
 10
62.89562676150044
 20
32.42323822267983
 30
0.0
  0
VERTEX
  5
200
  8
LAYER_1
 10
70.98942676190117
 20
34.57953822285359
 30
0.0
  0
VERTEX
  5
201
  8
LAYER_1
 10
71.03867741859864
 20
34.59278503693589
 30
0.0
  0
VERTEX
  5
202
  8
LAYER_1
 10
71.09159768723549
 20
34.60693907795447
 30
0.0
  0
VERTEX
  5
203
  8
LAYER_1
 10
71.14754577947829
 20
34.62134647346454
 30
0.0
  0
VERTEX
  5
204
  8
LAYER_1
 10
71.1764547005977
 20
34.62844084401488
 30
0.0
  0
VERTEX
  5
205
  8
LAYER_1
 10
71.20587990699356
 20
34.63535335102129
 30
0.0
  0
VERTEX
  5
206
  8
LAYER_1
 10
71.23574117512413
 20
34.64200226042818
 30
0.0
  0
VERTEX
  5
207
  8
LAYER_1
 10
71.26595828144777
 20
34.64830583817992
 30
0.0
  0
VERTEX
  5
208
  8
LAYER_1
 10
71.29645100242277
 20
34.65418235022094
 30
0.0
  0
VERTEX
  5
209
  8
LAYER_1
 10
71.32713911450746
 20
34.65955006249561
 30
0.0
  0
VERTEX
  5
20A
  8
LAYER_1
 10
71.35794239416015
 20
34.66432724094837
 30
0.0
  0
VERTEX
  5
20B
  8
LAYER_1
 10
71.38878061783916
 20
34.66843215152358
 30
0.0
  0
VERTEX
  5
20C
  8
LAYER_1
 10
71.41957356200278
 20
34.67178306016567
 30
0.0
  0
VERTEX
  5
20D
  8
LAYER_1
 10
71.45024100310937
 20
34.67429823281901
 30
0.0
  0
VERTEX
  5
20E
  8
LAYER_1
 10
71.50593694198005
 20
34.67831729846849
 30
0.0
  0
VERTEX
  5
20F
  8
LAYER_1
 10
71.55990555150147
 20
34.6823147150505
 30
0.0
  0
VERTEX
  5
210
  8
LAYER_1
 10
71.61245010790078
 20
34.6857082261068
 30
0.0
  0
VERTEX
  5
211
  8
LAYER_1
 10
71.63828314000064
 20
34.68699656191961
 30
0.0
  0
VERTEX
  5
212
  8
LAYER_1
 10
71.66387388740517
 20
34.68791557517916
 30
0.0
  0
VERTEX
  5
213
  8
LAYER_1
 10
71.68926025964275
 20
34.68839248382817
 30
0.0
  0
VERTEX
  5
214
  8
LAYER_1
 10
71.7144801662418
 20
34.68835450580934
 30
0.0
  0
VERTEX
  5
215
  8
LAYER_1
 10
71.73957151673068
 20
34.68772885906542
 30
0.0
  0
VERTEX
  5
216
  8
LAYER_1
 10
71.76457222063785
 20
34.6864427615391
 30
0.0
  0
VERTEX
  5
217
  8
LAYER_1
 10
71.78952018749163
 20
34.68442343117312
 30
0.0
  0
VERTEX
  5
218
  8
LAYER_1
 10
71.81445332682047
 20
34.6815980859102
 30
0.0
  0
VERTEX
  5
219
  8
LAYER_1
 10
71.83940954815273
 20
34.67789394369306
 30
0.0
  0
VERTEX
  5
21A
  8
LAYER_1
 10
71.86442676101686
 20
34.67323822246441
 30
0.0
  0
VERTEX
  5
21B
  8
LAYER_1
 10
71.87366702013637
 20
34.67112543945399
 30
0.0
  0
VERTEX
  5
21C
  8
LAYER_1
 10
71.88278297757947
 20
34.66862094577586
 30
0.0
  0
VERTEX
  5
21D
  8
LAYER_1
 10
71.89177395447705
 20
34.66573419099845
 30
0.0
  0
VERTEX
  5
21E
  8
LAYER_1
 10
71.90063927195993
 20
34.66247462469019
 30
0.0
  0
VERTEX
  5
21F
  8
LAYER_1
 10
71.90937825115901
 20
34.6588516964195
 30
0.0
  0
VERTEX
  5
220
  8
LAYER_1
 10
71.91799021320514
 20
34.65487485575482
 30
0.0
  0
VERTEX
  5
221
  8
LAYER_1
 10
71.92647447922917
 20
34.65055355226456
 30
0.0
  0
VERTEX
  5
222
  8
LAYER_1
 10
71.93483037036198
 20
34.64589723551715
 30
0.0
  0
VERTEX
  5
223
  8
LAYER_1
 10
71.94305720773441
 20
34.64091535508101
 30
0.0
  0
VERTEX
  5
224
  8
LAYER_1
 10
71.95115431247734
 20
34.63561736052458
 30
0.0
  0
VERTEX
  5
225
  8
LAYER_1
 10
71.95912100572161
 20
34.63001270141626
 30
0.0
  0
VERTEX
  5
226
  8
LAYER_1
 10
71.96695660859811
 20
34.62411082732449
 30
0.0
  0
VERTEX
  5
227
  8
LAYER_1
 10
71.98223182777116
 20
34.6114532324643
 30
0.0
  0
VERTEX
  5
228
  8
LAYER_1
 10
71.9969745390434
 20
34.59772017249139
 30
0.0
  0
VERTEX
  5
229
  8
LAYER_1
 10
72.01117931146173
 20
34.58298724395318
 30
0.0
  0
VERTEX
  5
22A
  8
LAYER_1
 10
72.02484071407301
 20
34.56733004339704
 30
0.0
  0
VERTEX
  5
22B
  8
LAYER_1
 10
72.03795331592411
 20
34.55082416737038
 30
0.0
  0
VERTEX
  5
22C
  8
LAYER_1
 10
72.05051168606198
 20
34.53354521242061
 30
0.0
  0
VERTEX
  5
22D
  8
LAYER_1
 10
72.06251039353344
 20
34.5155687750951
 30
0.0
  0
VERTEX
  5
22E
  8
LAYER_1
 10
72.07394400738544
 20
34.49697045194128
 30
0.0
  0
VERTEX
  5
22F
  8
LAYER_1
 10
72.08480709666482
 20
34.47782583950652
 30
0.0
  0
VERTEX
  5
230
  8
LAYER_1
 10
72.09509423041848
 20
34.45821053433825
 30
0.0
  0
VERTEX
  5
231
  8
LAYER_1
 10
72.10479997769333
 20
34.43820013298384
 30
0.0
  0
VERTEX
  5
232
  8
LAYER_1
 10
72.11391890753623
 20
34.4178702319907
 30
0.0
  0
VERTEX
  5
233
  8
LAYER_1
 10
72.12244558899408
 20
34.39729642790622
 30
0.0
  0
VERTEX
  5
234
  8
LAYER_1
 10
72.13037459111379
 20
34.37655431727781
 30
0.0
  0
VERTEX
  5
235
  8
LAYER_1
 10
72.1377004829422
 20
34.35571949665286
 30
0.0
  0
VERTEX
  5
236
  8
LAYER_1
 10
72.14441783352623
 20
34.33486756257877
 30
0.0
  0
VERTEX
  5
237
  8
LAYER_1
 10
72.15052121191277
 20
34.31407411160294
 30
0.0
  0
VERTEX
  5
238
  8
LAYER_1
 10
72.1560051871487
 20
34.29341474027277
 30
0.0
  0
VERTEX
  5
239
  8
LAYER_1
 10
72.1608643282809
 20
34.27296504513566
 30
0.0
  0
VERTEX
  5
23A
  8
LAYER_1
 10
72.16509320435625
 20
34.25280062273899
 30
0.0
  0
VERTEX
  5
23B
  8
LAYER_1
 10
72.16868638442168
 20
34.23299706963017
 30
0.0
  0
VERTEX
  5
23C
  8
LAYER_1
 10
72.17163843752404
 20
34.21362998235659
 30
0.0
  0
VERTEX
  5
23D
  8
LAYER_1
 10
72.17394393271024
 20
34.19477495746567
 30
0.0
  0
VERTEX
  5
23E
  8
LAYER_1
 10
72.17559743902714
 20
34.17650759150479
 30
0.0
  0
VERTEX
  5
23F
  8
LAYER_1
 10
72.17659352552164
 20
34.15890348102135
 30
0.0
  0
VERTEX
  5
240
  8
LAYER_1
 10
72.17692676124065
 20
34.14203822256276
 30
0.0
  0
VERTEX
  5
241
  8
LAYER_1
 10
72.17692676190893
 20
33.3295382228423
 30
0.0
  0
VERTEX
  5
242
  8
LAYER_1
 10
72.17671992339464
 20
33.2941778904208
 30
0.0
  0
VERTEX
  5
243
  8
LAYER_1
 10
72.17611034562967
 20
33.25883474689735
 30
0.0
  0
VERTEX
  5
244
  8
LAYER_1
 10
72.17511443536806
 20
33.22350839004289
 30
0.0
  0
VERTEX
  5
245
  8
LAYER_1
 10
72.17374859936385
 20
33.18819841762833
 30
0.0
  0
VERTEX
  5
246
  8
LAYER_1
 10
72.17202924437112
 20
33.1529044274246
 30
0.0
  0
VERTEX
  5
247
  8
LAYER_1
 10
72.16997277714394
 20
33.11762601720261
 30
0.0
  0
VERTEX
  5
248
  8
LAYER_1
 10
72.1649141330024
 20
33.04711432778757
 30
0.0
  0
VERTEX
  5
249
  8
LAYER_1
 10
72.15870392097172
 20
32.97666013155059
 30
0.0
  0
VERTEX
  5
24A
  8
LAYER_1
 10
72.15147339508437
 20
32.90626021065906
 30
0.0
  0
VERTEX
  5
24B
  8
LAYER_1
 10
72.14335380937281
 20
32.83591134728034
 30
0.0
  0
VERTEX
  5
24C
  8
LAYER_1
 10
72.13447641786954
 20
32.76561032358185
 30
0.0
  0
VERTEX
  5
24D
  8
LAYER_1
 10
72.124972474607
 20
32.69535392173094
 30
0.0
  0
VERTEX
  5
24E
  8
LAYER_1
 10
72.11497323361769
 20
32.62513892389501
 30
0.0
  0
VERTEX
  5
24F
  8
LAYER_1
 10
72.09401387458857
 20
32.48482026893758
 30
0.0
  0
VERTEX
  5
250
  8
LAYER_1
 10
72.072648373042
 20
32.34462861604864
 30
0.0
  0
VERTEX
  5
251
  8
LAYER_1
 10
72.06214145390584
 20
32.2745723707983
 30
0.0
  0
VERTEX
  5
252
  8
LAYER_1
 10
72.05192676123775
 20
32.20453822256722
 30
0.0
  0
VERTEX
  5
253
  8
LAYER_1
 10
67.86442676141347
 20
2.954538222633559
 30
0.0
  0
SEQEND
  5
7D6
  8
LAYER_1
  0
POLYLINE
  5
71
  8
LAYER_1
 66
     1
 10
0.0
 20
0.0
 30
0.0
 70
     1
  0
VERTEX
  5
254
  8
LAYER_1
 10
33.05192676140381
 20
33.79823822263356
 30
0.0
 42
0.4142135623730951
  0
VERTEX
  5
255
  8
LAYER_1
 10
32.86442676140381
 20
33.61073822263356
 30
0.0
 42
0.4142135623730951
  0
VERTEX
  5
256
  8
LAYER_1
 10
33.05192676140381
 20
33.42323822263356
 30
0.0
  0
VERTEX
  5
257
  8
LAYER_1
 10
33.96192676140381
 20
33.42323822263356
 30
0.0
  0
VERTEX
  5
258
  8
LAYER_1
 10
35.17692676140381
 20
33.42323822263356
 30
0.0
 42
0.4142135623730951
  0
VERTEX
  5
259
  8
LAYER_1
 10
35.36442676140381
 20
33.61073822263356
 30
0.0
 42
0.4142135623730951
  0
VERTEX
  5
25A
  8
LAYER_1
 10
35.17692676140381
 20
33.79823822263356
 30
0.0
  0
SEQEND
  5
7D7
  8
LAYER_1
  0
POLYLINE
  5
72
  8
LAYER_1
 66
     1
 10
0.0
 20
0.0
 30
0.0
 70
     1
  0
VERTEX
  5
25B
  8
LAYER_1
 10
39.41143010682035
 20
27.328703193744
 30
0.0
 42
0.182943023321671
  0
VERTEX
  5
25C
  8
LAYER_1
 10
39.36442676140381
 20
27.20453822263356
 30
0.0
 42
0.4142135623730951
  0
VERTEX
  5
25D
  8
LAYER_1
 10
39.55192676140381
 20
27.01703822263356
 30
0.0
 42
0.2351926824882516
  0
VERTEX
  5
25E
  8
LAYER_1
 10
39.70155277284377
 20
27.09154129037179
 30
0.0
  0
VERTEX
  5
25F
  8
LAYER_1
 10
40.95535802463289
 20
28.90926486106433
 30
0.0
 42
0.1542944802827582
  0
VERTEX
  5
260
  8
LAYER_1
 10
40.98942676140381
 20
29.01703822263356
 30
0.0
 42
0.4142135623730951
  0
VERTEX
  5
261
  8
LAYER_1
 10
40.80192676140381
 20
29.20453822263356
 30
0.0
 42
0.1935433870032111
  0
VERTEX
  5
262
  8
LAYER_1
 10
40.67211414663794
 20
29.15233395444963
 30
0.0
  0
SEQEND
  5
7D8
  8
LAYER_1
  0
POLYLINE
  5
73
  8
LAYER_1
 66
     1
 10
0.0
 20
0.0
 30
0.0
 70
     1
  0
VERTEX
  5
263
  8
LAYER_1
 10
56.78928292225751
 20
16.69228728283316
 30
0.0
 42
0.1128480835878667
  0
VERTEX
  5
264
  8
LAYER_1
 10
56.77062676140381
 20
16.61073822263356
 30
0.0
 42
0.4142135623730951
  0
VERTEX
  5
265
  8
LAYER_1
 10
56.95812676140381
 20
16.42323822263356
 30
0.0
 42
0.2838819465829341
  0
VERTEX
  5
266
  8
LAYER_1
 10
57.12577064011221
 20
16.5267633458453
 30
0.0
  0
VERTEX
  5
267
  8
LAYER_1
 10
63.25966236317463
 20
31.29704682108241
 30
0.0
 42
0.0842437368403551
  0
VERTEX
  5
268
  8
LAYER_1
 10
63.2706267614038
 20
31.36073822263356
 30
0.0
 42
0.4142135623730951
  0
VERTEX
  5
269
  8
LAYER_1
 10
63.0831267614038
 20
31.54823822263356
 30
0.0
 42
0.2708198638733647
  0
VERTEX
  5
26A
  8
LAYER_1
 10
62.91975265561057
 20
31.45274448087863
 30
0.0
  0
SEQEND
  5
7D9
  8
LAYER_1
  0
POLYLINE
  5
74
  8
LAYER_1
 66
     1
 10
0.0
 20
0.0
 30
0.0
 70
     1
  0
VERTEX
  5
26B
  8
LAYER_1
 10
66.7308986919014
 20
2.804033567067989
 30
0.0
  0
VERTEX
  5
26C
  8
LAYER_1
 10
70.9269267614038
 20
33.26703822263356
 30
0.0
 42
0.4142135623730951
  0
VERTEX
  5
26D
  8
LAYER_1
 10
70.7394267614038
 20
33.45453822263356
 30
0.0
 42
0.3154215272854258
  0
VERTEX
  5
26E
  8
LAYER_1
 10
70.56320577625691
 20
33.33108831548131
 30
0.0
  0
VERTEX
  5
26F
  8
LAYER_1
 10
66.49117306728421
 20
3.829149717280259
 30
0.0
  0
VERTEX
  5
270
  8
LAYER_1
 10
66.49047174222603
 20
3.829538222633559
 30
0.0
  0
VERTEX
  5
271
  8
LAYER_1
 10
60.73942676140381
 20
3.829538222633559
 30
0.0
 42
0.4142135623730951
  0
VERTEX
  5
272
  8
LAYER_1
 10
60.55192676140381
 20
3.642038222633559
 30
0.0
 42
0.4142135623730951
  0
VERTEX
  5
273
  8
LAYER_1
 10
60.73942676140381
 20
3.454538222633559
 30
0.0
  0
VERTEX
  5
274
  8
LAYER_1
 10
66.43931091862301
 20
3.454199328470338
 30
0.0
  0
VERTEX
  5
275
  8
LAYER_1
 10
66.34940757259749
 20
2.802128991859725
 30
0.0
  0
SEQEND
  5
7DA
  8
LAYER_1
  0
POLYLINE
  5
75
  8
LAYER_1
 66
     1
 10
0.0
 20
0.0
 30
0.0
 70
     1
  0
VERTEX
  5
276
  8
LAYER_1
 10
29.33312676140381
 20
32.51753822263356
 30
0.0
 42
0.4142135623730951
  0
VERTEX
  5
277
  8
LAYER_1
 10
29.20762676140381
 20
32.39203822263356
 30
0.0
 42
0.4142135623730951
  0
VERTEX
  5
278
  8
LAYER_1
 10
29.33312676140381
 20
32.26653822263356
 30
0.0
 42
0.4142135623730951
  0
VERTEX
  5
279
  8
LAYER_1
 10
29.45862676140381
 20
32.39203822263356
 30
0.0
 42
0.4142135623730951
  0
SEQEND
  5
7DB
  8
LAYER_1
  0
POLYLINE
  5
76
  8
LAYER_1
 66
     1
 10
0.0
 20
0.0
 30
0.0
 70
     1
  0
VERTEX
  5
27A
  8
LAYER_1
 10
29.33312676140381
 20
20.08003822263356
 30
0.0
 42
0.4142135623730951
  0
VERTEX
  5
27B
  8
LAYER_1
 10
29.20762676140381
 20
19.95453822263356
 30
0.0
 42
0.4142135623730951
  0
VERTEX
  5
27C
  8
LAYER_1
 10
29.33312676140381
 20
19.82903822263356
 30
0.0
 42
0.4142135623730951
  0
VERTEX
  5
27D
  8
LAYER_1
 10
29.45862676140381
 20
19.95453822263356
 30
0.0
 42
0.4142135623730951
  0
SEQEND
  5
7DC
  8
LAYER_1
  0
POLYLINE
  5
77
  8
LAYER_1
 66
     1
 10
0.0
 20
0.0
 30
0.0
 70
     1
  0
VERTEX
  5
27E
  8
LAYER_1
 10
29.33312676140381
 20
7.705038222633561
 30
0.0
 42
0.4142135623730951
  0
VERTEX
  5
27F
  8
LAYER_1
 10
29.20762676140381
 20
7.579538222633559
 30
0.0
 42
0.4142135623730951
  0
VERTEX
  5
280
  8
LAYER_1
 10
29.33312676140381
 20
7.454038222633557
 30
0.0
 42
0.4142135623730951
  0
VERTEX
  5
281
  8
LAYER_1
 10
29.45862676140381
 20
7.579538222633559
 30
0.0
 42
0.4142135623730951
  0
SEQEND
  5
7DD
  8
LAYER_1
  0
POLYLINE
  5
78
  8
LAYER_1
 66
     1
 10
0.0
 20
0.0
 30
0.0
 70
     1
  0
VERTEX
  5
282
  8
LAYER_1
 10
26.80192676140381
 20
32.51753822263356
 30
0.0
 42
0.4142135623730951
  0
VERTEX
  5
283
  8
LAYER_1
 10
26.67642676140381
 20
32.39203822263356
 30
0.0
 42
0.4142135623730951
  0
VERTEX
  5
284
  8
LAYER_1
 10
26.80192676140381
 20
32.26653822263356
 30
0.0
 42
0.4142135623730951
  0
VERTEX
  5
285
  8
LAYER_1
 10
26.92742676140381
 20
32.39203822263356
 30
0.0
 42
0.4142135623730951
  0
SEQEND
  5
7DE
  8
LAYER_1
  0
POLYLINE
  5
79
  8
LAYER_1
 66
     1
 10
0.0
 20
0.0
 30
0.0
 70
     1
  0
VERTEX
  5
286
  8
LAYER_1
 10
26.80192676140381
 20
20.08003822263356
 30
0.0
 42
0.4142135623730951
  0
VERTEX
  5
287
  8
LAYER_1
 10
26.67642676140381
 20
19.95453822263356
 30
0.0
 42
0.4142135623730951
  0
VERTEX
  5
288
  8
LAYER_1
 10
26.80192676140381
 20
19.82903822263356
 30
0.0
 42
0.4142135623730951
  0
VERTEX
  5
289
  8
LAYER_1
 10
26.92742676140381
 20
19.95453822263356
 30
0.0
 42
0.4142135623730951
  0
SEQEND
  5
7DF
  8
LAYER_1
  0
POLYLINE
  5
7A
  8
LAYER_1
 66
     1
 10
0.0
 20
0.0
 30
0.0
 70
     1
  0
VERTEX
  5
28A
  8
LAYER_1
 10
26.80192676140381
 20
7.705038222633561
 30
0.0
 42
0.4142135623730951
  0
VERTEX
  5
28B
  8
LAYER_1
 10
26.67642676140381
 20
7.579538222633559
 30
0.0
 42
0.4142135623730951
  0
VERTEX
  5
28C
  8
LAYER_1
 10
26.80192676140381
 20
7.454038222633557
 30
0.0
 42
0.4142135623730951
  0
VERTEX
  5
28D
  8
LAYER_1
 10
26.92742676140381
 20
7.579538222633559
 30
0.0
 42
0.4142135623730951
  0
SEQEND
  5
7E0
  8
LAYER_1
  0
POLYLINE
  5
7B
  8
LAYER_1
 66
     1
 10
0.0
 20
0.0
 30
0.0
 70
     1
  0
VERTEX
  5
28E
  8
LAYER_1
 10
50.23942676140381
 20
20.14253822263356
 30
0.0
 42
0.4142135623730951
  0
VERTEX
  5
28F
  8
LAYER_1
 10
50.11392676140381
 20
20.01703822263356
 30
0.0
 42
0.4142135623730951
  0
VERTEX
  5
290
  8
LAYER_1
 10
50.23942676140381
 20
19.89153822263356
 30
0.0
 42
0.4142135623730951
  0
VERTEX
  5
291
  8
LAYER_1
 10
50.36492676140382
 20
20.01703822263356
 30
0.0
 42
0.4142135623730951
  0
SEQEND
  5
7E1
  8
LAYER_1
  0
POLYLINE
  5
7C
  8
LAYER_1
 66
     1
 10
0.0
 20
0.0
 30
0.0
 70
     1
  0
VERTEX
  5
292
  8
LAYER_1
 10
45.42692676140381
 20
23.76753822263356
 30
0.0
 42
0.4142135623730951
  0
VERTEX
  5
293
  8
LAYER_1
 10
45.30142676140381
 20
23.64203822263356
 30
0.0
 42
0.4142135623730951
  0
VERTEX
  5
294
  8
LAYER_1
 10
45.42692676140381
 20
23.51653822263356
 30
0.0
 42
0.4142135623730951
  0
VERTEX
  5
295
  8
LAYER_1
 10
45.55242676140382
 20
23.64203822263356
 30
0.0
 42
0.4142135623730951
  0
SEQEND
  5
7E2
  8
LAYER_1
  0
POLYLINE
  5
7D
  8
LAYER_1
 66
     1
 10
0.0
 20
0.0
 30
0.0
 70
     1
  0
VERTEX
  5
296
  8
LAYER_1
 10
47.81556982482698
 20
21.96860069684797
 30
0.0
 42
0.4142135623730951
  0
VERTEX
  5
297
  8
LAYER_1
 10
47.69006982482698
 20
21.84310069684797
 30
0.0
 42
0.4142135623730951
  0
VERTEX
  5
298
  8
LAYER_1
 10
47.81556982482698
 20
21.71760069684797
 30
0.0
 42
0.4142135623730951
  0
VERTEX
  5
299
  8
LAYER_1
 10
47.94106982482698
 20
21.84310069684797
 30
0.0
 42
0.4142135623730951
  0
SEQEND
  5
7E3
  8
LAYER_1
  0
POLYLINE
  5
7E
  8
LAYER_1
 66
     1
 10
0.0
 20
0.0
 30
0.0
 70
     1
  0
VERTEX
  5
29A
  8
LAYER_1
 10
3.58809491647437
 20
3.454538222633559
 30
0.0
  0
VERTEX
  5
29B
  8
LAYER_1
 10
18.30192676140381
 20
3.454538222633559
 30
0.0
 42
0.4142135623730951
  0
VERTEX
  5
29C
  8
LAYER_1
 10
18.48942676140381
 20
3.642038222633559
 30
0.0
 42
0.4142135623730951
  0
VERTEX
  5
29D
  8
LAYER_1
 10
18.30192676140381
 20
3.829538222633559
 30
0.0
  0
VERTEX
  5
29E
  8
LAYER_1
 10
3.676678349909087
 20
3.830124822034314
 30
0.0
  0
VERTEX
  5
29F
  8
LAYER_1
 10
3.676926761403811
 20
33.51703822263356
 30
0.0
 42
0.4142135623730951
  0
VERTEX
  5
2A0
  8
LAYER_1
 10
3.489426761403811
 20
33.70453822263356
 30
0.0
 42
0.4142135623730951
  0
VERTEX
  5
2A1
  8
LAYER_1
 10
3.301926761403811
 20
33.51703822263356
 30
0.0
  0
VERTEX
  5
2A2
  8
LAYER_1
 10
3.301926761403811
 20
30.89243879063776
 30
0.0
  0
VERTEX
  5
2A3
  8
LAYER_1
 10
3.302021536348185
 20
30.89203822263356
 30
0.0
  0
VERTEX
  5
2A4
  8
LAYER_1
 10
0.0
 20
30.89049228218703
 30
0.0
  0
VERTEX
  5
2A5
  8
LAYER_1
 10
0.0
 20
30.51405259145053
 30
0.0
  0
VERTEX
  5
2A6
  8
LAYER_1
 10
3.301899976855779
 20
30.51703822263356
 30
0.0
  0
VERTEX
  5
2A7
  8
LAYER_1
 10
3.301926761403811
 20
30.51692006092702
 30
0.0
  0
VERTEX
  5
2A8
  8
LAYER_1
 10
3.301926761403811
 20
7.29825479100564
 30
0.0
  0
VERTEX
  5
2A9
  8
LAYER_1
 10
3.300551635901705
 20
7.298238222633557
 30
0.0
  0
VERTEX
  5
2AA
  8
LAYER_1
 10
2.926926761403811
 20
7.298238222633557
 30
0.0
  0
VERTEX
  5
2AB
  8
LAYER_1
 10
0.0269267614038111
 20
7.298238222633557
 30
0.0
  0
VERTEX
  5
2AC
  8
LAYER_1
 10
0.0269267614038111
 20
6.923238222633557
 30
0.0
  0
VERTEX
  5
2AD
  8
LAYER_1
 10
2.926926761403811
 20
6.923238222633557
 30
0.0
  0
VERTEX
  5
2AE
  8
LAYER_1
 10
3.301491633669513
 20
6.923238222633557
 30
0.0
  0
VERTEX
  5
2AF
  8
LAYER_1
 10
3.301926761403811
 20
6.923236733315797
 30
0.0
  0
VERTEX
  5
2B0
  8
LAYER_1
 10
3.301926761403811
 20
3.517038222633559
 30
0.0
  0
VERTEX
  5
2B1
  8
LAYER_1
 10
3.301663380701905
 20
3.454533607246645
 30
0.0
 42
0.4142135623730951
  0
VERTEX
  5
2B2
  8
LAYER_1
 10
3.4269
 20
3.329028991859722
 30
0.0
 42
0.4142135623730951
  0
VERTEX
  5
2B3
  8
LAYER_1
 10
3.5524
 20
3.454528991859725
 30
0.0
  0
SEQEND
  5
7E4
  8
LAYER_1
  0
POLYLINE
  5
7F
  8
LAYER_1
 66
     1
 10
0.0
 20
0.0
 30
0.0
 70
     1
  0
VERTEX
  5
2B4
  8
LAYER_1
 10
94.0
 20
26.17712899185972
 30
0.0
  0
VERTEX
  5
2B5
  8
LAYER_1
 10
94.0
 20
26.55212899185972
 30
0.0
  0
VERTEX
  5
2B6
  8
LAYER_1
 10
77.75
 20
26.55212899185972
 30
0.0
  0
VERTEX
  5
2B7
  8
LAYER_1
 10
77.75
 20
26.17712899185972
 30
0.0
  0
SEQEND
  5
7E5
  8
LAYER_1
  0
POLYLINE
  5
80
  8
LAYER_1
 66
     1
 10
0.0
 20
0.0
 30
0.0
 70
     1
  0
VERTEX
  5
2B8
  8
LAYER_1
 10
77.875
 20
5.830751121395849
 30
0.0
  0
VERTEX
  5
2B9
  8
LAYER_1
 10
77.875
 20
26.42712899185972
 30
0.0
  0
VERTEX
  5
2BA
  8
LAYER_1
 10
93.875
 20
26.42712899185972
 30
0.0
  0
VERTEX
  5
2BB
  8
LAYER_1
 10
93.875
 20
2.927128991859725
 30
0.0
  0
VERTEX
  5
2BC
  8
LAYER_1
 10
77.875
 20
2.927128991859725
 30
0.0
  0
VERTEX
  5
2BD
  8
LAYER_1
 10
77.875
 20
4.982567876102223
 30
0.0
  0
VERTEX
  5
2BE
  8
LAYER_1
 10
77.875
 20
5.177128991859725
 30
0.0
  0
VERTEX
  5
2BF
  8
LAYER_1
 10
78.7062696257435
 20
5.177128991859725
 30
0.0
  0
VERTEX
  5
2C0
  8
LAYER_1
 10
78.8125
 20
5.177128991859725
 30
0.0
 42
0.4142135623730951
  0
VERTEX
  5
2C1
  8
LAYER_1
 10
79.0625
 20
5.427128991859725
 30
0.0
 42
0.4142135623730951
  0
VERTEX
  5
2C2
  8
LAYER_1
 10
78.8125
 20
5.677128991859725
 30
0.0
  0
VERTEX
  5
2C3
  8
LAYER_1
 10
78.69949336216547
 20
5.677128991859725
 30
0.0
  0
VERTEX
  5
2C4
  8
LAYER_1
 10
77.875
 20
5.677128991859725
 30
0.0
  0
SEQEND
  5
7E6
  8
LAYER_1
  0
POLYLINE
  5
81
  8
LAYER_1
 66
     1
 10
0.0
 20
0.0
 30
0.0
 70
     1
  0
VERTEX
  5
2C5
  8
LAYER_1
 10
94.0
 20
2.802128991859725
 30
0.0
  0
VERTEX
  5
2C6
  8
LAYER_1
 10
94.0
 20
3.177128991859725
 30
0.0
  0
VERTEX
  5
2C7
  8
LAYER_1
 10
77.75
 20
3.177128991859725
 30
0.0
  0
VERTEX
  5
2C8
  8
LAYER_1
 10
77.75
 20
2.802128991859725
 30
0.0
  0
SEQEND
  5
7E7
  8
LAYER_1
  0
POLYLINE
  5
82
  8
LAYER_1
 66
     1
 10
0.0
 20
0.0
 30
0.0
 70
     1
  0
VERTEX
  5
2C9
  8
LAYER_1
 10
1.223856466559686
 20
36.93846439977569
 30
0.0
  0
VERTEX
  5
2CA
  8
LAYER_1
 10
31.51119457090146
 20
36.9363320649683
 30
0.0
  0
VERTEX
  5
2CB
  8
LAYER_1
 10
31.51119457090146
 20
36.37410774237367
 30
0.0
  0
VERTEX
  5
2CC
  8
LAYER_1
 10
0.3172337321667822
 20
36.37499999887839
 30
0.0
  0
VERTEX
  5
2CD
  8
LAYER_1
 10
0.3172337321667822
 20
42.87499999887839
 30
0.0
  0
VERTEX
  5
2CE
  8
LAYER_1
 10
0.3825759871095098
 20
42.87598618373778
 30
0.0
  0
VERTEX
  5
2CF
  8
LAYER_1
 10
0.7575759871095098
 20
42.87598618373778
 30
0.0
  0
VERTEX
  5
2D0
  8
LAYER_1
 10
0.7575759871095098
 20
37.4334109285865
 30
0.0
  0
VERTEX
  5
2D1
  8
LAYER_1
 10
0.7577505402526257
 20
37.42275778968557
 30
0.0
  0
VERTEX
  5
2D2
  8
LAYER_1
 10
0.7582703447527394
 20
37.41205073694676
 30
0.0
  0
VERTEX
  5
2D3
  8
LAYER_1
 10
0.7591296182159996
 20
37.40129686389584
 30
0.0
  0
VERTEX
  5
2D4
  8
LAYER_1
 10
0.760322578248555
 20
37.39050326405859
 30
0.0
  0
VERTEX
  5
2D5
  8
LAYER_1
 10
0.7618434424565544
 20
37.37967703096079
 30
0.0
  0
VERTEX
  5
2D6
  8
LAYER_1
 10
0.7636864284461469
 20
37.36882525812823
 30
0.0
  0
VERTEX
  5
2D7
  8
LAYER_1
 10
0.7683156361947056
 20
37.34707346736189
 30
0.0
  0
VERTEX
  5
2D8
  8
LAYER_1
 10
0.7741639423434212
 20
37.32530463996579
 30
0.0
  0
VERTEX
  5
2D9
  8
LAYER_1
 10
0.7811850877414845
 20
37.30357552414618
 30
0.0
  0
VERTEX
  5
2DA
  8
LAYER_1
 10
0.7893328132380855
 20
37.28194286810927
 30
0.0
  0
VERTEX
  5
2DB
  8
LAYER_1
 10
0.7985608596824146
 20
37.26046342006129
 30
0.0
  0
VERTEX
  5
2DC
  8
LAYER_1
 10
0.8088229679236623
 20
37.23919392820846
 30
0.0
  0
VERTEX
  5
2DD
  8
LAYER_1
 10
0.8200728788110188
 20
37.21819114075701
 30
0.0
  0
VERTEX
  5
2DE
  8
LAYER_1
 10
0.8322643331936744
 20
37.19751180591318
 30
0.0
  0
VERTEX
  5
2DF
  8
LAYER_1
 10
0.8453510719208198
 20
37.17721267188317
 30
0.0
  0
VERTEX
  5
2E0
  8
LAYER_1
 10
0.8592868358416451
 20
37.15735048687321
 30
0.0
  0
VERTEX
  5
2E1
  8
LAYER_1
 10
0.8740253658053406
 20
37.13798199908955
 30
0.0
  0
VERTEX
  5
2E2
  8
LAYER_1
 10
0.8895204026610968
 20
37.1191639567384
 30
0.0
  0
VERTEX
  5
2E3
  8
LAYER_1
 10
0.9057256872581041
 20
37.10095310802598
 30
0.0
  0
VERTEX
  5
2E4
  8
LAYER_1
 10
0.9225949604455527
 20
37.08340620115852
 30
0.0
  0
VERTEX
  5
2E5
  8
LAYER_1
 10
0.9400819630726329
 20
37.06657998434225
 30
0.0
  0
VERTEX
  5
2E6
  8
LAYER_1
 10
0.9581404359885353
 20
37.05053120578339
 30
0.0
  0
VERTEX
  5
2E7
  8
LAYER_1
 10
0.97672412004245
 20
37.03531661368818
 30
0.0
  0
VERTEX
  5
2E8
  8
LAYER_1
 10
0.9957867560835676
 20
37.02099295626283
 30
0.0
  0
VERTEX
  5
2E9
  8
LAYER_1
 10
1.015282084961078
 20
37.00761698171357
 30
0.0
  0
VERTEX
  5
2EA
  8
LAYER_1
 10
1.035163847524172
 20
36.99524543824663
 30
0.0
  0
VERTEX
  5
2EB
  8
LAYER_1
 10
1.05538578462204
 20
36.98393507406823
 30
0.0
  0
VERTEX
  5
2EC
  8
LAYER_1
 10
1.075901637103873
 20
36.9737426373846
 30
0.0
  0
VERTEX
  5
2ED
  8
LAYER_1
 10
1.09666514581886
 20
36.96472487640196
 30
0.0
  0
VERTEX
  5
2EE
  8
LAYER_1
 10
1.107125315279158
 20
36.96067423311295
 30
0.0
  0
VERTEX
  5
2EF
  8
LAYER_1
 10
1.117630051616191
 20
36.95693853932654
 30
0.0
  0
VERTEX
  5
2F0
  8
LAYER_1
 10
1.128173572436109
 20
36.9535248885685
 30
0.0
  0
VERTEX
  5
2F1
  8
LAYER_1
 10
1.138750095345058
 20
36.95044037436458
 30
0.0
  0
VERTEX
  5
2F2
  8
LAYER_1
 10
1.14935383794919
 20
36.94769209024058
 30
0.0
  0
VERTEX
  5
2F3
  8
LAYER_1
 10
1.159979017854651
 20
36.94528712972227
 30
0.0
  0
VERTEX
  5
2F4
  8
LAYER_1
 10
1.170619852667592
 20
36.94323258633545
 30
0.0
  0
VERTEX
  5
2F5
  8
LAYER_1
 10
1.18127055999416
 20
36.94153555360588
 30
0.0
  0
VERTEX
  5
2F6
  8
LAYER_1
 10
1.191925357440504
 20
36.94020312505934
 30
0.0
  0
VERTEX
  5
2F7
  8
LAYER_1
 10
1.202578462612775
 20
36.93924239422161
 30
0.0
  0
VERTEX
  5
2F8
  8
LAYER_1
 10
1.213224093117119
 20
36.93866045461847
 30
0.0
  0
SEQEND
  5
7E8
  8
LAYER_1
  0
POLYLINE
  5
83
  8
LAYER_1
 66
     1
 10
0.0
 20
0.0
 30
0.0
 70
     1
  0
VERTEX
  5
2F9
  8
LAYER_1
 10
1.262719618672596
 20
42.75098618373778
 30
0.0
  0
VERTEX
  5
2FA
  8
LAYER_1
 10
0.3825759871095098
 20
42.75098618373778
 30
0.0
  0
VERTEX
  5
2FB
  8
LAYER_1
 10
0.3825759871095098
 20
37.49120862254361
 30
0.0
  0
VERTEX
  5
2FC
  8
LAYER_1
 10
0.3853526611550375
 20
37.37813720682833
 30
0.0
  0
VERTEX
  5
2FD
  8
LAYER_1
 10
0.3856384426701465
 20
37.35555306337395
 30
0.0
  0
VERTEX
  5
2FE
  8
LAYER_1
 10
0.3864912057254269
 20
37.3331098228854
 30
0.0
  0
VERTEX
  5
2FF
  8
LAYER_1
 10
0.3879040780858087
 20
37.31081435759776
 30
0.0
  0
VERTEX
  5
300
  8
LAYER_1
 10
0.3898701875162222
 20
37.2886735397461
 30
0.0
  0
VERTEX
  5
301
  8
LAYER_1
 10
0.3923826617815972
 20
37.26669424156548
 30
0.0
  0
VERTEX
  5
302
  8
LAYER_1
 10
0.3954346286468641
 20
37.24488333529098
 30
0.0
  0
VERTEX
  5
303
  8
LAYER_1
 10
0.3990192158769528
 20
37.22324769315767
 30
0.0
  0
VERTEX
  5
304
  8
LAYER_1
 10
0.4031295512367936
 20
37.20179418740062
 30
0.0
  0
VERTEX
  5
305
  8
LAYER_1
 10
0.4077587624913163
 20
37.18052969025489
 30
0.0
  0
VERTEX
  5
306
  8
LAYER_1
 10
0.4128999774054511
 20
37.15946107395555
 30
0.0
  0
VERTEX
  5
307
  8
LAYER_1
 10
0.4185463237441283
 20
37.13859521073769
 30
0.0
  0
VERTEX
  5
308
  8
LAYER_1
 10
0.4246909292722778
 20
37.11793897283637
 30
0.0
  0
VERTEX
  5
309
  8
LAYER_1
 10
0.4313269217548296
 20
37.09749923248664
 30
0.0
  0
VERTEX
  5
30A
  8
LAYER_1
 10
0.4384474289567141
 20
37.0772828619236
 30
0.0
  0
VERTEX
  5
30B
  8
LAYER_1
 10
0.4460455786428612
 20
37.0572967333823
 30
0.0
  0
VERTEX
  5
30C
  8
LAYER_1
 10
0.454114498578201
 20
37.03754771909782
 30
0.0
  0
VERTEX
  5
30D
  8
LAYER_1
 10
0.4626473165276636
 20
37.01804269130523
 30
0.0
  0
VERTEX
  5
30E
  8
LAYER_1
 10
0.4716371602561791
 20
36.99878852223958
 30
0.0
  0
VERTEX
  5
30F
  8
LAYER_1
 10
0.4810771575286777
 20
36.97979208413597
 30
0.0
  0
VERTEX
  5
310
  8
LAYER_1
 10
0.4909604361100893
 20
36.96106024922945
 30
0.0
  0
VERTEX
  5
311
  8
LAYER_1
 10
0.5012801237653441
 20
36.94259988975509
 30
0.0
  0
VERTEX
  5
312
  8
LAYER_1
 10
0.5120293482593723
 20
36.92441787794797
 30
0.0
  0
VERTEX
  5
313
  8
LAYER_1
 10
0.5232012373571039
 20
36.90652108604316
 30
0.0
  0
VERTEX
  5
314
  8
LAYER_1
 10
0.5347889188234689
 20
36.88891638627571
 30
0.0
  0
VERTEX
  5
315
  8
LAYER_1
 10
0.5467855204233975
 20
36.87161065088071
 30
0.0
  0
VERTEX
  5
316
  8
LAYER_1
 10
0.5591841699218199
 20
36.85461075209324
 30
0.0
  0
VERTEX
  5
317
  8
LAYER_1
 10
0.5719779950836659
 20
36.83792356214835
 30
0.0
  0
VERTEX
  5
318
  8
LAYER_1
 10
0.5851601236738657
 20
36.82155595328111
 30
0.0
  0
VERTEX
  5
319
  8
LAYER_1
 10
0.5987236834573496
 20
36.80551479772659
 30
0.0
  0
VERTEX
  5
31A
  8
LAYER_1
 10
0.6126618021990475
 20
36.78980696771987
 30
0.0
  0
VERTEX
  5
31B
  8
LAYER_1
 10
0.6269676076638897
 20
36.77443933549601
 30
0.0
  0
VERTEX
  5
31C
  8
LAYER_1
 10
0.6416342276168061
 20
36.75941877329009
 30
0.0
  0
VERTEX
  5
31D
  8
LAYER_1
 10
0.6566547898227268
 20
36.74475215333717
 30
0.0
  0
VERTEX
  5
31E
  8
LAYER_1
 10
0.672022422046582
 20
36.73044634787233
 30
0.0
  0
VERTEX
  5
31F
  8
LAYER_1
 10
0.6877302520533016
 20
36.71650822913064
 30
0.0
  0
VERTEX
  5
320
  8
LAYER_1
 10
0.7037714076078161
 20
36.70294466934715
 30
0.0
  0
VERTEX
  5
321
  8
LAYER_1
 10
0.7201390164750552
 20
36.68976254075695
 30
0.0
  0
VERTEX
  5
322
  8
LAYER_1
 10
0.7368262064199491
 20
36.67696871559511
 30
0.0
  0
VERTEX
  5
323
  8
LAYER_1
 10
0.753826105207428
 20
36.66457006609669
 30
0.0
  0
VERTEX
  5
324
  8
LAYER_1
 10
0.7711318406024219
 20
36.65257346449675
 30
0.0
  0
VERTEX
  5
325
  8
LAYER_1
 10
0.7887365403698609
 20
36.64098578303039
 30
0.0
  0
VERTEX
  5
326
  8
LAYER_1
 10
0.806633332274675
 20
36.62981389393266
 30
0.0
  0
VERTEX
  5
327
  8
LAYER_1
 10
0.8248153440817947
 20
36.61906466943864
 30
0.0
  0
VERTEX
  5
328
  8
LAYER_1
 10
0.8432757035561496
 20
36.60874498178337
 30
0.0
  0
VERTEX
  5
329
  8
LAYER_1
 10
0.86200753846267
 20
36.59886170320196
 30
0.0
  0
VERTEX
  5
32A
  8
LAYER_1
 10
0.8810039765662859
 20
36.58942170592947
 30
0.0
  0
VERTEX
  5
32B
  8
LAYER_1
 10
0.9002581456319276
 20
36.58043186220095
 30
0.0
  0
VERTEX
  5
32C
  8
LAYER_1
 10
0.9197631734245252
 20
36.5718990442515
 30
0.0
  0
VERTEX
  5
32D
  8
LAYER_1
 10
0.9395121877090087
 20
36.56383012431615
 30
0.0
  0
VERTEX
  5
32E
  8
LAYER_1
 10
0.9594983162503079
 20
36.55623197463001
 30
0.0
  0
VERTEX
  5
32F
  8
LAYER_1
 10
0.9797146868133533
 20
36.54911146742812
 30
0.0
  0
VERTEX
  5
330
  8
LAYER_1
 10
1.000154427163075
 20
36.54247547494557
 30
0.0
  0
VERTEX
  5
331
  8
LAYER_1
 10
1.020810665064403
 20
36.53633086941742
 30
0.0
  0
VERTEX
  5
332
  8
LAYER_1
 10
1.041676528282267
 20
36.53068452307874
 30
0.0
  0
VERTEX
  5
333
  8
LAYER_1
 10
1.062745144581598
 20
36.52554330816461
 30
0.0
  0
VERTEX
  5
334
  8
LAYER_1
 10
1.084009641727325
 20
36.52091409691008
 30
0.0
  0
VERTEX
  5
335
  8
LAYER_1
 10
1.105463147484379
 20
36.51680376155024
 30
0.0
  0
VERTEX
  5
336
  8
LAYER_1
 10
1.12709878961769
 20
36.51321917432015
 30
0.0
  0
VERTEX
  5
337
  8
LAYER_1
 10
1.148909695892187
 20
36.51016720745488
 30
0.0
  0
VERTEX
  5
338
  8
LAYER_1
 10
1.170888994072802
 20
36.50765473318951
 30
0.0
  0
VERTEX
  5
339
  8
LAYER_1
 10
1.193029811924463
 20
36.5056886237591
 30
0.0
  0
VERTEX
  5
33A
  8
LAYER_1
 10
1.215325277212101
 20
36.50427575139872
 30
0.0
  0
VERTEX
  5
33B
  8
LAYER_1
 10
1.237768517700647
 20
36.50342298834344
 30
0.0
  0
VERTEX
  5
33C
  8
LAYER_1
 10
1.26035266115503
 20
36.50313720682833
 30
0.0
  0
VERTEX
  5
33D
  8
LAYER_1
 10
1.314131770196949
 20
36.50098636592588
 30
0.0
  0
VERTEX
  5
33E
  8
LAYER_1
 10
31.38273373216678
 20
36.50099999887839
 30
0.0
  0
VERTEX
  5
33F
  8
LAYER_1
 10
31.38273373216678
 20
42.75099999887838
 30
0.0
  0
VERTEX
  5
340
  8
LAYER_1
 10
30.50247462677691
 20
42.75099427652515
 30
0.0
  0
VERTEX
  5
341
  8
LAYER_1
 10
30.38273373216678
 20
42.75099999887838
 30
0.0
  0
VERTEX
  5
342
  8
LAYER_1
 10
30.38273373216678
 20
42.50099999887838
 30
0.0
  0
VERTEX
  5
343
  8
LAYER_1
 10
1.507733732166775
 20
42.50099999887839
 30
0.0
  0
VERTEX
  5
344
  8
LAYER_1
 10
1.507733732166775
 20
42.75099999887839
 30
0.0
  0
SEQEND
  5
7E9
  8
LAYER_1
  0
POLYLINE
  5
84
  8
LAYER_1
 66
     1
 10
0.0
 20
0.0
 30
0.0
 70
     1
  0
VERTEX
  5
345
  8
LAYER_1
 10
13.56973373216679
 20
37.37599999887839
 30
0.0
 42
0.4142135623730951
  0
VERTEX
  5
346
  8
LAYER_1
 10
13.69523373216678
 20
37.25049999887839
 30
0.0
 42
0.4142135623730951
  0
VERTEX
  5
347
  8
LAYER_1
 10
13.82073373216678
 20
37.37599999887839
 30
0.0
 42
0.4142135623730951
  0
VERTEX
  5
348
  8
LAYER_1
 10
13.69523373216678
 20
37.50149999887839
 30
0.0
 42
0.4142135623730951
  0
SEQEND
  5
7EA
  8
LAYER_1
  0
POLYLINE
  5
85
  8
LAYER_1
 66
     1
 10
0.0
 20
0.0
 30
0.0
 70
     1
  0
VERTEX
  5
349
  8
LAYER_1
 10
10.63223373216679
 20
37.37599999887839
 30
0.0
 42
0.4142135623730951
  0
VERTEX
  5
34A
  8
LAYER_1
 10
10.75773373216678
 20
37.25049999887839
 30
0.0
 42
0.4142135623730951
  0
VERTEX
  5
34B
  8
LAYER_1
 10
10.88323373216678
 20
37.37599999887839
 30
0.0
 42
0.4142135623730951
  0
VERTEX
  5
34C
  8
LAYER_1
 10
10.75773373216678
 20
37.50149999887839
 30
0.0
 42
0.4142135623730951
  0
SEQEND
  5
7EB
  8
LAYER_1
  0
POLYLINE
  5
86
  8
LAYER_1
 66
     1
 10
0.0
 20
0.0
 30
0.0
 70
     1
  0
VERTEX
  5
34D
  8
LAYER_1
 10
24.80515028177833
 20
43.86448810269255
 30
0.0
  0
VERTEX
  5
34E
  8
LAYER_1
 10
48.55515028177833
 20
43.86448810269255
 30
0.0
  0
VERTEX
  5
34F
  8
LAYER_1
 10
48.55515028177833
 20
44.17698810269255
 30
0.0
  0
VERTEX
  5
350
  8
LAYER_1
 10
24.80515028177833
 20
44.17698810269255
 30
0.0
  0
SEQEND
  5
7EC
  8
LAYER_1
  0
POLYLINE
  5
87
  8
LAYER_1
 66
     1
 10
0.0
 20
0.0
 30
0.0
 70
     1
  0
VERTEX
  5
351
  8
LAYER_1
 10
37.18015028177833
 20
43.98948810269255
 30
0.0
  0
VERTEX
  5
352
  8
LAYER_1
 10
37.18015028177833
 20
44.48948810269255
 30
0.0
  0
VERTEX
  5
353
  8
LAYER_1
 10
36.18015028177833
 20
44.48948810269255
 30
0.0
  0
VERTEX
  5
354
  8
LAYER_1
 10
36.18015028177833
 20
43.98948810269255
 30
0.0
  0
VERTEX
  5
355
  8
LAYER_1
 10
36.14559728016717
 20
43.98948810269255
 30
0.0
  0
VERTEX
  5
356
  8
LAYER_1
 10
24.93015028177833
 20
43.98948810269255
 30
0.0
  0
VERTEX
  5
357
  8
LAYER_1
 10
24.93015028177833
 20
45.98948810269255
 30
0.0
  0
VERTEX
  5
358
  8
LAYER_1
 10
48.43015028177833
 20
45.98948810269255
 30
0.0
  0
VERTEX
  5
359
  8
LAYER_1
 10
48.43015028177833
 20
43.98948810269255
 30
0.0
  0
VERTEX
  5
35A
  8
LAYER_1
 10
37.2240077582528
 20
43.98948810269255
 30
0.0
  0
SEQEND
  5
7ED
  8
LAYER_1
  0
POLYLINE
  5
88
  8
LAYER_1
 66
     1
 10
0.0
 20
0.0
 30
0.0
 70
     1
  0
VERTEX
  5
35B
  8
LAYER_1
 10
76.24422354414527
 20
16.81829993738259
 30
0.0
  0
VERTEX
  5
35C
  8
LAYER_1
 10
75.61922354414527
 20
16.81829993738259
 30
0.0
  0
VERTEX
  5
35D
  8
LAYER_1
 10
75.61922354414527
 20
10.06829993738259
 30
0.0
  0
VERTEX
  5
35E
  8
LAYER_1
 10
76.24422354414527
 20
10.06829993738259
 30
0.0
  0
VERTEX
  5
35F
  8
LAYER_1
 10
76.24422354414527
 20
9.98856027350844
 30
0.0
  0
VERTEX
  5
360
  8
LAYER_1
 10
76.24422354414527
 20
2.943299937382591
 30
0.0
  0
VERTEX
  5
361
  8
LAYER_1
 10
73.99422354414527
 20
2.943299937382591
 30
0.0
  0
VERTEX
  5
362
  8
LAYER_1
 10
73.99422354414527
 20
26.44329993738259
 30
0.0
  0
VERTEX
  5
363
  8
LAYER_1
 10
76.24422354414527
 20
26.44329993738259
 30
0.0
  0
VERTEX
  5
364
  8
LAYER_1
 10
76.24422354414527
 20
16.9511574407971
 30
0.0
  0
SEQEND
  5
7EE
  8
LAYER_1
  0
POLYLINE
  5
89
  8
LAYER_1
 66
     1
 10
0.0
 20
0.0
 30
0.0
 70
     1
  0
VERTEX
  5
365
  8
LAYER_1
 10
76.36922354414527
 20
2.818299937382591
 30
0.0
  0
VERTEX
  5
366
  8
LAYER_1
 10
76.36922354414527
 20
3.193299937382591
 30
0.0
  0
VERTEX
  5
367
  8
LAYER_1
 10
73.86922354414527
 20
3.193299937382591
 30
0.0
  0
VERTEX
  5
368
  8
LAYER_1
 10
73.86922354414527
 20
2.818299937382591
 30
0.0
  0
SEQEND
  5
7EF
  8
LAYER_1
  0
POLYLINE
  5
8A
  8
LAYER_1
 66
     1
 10
0.0
 20
0.0
 30
0.0
 70
     1
  0
VERTEX
  5
369
  8
LAYER_1
 10
76.36922354414527
 20
26.19329993738259
 30
0.0
  0
VERTEX
  5
36A
  8
LAYER_1
 10
76.36922354414527
 20
26.56829993738259
 30
0.0
  0
VERTEX
  5
36B
  8
LAYER_1
 10
73.86922354414527
 20
26.56829993738259
 30
0.0
  0
VERTEX
  5
36C
  8
LAYER_1
 10
73.86922354414527
 20
26.19329993738259
 30
0.0
  0
SEQEND
  5
7F0
  8
LAYER_1
  0
POLYLINE
  5
8B
  8
LAYER_1
 66
     1
 10
0.0
 20
0.0
 30
0.0
 70
     1
  0
VERTEX
  5
36D
  8
LAYER_1
 10
0.3139949906073838
 20
44.125
 30
0.0
  0
VERTEX
  5
36E
  8
LAYER_1
 10
23.81399499060738
 20
44.125
 30
0.0
  0
VERTEX
  5
36F
  8
LAYER_1
 10
23.81399499060738
 20
47.875
 30
0.0
  0
VERTEX
  5
370
  8
LAYER_1
 10
0.3139949906073838
 20
47.875
 30
0.0
  0
SEQEND
  5
7F1
  8
LAYER_1
  0
POLYLINE
  5
8C
  8
LAYER_1
 66
     1
 10
0.0
 20
0.0
 30
0.0
 70
     1
  0
VERTEX
  5
371
  8
LAYER_1
 10
0.1889949906073838
 20
44.0
 30
0.0
  0
VERTEX
  5
372
  8
LAYER_1
 10
0.5639949906073838
 20
44.0
 30
0.0
  0
VERTEX
  5
373
  8
LAYER_1
 10
0.5639949906073838
 20
48.0
 30
0.0
  0
VERTEX
  5
374
  8
LAYER_1
 10
0.1889949906073838
 20
48.0
 30
0.0
  0
SEQEND
  5
7F2
  8
LAYER_1
  0
POLYLINE
  5
8D
  8
LAYER_1
 66
     1
 10
0.0
 20
0.0
 30
0.0
 70
     1
  0
VERTEX
  5
375
  8
LAYER_1
 10
23.56399499060738
 20
44.0
 30
0.0
  0
VERTEX
  5
376
  8
LAYER_1
 10
23.93899499060738
 20
44.0
 30
0.0
  0
VERTEX
  5
377
  8
LAYER_1
 10
23.93899499060738
 20
48.0
 30
0.0
  0
VERTEX
  5
378
  8
LAYER_1
 10
23.56399499060738
 20
48.0
 30
0.0
  0
SEQEND
  5
7F3
  8
LAYER_1
  0
POLYLINE
  5
8E
  8
LAYER_1
 66
     1
 10
0.0
 20
0.0
 30
0.0
 70
     1
  0
VERTEX
  5
379
  8
LAYER_1
 10
0.1889949906073838
 20
44.0
 30
0.0
  0
VERTEX
  5
37A
  8
LAYER_1
 10
0.5639949906073838
 20
44.0
 30
0.0
  0
VERTEX
  5
37B
  8
LAYER_1
 10
0.5639949906073838
 20
44.5
 30
0.0
  0
VERTEX
  5
37C
  8
LAYER_1
 10
0.1889949906073838
 20
44.5
 30
0.0
  0
SEQEND
  5
7F4
  8
LAYER_1
  0
POLYLINE
  5
8F
  8
LAYER_1
 66
     1
 10
0.0
 20
0.0
 30
0.0
 70
     1
  0
VERTEX
  5
37D
  8
LAYER_1
 10
23.56399499060738
 20
44.0
 30
0.0
  0
VERTEX
  5
37E
  8
LAYER_1
 10
23.93899499060738
 20
44.0
 30
0.0
  0
VERTEX
  5
37F
  8
LAYER_1
 10
23.93899499060738
 20
44.5
 30
0.0
  0
VERTEX
  5
380
  8
LAYER_1
 10
23.56399499060738
 20
44.5
 30
0.0
  0
SEQEND
  5
7F5
  8
LAYER_1
  0
POLYLINE
  5
90
  8
LAYER_1
 66
     1
 10
0.0
 20
0.0
 30
0.0
 70
     1
  0
VERTEX
  5
381
  8
LAYER_1
 10
23.56399499060738
 20
47.5
 30
0.0
  0
VERTEX
  5
382
  8
LAYER_1
 10
23.93899499060738
 20
47.5
 30
0.0
  0
VERTEX
  5
383
  8
LAYER_1
 10
23.93899499060738
 20
48.0
 30
0.0
  0
VERTEX
  5
384
  8
LAYER_1
 10
23.56399499060738
 20
48.0
 30
0.0
  0
SEQEND
  5
7F6
  8
LAYER_1
  0
POLYLINE
  5
91
  8
LAYER_1
 66
     1
 10
0.0
 20
0.0
 30
0.0
 70
     1
  0
VERTEX
  5
385
  8
LAYER_1
 10
0.1889949906073838
 20
47.5
 30
0.0
  0
VERTEX
  5
386
  8
LAYER_1
 10
0.5639949906073838
 20
47.5
 30
0.0
  0
VERTEX
  5
387
  8
LAYER_1
 10
0.5639949906073838
 20
48.0
 30
0.0
  0
VERTEX
  5
388
  8
LAYER_1
 10
0.1889949906073838
 20
48.0
 30
0.0
  0
SEQEND
  5
7F7
  8
LAYER_1
  0
POLYLINE
  5
92
  8
LAYER_1
 66
     1
 10
0.0
 20
0.0
 30
0.0
 70
     1
  0
VERTEX
  5
389
  8
LAYER_1
 10
32.44123356293049
 20
36.62319192235441
 30
0.0
  0
VERTEX
  5
38A
  8
LAYER_1
 10
55.94123356293049
 20
36.62319192235441
 30
0.0
  0
VERTEX
  5
38B
  8
LAYER_1
 10
55.94123356293049
 20
42.24819192235441
 30
0.0
  0
VERTEX
  5
38C
  8
LAYER_1
 10
32.44123356293049
 20
42.24819192235441
 30
0.0
  0
SEQEND
  5
7F8
  8
LAYER_1
  0
POLYLINE
  5
93
  8
LAYER_1
 66
     1
 10
0.0
 20
0.0
 30
0.0
 70
     1
  0
VERTEX
  5
38D
  8
LAYER_1
 10
32.31623356293049
 20
36.49819192235441
 30
0.0
  0
VERTEX
  5
38E
  8
LAYER_1
 10
56.06623356293049
 20
36.49819192235441
 30
0.0
  0
VERTEX
  5
38F
  8
LAYER_1
 10
56.06623356293049
 20
37.12319192235441
 30
0.0
  0
VERTEX
  5
390
  8
LAYER_1
 10
32.31623356293049
 20
37.12319192235441
 30
0.0
  0
SEQEND
  5
7F9
  8
LAYER_1
  0
POLYLINE
  5
94
  8
LAYER_1
 66
     1
 10
0.0
 20
0.0
 30
0.0
 70
     1
  0
VERTEX
  5
391
  8
LAYER_1
 10
32.31623356293049
 20
36.49819192235441
 30
0.0
  0
VERTEX
  5
392
  8
LAYER_1
 10
32.69123356293049
 20
36.49819192235441
 30
0.0
  0
VERTEX
  5
393
  8
LAYER_1
 10
32.69123356293049
 20
42.37319192235441
 30
0.0
  0
VERTEX
  5
394
  8
LAYER_1
 10
32.31623356293049
 20
42.37319192235441
 30
0.0
  0
SEQEND
  5
7FA
  8
LAYER_1
  0
POLYLINE
  5
95
  8
LAYER_1
 66
     1
 10
0.0
 20
0.0
 30
0.0
 70
     1
  0
VERTEX
  5
395
  8
LAYER_1
 10
55.69123356293049
 20
36.49819192235441
 30
0.0
  0
VERTEX
  5
396
  8
LAYER_1
 10
56.06623356293049
 20
36.49819192235441
 30
0.0
  0
VERTEX
  5
397
  8
LAYER_1
 10
56.06623356293049
 20
42.37319192235441
 30
0.0
  0
VERTEX
  5
398
  8
LAYER_1
 10
55.69123356293049
 20
42.37319192235441
 30
0.0
  0
SEQEND
  5
7FB
  8
LAYER_1
  0
POLYLINE
  5
96
  8
LAYER_1
 66
     1
 10
0.0
 20
0.0
 30
0.0
 70
     1
  0
VERTEX
  5
399
  8
LAYER_1
 10
33.81623356293049
 20
40.62319192235441
 30
0.0
 42
0.4142135623730951
  0
VERTEX
  5
39A
  8
LAYER_1
 10
34.44123356293049
 20
39.99819192235441
 30
0.0
  0
VERTEX
  5
39B
  8
LAYER_1
 10
37.44123356293049
 20
39.99819192235441
 30
0.0
 42
0.4142135623730951
  0
VERTEX
  5
39C
  8
LAYER_1
 10
38.06623356293049
 20
40.62319192235441
 30
0.0
 42
0.4142135623730951
  0
VERTEX
  5
39D
  8
LAYER_1
 10
37.44123356293049
 20
41.24819192235441
 30
0.0
  0
VERTEX
  5
39E
  8
LAYER_1
 10
34.44123356293049
 20
41.24819192235441
 30
0.0
 42
0.4142135623730951
  0
SEQEND
  5
7FC
  8
LAYER_1
  0
POLYLINE
  5
97
  8
LAYER_1
 66
     1
 10
0.0
 20
0.0
 30
0.0
 70
     1
  0
VERTEX
  5
39F
  8
LAYER_1
 10
50.31623356293049
 20
40.62319192235441
 30
0.0
 42
0.4142135623730951
  0
VERTEX
  5
3A0
  8
LAYER_1
 10
50.94123356293049
 20
39.99819192235441
 30
0.0
  0
VERTEX
  5
3A1
  8
LAYER_1
 10
53.94123356293049
 20
39.99819192235441
 30
0.0
 42
0.4142135623730951
  0
VERTEX
  5
3A2
  8
LAYER_1
 10
54.56623356293049
 20
40.62319192235441
 30
0.0
 42
0.4142135623730951
  0
VERTEX
  5
3A3
  8
LAYER_1
 10
53.94123356293049
 20
41.24819192235441
 30
0.0
  0
VERTEX
  5
3A4
  8
LAYER_1
 10
50.94123356293049
 20
41.24819192235441
 30
0.0
 42
0.4142135623730951
  0
SEQEND
  5
7FD
  8
LAYER_1
  0
POLYLINE
  5
98
  8
LAYER_1
 66
     1
 10
0.0
 20
0.0
 30
0.0
 70
     1
  0
VERTEX
  5
3A5
  8
LAYER_1
 10
40.81623356293049
 20
41.24819192235441
 30
0.0
 42
0.4142135623730951
  0
VERTEX
  5
3A6
  8
LAYER_1
 10
40.19123356293049
 20
40.62319192235441
 30
0.0
 42
0.4142135623730951
  0
VERTEX
  5
3A7
  8
LAYER_1
 10
40.81623356293049
 20
39.99819192235441
 30
0.0
 42
0.4142135623730951
  0
VERTEX
  5
3A8
  8
LAYER_1
 10
41.44123356293049
 20
40.62319192235441
 30
0.0
 42
0.4142135623730951
  0
SEQEND
  5
7FE
  8
LAYER_1
  0
POLYLINE
  5
99
  8
LAYER_1
 66
     1
 10
0.0
 20
0.0
 30
0.0
 70
     1
  0
VERTEX
  5
3A9
  8
LAYER_1
 10
44.19123356293049
 20
41.24819192235441
 30
0.0
 42
0.4142135623730951
  0
VERTEX
  5
3AA
  8
LAYER_1
 10
43.56623356293049
 20
40.62319192235441
 30
0.0
 42
0.4142135623730951
  0
VERTEX
  5
3AB
  8
LAYER_1
 10
44.19123356293049
 20
39.99819192235441
 30
0.0
 42
0.4142135623730951
  0
VERTEX
  5
3AC
  8
LAYER_1
 10
44.81623356293049
 20
40.62319192235441
 30
0.0
 42
0.4142135623730951
  0
SEQEND
  5
7FF
  8
LAYER_1
  0
POLYLINE
  5
9A
  8
LAYER_1
 66
     1
 10
0.0
 20
0.0
 30
0.0
 70
     1
  0
VERTEX
  5
3AD
  8
LAYER_1
 10
47.56623356293049
 20
41.24819192235441
 30
0.0
 42
0.4142135623730951
  0
VERTEX
  5
3AE
  8
LAYER_1
 10
46.94123356293049
 20
40.62319192235441
 30
0.0
 42
0.4142135623730951
  0
VERTEX
  5
3AF
  8
LAYER_1
 10
47.56623356293049
 20
39.99819192235441
 30
0.0
 42
0.4142135623730951
  0
VERTEX
  5
3B0
  8
LAYER_1
 10
48.19123356293049
 20
40.62319192235441
 30
0.0
 42
0.4142135623730951
  0
SEQEND
  5
800
  8
LAYER_1
  0
POLYLINE
  5
9B
  8
LAYER_1
 66
     1
 10
0.0
 20
0.0
 30
0.0
 70
     1
  0
VERTEX
  5
3B1
  8
LAYER_1
 10
79.89110441452725
 20
28.06568566061365
 30
0.0
  0
VERTEX
  5
3B2
  8
LAYER_1
 10
93.82860441452725
 20
28.06568566061365
 30
0.0
  0
VERTEX
  5
3B3
  8
LAYER_1
 10
93.82860441452725
 20
39.06568566061365
 30
0.0
  0
VERTEX
  5
3B4
  8
LAYER_1
 10
79.89110441452725
 20
39.06568566061365
 30
0.0
  0
SEQEND
  5
801
  8
LAYER_1
  0
POLYLINE
  5
9C
  8
LAYER_1
 66
     1
 10
0.0
 20
0.0
 30
0.0
 70
     1
  0
VERTEX
  5
3B5
  8
LAYER_1
 10
93.57860441452725
 20
27.94068566061365
 30
0.0
  0
VERTEX
  5
3B6
  8
LAYER_1
 10
93.95360441452725
 20
27.94068566061365
 30
0.0
  0
VERTEX
  5
3B7
  8
LAYER_1
 10
93.95360441452725
 20
39.19068566061365
 30
0.0
  0
VERTEX
  5
3B8
  8
LAYER_1
 10
93.57860441452725
 20
39.19068566061365
 30
0.0
  0
SEQEND
  5
802
  8
LAYER_1
  0
POLYLINE
  5
9D
  8
LAYER_1
 66
     1
 10
0.0
 20
0.0
 30
0.0
 70
     1
  0
VERTEX
  5
3B9
  8
LAYER_1
 10
56.39571462116469
 20
35.3181590482154
 30
0.0
  0
VERTEX
  5
3BA
  8
LAYER_1
 10
41.9582146211647
 20
35.3181590482154
 30
0.0
  0
VERTEX
  5
3BB
  8
LAYER_1
 10
41.95821462116469
 20
32.31815904821539
 30
0.0
  0
VERTEX
  5
3BC
  8
LAYER_1
 10
56.39571462116469
 20
32.31815904821539
 30
0.0
  0
SEQEND
  5
803
  8
LAYER_1
  0
POLYLINE
  5
9E
  8
LAYER_1
 66
     1
 10
0.0
 20
0.0
 30
0.0
 70
     1
  0
VERTEX
  5
3BD
  8
LAYER_1
 10
42.2082146211647
 20
35.4431590482154
 30
0.0
  0
VERTEX
  5
3BE
  8
LAYER_1
 10
41.8332146211647
 20
35.4431590482154
 30
0.0
  0
VERTEX
  5
3BF
  8
LAYER_1
 10
41.83321462116469
 20
32.19315904821539
 30
0.0
  0
VERTEX
  5
3C0
  8
LAYER_1
 10
42.20821462116469
 20
32.19315904821539
 30
0.0
  0
SEQEND
  5
804
  8
LAYER_1
  0
POLYLINE
  5
9F
  8
LAYER_1
 66
     1
 10
0.0
 20
0.0
 30
0.0
 70
     1
  0
VERTEX
  5
3C1
  8
LAYER_1
 10
57.50442898995336
 20
36.46827839462356
 30
0.0
  0
VERTEX
  5
3C2
  8
LAYER_1
 10
71.94192898995337
 20
36.46827839462356
 30
0.0
  0
VERTEX
  5
3C3
  8
LAYER_1
 10
71.94192898995337
 20
46.78077839462356
 30
0.0
  0
VERTEX
  5
3C4
  8
LAYER_1
 10
57.50442898995336
 20
46.78077839462356
 30
0.0
  0
SEQEND
  5
805
  8
LAYER_1
  0
POLYLINE
  5
A0
  8
LAYER_1
 66
     1
 10
0.0
 20
0.0
 30
0.0
 70
     1
  0
VERTEX
  5
3C5
  8
LAYER_1
 10
71.69192898995337
 20
36.34327839462356
 30
0.0
  0
VERTEX
  5
3C6
  8
LAYER_1
 10
72.06692898995337
 20
36.34327839462356
 30
0.0
  0
VERTEX
  5
3C7
  8
LAYER_1
 10
72.06692898995337
 20
46.90577839462356
 30
0.0
  0
VERTEX
  5
3C8
  8
LAYER_1
 10
71.69192898995337
 20
46.90577839462356
 30
0.0
  0
SEQEND
  5
806
  8
LAYER_1
  0
POLYLINE
  5
A1
  8
LAYER_1
 66
     1
 10
0.0
 20
0.0
 30
0.0
 70
     1
  0
VERTEX
  5
3C9
  8
LAYER_1
 10
82.8208452927909
 20
45.1340828387601
 30
0.0
  0
VERTEX
  5
3CA
  8
LAYER_1
 10
82.82521956272217
 20
45.11576193303106
 30
0.0
  0
VERTEX
  5
3CB
  8
LAYER_1
 10
82.82874950382319
 20
45.09675546001965
 30
0.0
  0
VERTEX
  5
3CC
  8
LAYER_1
 10
82.83147830166291
 20
45.07713500522438
 30
0.0
  0
VERTEX
  5
3CD
  8
LAYER_1
 10
82.83344914181029
 20
45.05697215414374
 30
0.0
  0
VERTEX
  5
3CE
  8
LAYER_1
 10
82.83470520983425
 20
45.03633849227623
 30
0.0
  0
VERTEX
  5
3CF
  8
LAYER_1
 10
82.83528969130374
 20
45.01530560512036
 30
0.0
  0
VERTEX
  5
3D0
  8
LAYER_1
 10
82.8352457717877
 20
44.99394507817463
 30
0.0
  0
VERTEX
  5
3D1
  8
LAYER_1
 10
82.83461663685506
 20
44.97232849693751
 30
0.0
  0
VERTEX
  5
3D2
  8
LAYER_1
 10
82.83344547207477
 20
44.95052744690754
 30
0.0
  0
VERTEX
  5
3D3
  8
LAYER_1
 10
82.8317754630158
 20
44.92861351358317
 30
0.0
  0
VERTEX
  5
3D4
  8
LAYER_1
 10
82.82964979524706
 20
44.90665828246294
 30
0.0
  0
VERTEX
  5
3D5
  8
LAYER_1
 10
82.82711165433747
 20
44.88473333904533
 30
0.0
  0
VERTEX
  5
3D6
  8
LAYER_1
 10
82.82420422585602
 20
44.86291026882884
 30
0.0
  0
VERTEX
  5
3D7
  8
LAYER_1
 10
82.82097069537161
 20
44.84126065731197
 30
0.0
  0
VERTEX
  5
3D8
  8
LAYER_1
 10
82.81369807066977
 20
44.79876815237108
 30
0.0
  0
VERTEX
  5
3D9
  8
LAYER_1
 10
82.80563926478348
 20
44.75782850821066
 30
0.0
  0
VERTEX
  5
3DA
  8
LAYER_1
 10
82.79713976226427
 20
44.71901440881867
 30
0.0
  0
VERTEX
  5
3DB
  8
LAYER_1
 10
82.78854504766366
 20
44.68289853818312
 30
0.0
  0
VERTEX
  5
3DC
  8
LAYER_1
 10
82.7802006055332
 20
44.650053580292
 30
0.0
  0
VERTEX
  5
3DD
  8
LAYER_1
 10
82.76564447688885
 20
44.59646713869495
 30
0.0
  0
VERTEX
  5
3DE
  8
LAYER_1
 10
82.75623525274352
 20
44.56283655593142
 30
0.0
  0
VERTEX
  5
3DF
  8
LAYER_1
 10
81.91253525274553
 20
41.40663655593217
 30
0.0
  0
VERTEX
  5
3E0
  8
LAYER_1
 10
81.90104035973695
 20
41.36225910288385
 30
0.0
  0
VERTEX
  5
3E1
  8
LAYER_1
 10
81.88922898138598
 20
41.3155586505053
 30
0.0
  0
VERTEX
  5
3E2
  8
LAYER_1
 10
81.87666934507934
 20
41.26733990603995
 30
0.0
  0
VERTEX
  5
3E3
  8
LAYER_1
 10
81.86997400125097
 20
41.24291264528831
 30
0.0
  0
VERTEX
  5
3E4
  8
LAYER_1
 10
81.8629296782037
 20
41.21840757673127
 30
0.0
  0
VERTEX
  5
3E5
  8
LAYER_1
 10
81.85548240436087
 20
41.19392528877426
 30
0.0
  0
VERTEX
  5
3E6
  8
LAYER_1
 10
81.84757820814579
 20
41.1695663698227
 30
0.0
  0
VERTEX
  5
3E7
  8
LAYER_1
 10
81.83916311798183
 20
41.14543140828204
 30
0.0
  0
VERTEX
  5
3E8
  8
LAYER_1
 10
81.83018316229233
 20
41.12162099255769
 30
0.0
  0
VERTEX
  5
3E9
  8
LAYER_1
 10
81.82058436950061
 20
41.09823571105511
 30
0.0
  0
VERTEX
  5
3EA
  8
LAYER_1
 10
81.81031276803
 20
41.07537615217971
 30
0.0
  0
VERTEX
  5
3EB
  8
LAYER_1
 10
81.79931438630385
 20
41.05314290433691
 30
0.0
  0
VERTEX
  5
3EC
  8
LAYER_1
 10
81.78753525274551
 20
41.03163655593217
 30
0.0
  0
VERTEX
  5
3ED
  8
LAYER_1
 10
81.78020890446685
 20
41.02011182737159
 30
0.0
  0
VERTEX
  5
3EE
  8
LAYER_1
 10
81.77200020552557
 20
41.00931800786736
 30
0.0
  0
VERTEX
  5
3EF
  8
LAYER_1
 10
81.7629564521059
 20
40.99923115798843
 30
0.0
  0
VERTEX
  5
3F0
  8
LAYER_1
 10
81.753124940392
 20
40.98982733830373
 30
0.0
  0
VERTEX
  5
3F1
  8
LAYER_1
 10
81.74255296656807
 20
40.98108260938221
 30
0.0
  0
VERTEX
  5
3F2
  8
LAYER_1
 10
81.7312878268183
 20
40.97297303179283
 30
0.0
  0
VERTEX
  5
3F3
  8
LAYER_1
 10
81.71937681732686
 20
40.96547466610454
 30
0.0
  0
VERTEX
  5
3F4
  8
LAYER_1
 10
81.70686723427795
 20
40.95856357288629
 30
0.0
  0
VERTEX
  5
3F5
  8
LAYER_1
 10
81.69380637385575
 20
40.95221581270704
 30
0.0
  0
VERTEX
  5
3F6
  8
LAYER_1
 10
81.68024153224445
 20
40.94640744613572
 30
0.0
  0
VERTEX
  5
3F7
  8
LAYER_1
 10
81.66622000562822
 20
40.94111453374129
 30
0.0
  0
VERTEX
  5
3F8
  8
LAYER_1
 10
81.65178909019126
 20
40.93631313609271
 30
0.0
  0
VERTEX
  5
3F9
  8
LAYER_1
 10
81.63699608211775
 20
40.93197931375892
 30
0.0
  0
VERTEX
  5
3FA
  8
LAYER_1
 10
81.62188827759189
 20
40.92808912730888
 30
0.0
  0
VERTEX
  5
3FB
  8
LAYER_1
 10
81.60651297279787
 20
40.92461863731154
 30
0.0
  0
VERTEX
  5
3FC
  8
LAYER_1
 10
81.59091746391985
 20
40.92154390433583
 30
0.0
  0
VERTEX
  5
3FD
  8
LAYER_1
 10
81.57514904714205
 20
40.91884098895073
 30
0.0
  0
VERTEX
  5
3FE
  8
LAYER_1
 10
81.55925501864863
 20
40.91648595172516
 30
0.0
  0
VERTEX
  5
3FF
  8
LAYER_1
 10
81.52727931125168
 20
40.9127237540285
 30
0.0
  0
VERTEX
  5
400
  8
LAYER_1
 10
81.4953687112025
 20
40.91006579579741
 30
0.0
  0
VERTEX
  5
401
  8
LAYER_1
 10
81.46390158797462
 20
40.90832056158354
 30
0.0
  0
VERTEX
  5
402
  8
LAYER_1
 10
81.43325631104149
 20
40.90729653593847
 30
0.0
  0
VERTEX
  5
403
  8
LAYER_1
 10
81.40381124987661
 20
40.90680220341382
 30
0.0
  0
VERTEX
  5
404
  8
LAYER_1
 10
81.35003525274557
 20
40.90663655593217
 30
0.0
  0
VERTEX
  5
405
  8
LAYER_1
 10
73.35003525274547
 20
40.90663655593217
 30
0.0
  0
VERTEX
  5
406
  8
LAYER_1
 10
73.35003525274547
 20
44.60663655593217
 30
0.0
  0
VERTEX
  5
407
  8
LAYER_1
 10
73.35003525274547
 20
44.64663655593217
 30
0.0
  0
VERTEX
  5
408
  8
LAYER_1
 10
73.35003525274547
 20
44.65663655593217
 30
0.0
  0
VERTEX
  5
409
  8
LAYER_1
 10
73.41253525274547
 20
44.65663655593217
 30
0.0
  0
VERTEX
  5
40A
  8
LAYER_1
 10
73.41253525274547
 20
45.65663655593218
 30
0.0
  0
VERTEX
  5
40B
  8
LAYER_1
 10
74.22503525274549
 20
46.15663655593218
 30
0.0
  0
VERTEX
  5
40C
  8
LAYER_1
 10
74.22503525274549
 20
46.14098655593219
 30
0.0
 42
0.4142135623730951
  0
VERTEX
  5
40D
  8
LAYER_1
 10
74.44378525274549
 20
45.92223655593219
 30
0.0
 42
0.4142135623730951
  0
VERTEX
  5
40E
  8
LAYER_1
 10
74.66253525274549
 20
46.14098655593219
 30
0.0
  0
VERTEX
  5
40F
  8
LAYER_1
 10
74.66253525274549
 20
46.18783655593221
 30
0.0
  0
VERTEX
  5
410
  8
LAYER_1
 10
74.66253525274547
 20
46.53163655593218
 30
0.0
  0
VERTEX
  5
411
  8
LAYER_1
 10
74.66247486977286
 20
46.56134092079353
 30
0.0
  0
VERTEX
  5
412
  8
LAYER_1
 10
74.66288626112512
 20
46.59278915628579
 30
0.0
  0
VERTEX
  5
413
  8
LAYER_1
 10
74.66354662542466
 20
46.60878908212256
 30
0.0
  0
VERTEX
  5
414
  8
LAYER_1
 10
74.66465823720733
 20
46.62477120354189
 30
0.0
  0
VERTEX
  5
415
  8
LAYER_1
 10
74.66633219777376
 20
46.64058426318542
 30
0.0
  0
VERTEX
  5
416
  8
LAYER_1
 10
74.66867960842455
 20
46.65607700369475
 30
0.0
  0
VERTEX
  5
417
  8
LAYER_1
 10
74.67181157046039
 20
46.67109816771149
 30
0.0
  0
VERTEX
  5
418
  8
LAYER_1
 10
74.6758391851819
 20
46.68549649787728
 30
0.0
  0
VERTEX
  5
419
  8
LAYER_1
 10
74.67822358145622
 20
46.69241483234157
 30
0.0
  0
VERTEX
  5
41A
  8
LAYER_1
 10
74.6808735538897
 20
46.69912073683373
 30
0.0
  0
VERTEX
  5
41B
  8
LAYER_1
 10
74.68380299014493
 20
46.70559530418394
 30
0.0
  0
VERTEX
  5
41C
  8
LAYER_1
 10
74.68702577788444
 20
46.71181962722244
 30
0.0
  0
VERTEX
  5
41D
  8
LAYER_1
 10
74.69055580477087
 20
46.7177747987794
 30
0.0
  0
VERTEX
  5
41E
  8
LAYER_1
 10
74.69440695846676
 20
46.72344191168504
 30
0.0
  0
VERTEX
  5
41F
  8
LAYER_1
 10
74.6985931266347
 20
46.72880205876955
 30
0.0
  0
VERTEX
  5
420
  8
LAYER_1
 10
74.70312819693727
 20
46.73383633286313
 30
0.0
  0
VERTEX
  5
421
  8
LAYER_1
 10
74.70802605703707
 20
46.738525826796
 30
0.0
  0
VERTEX
  5
422
  8
LAYER_1
 10
74.71330059459665
 20
46.74285163339835
 30
0.0
  0
VERTEX
  5
423
  8
LAYER_1
 10
74.71896569727859
 20
46.74679484550038
 30
0.0
  0
VERTEX
  5
424
  8
LAYER_1
 10
74.72503525274549
 20
46.75033655593229
 30
0.0
  0
VERTEX
  5
425
  8
LAYER_1
 10
75.72503525274541
 20
47.281636555932
 30
0.0
  0
VERTEX
  5
426
  8
LAYER_1
 10
75.73813490776053
 20
47.28796274785104
 30
0.0
  0
VERTEX
  5
427
  8
LAYER_1
 10
75.75157473110706
 20
47.29324997146642
 30
0.0
  0
VERTEX
  5
428
  8
LAYER_1
 10
75.76532475667975
 20
47.29755372055062
 30
0.0
  0
VERTEX
  5
429
  8
LAYER_1
 10
75.77935501837337
 20
47.30092948887615
 30
0.0
  0
VERTEX
  5
42A
  8
LAYER_1
 10
75.79363555008266
 20
47.30343277021551
 30
0.0
  0
VERTEX
  5
42B
  8
LAYER_1
 10
75.80813638570241
 20
47.30511905834119
 30
0.0
  0
VERTEX
  5
42C
  8
LAYER_1
 10
75.82282755912735
 20
47.3060438470257
 30
0.0
  0
VERTEX
  5
42D
  8
LAYER_1
 10
75.8376791042522
 20
47.30626263004153
 30
0.0
  0
VERTEX
  5
42E
  8
LAYER_1
 10
75.85266105497178
 20
47.30583090116119
 30
0.0
  0
VERTEX
  5
42F
  8
LAYER_1
 10
75.86774344518082
 20
47.30480415415716
 30
0.0
  0
VERTEX
  5
430
  8
LAYER_1
 10
75.88289630877406
 20
47.30323788280196
 30
0.0
  0
VERTEX
  5
431
  8
LAYER_1
 10
75.89808967964626
 20
47.30118758086807
 30
0.0
  0
VERTEX
  5
432
  8
LAYER_1
 10
75.9132935916922
 20
47.29870874212801
 30
0.0
  0
VERTEX
  5
433
  8
LAYER_1
 10
75.92847807880659
 20
47.29585686035426
 30
0.0
  0
VERTEX
  5
434
  8
LAYER_1
 10
75.95866891381985
 20
47.28925594279571
 30
0.0
  0
VERTEX
  5
435
  8
LAYER_1
 10
75.98906891583317
 20
47.28161755629046
 30
0.0
  0
VERTEX
  5
436
  8
LAYER_1
 10
76.01908450097497
 20
47.27328421151634
 30
0.0
  0
VERTEX
  5
437
  8
LAYER_1
 10
76.04876263344562
 20
47.26444245377168
 30
0.0
  0
VERTEX
  5
438
  8
LAYER_1
 10
76.07815027744553
 20
47.25527882835483
 30
0.0
  0
VERTEX
  5
439
  8
LAYER_1
 10
76.13624195683462
 20
47.23673215569782
 30
0.0
  0
VERTEX
  5
43A
  8
LAYER_1
 10
76.1650399206246
 20
47.22772219905434
 30
0.0
  0
VERTEX
  5
43B
  8
LAYER_1
 10
76.19373525274538
 20
47.21913655593198
 30
0.0
  0
VERTEX
  5
43C
  8
LAYER_1
 10
82.44373525274638
 20
45.40663655593264
 30
0.0
  0
VERTEX
  5
43D
  8
LAYER_1
 10
82.47396637311951
 20
45.39726903162306
 30
0.0
  0
VERTEX
  5
43E
  8
LAYER_1
 10
82.48900062869573
 20
45.39214464382046
 30
0.0
  0
VERTEX
  5
43F
  8
LAYER_1
 10
82.5039691175235
 20
45.38671756622167
 30
0.0
  0
VERTEX
  5
440
  8
LAYER_1
 10
82.51886316684666
 20
45.38098109430345
 30
0.0
  0
VERTEX
  5
441
  8
LAYER_1
 10
82.53367410390906
 20
45.37492852354256
 30
0.0
  0
VERTEX
  5
442
  8
LAYER_1
 10
82.54839325595458
 20
45.36855314941575
 30
0.0
  0
VERTEX
  5
443
  8
LAYER_1
 10
82.56301195022701
 20
45.3618482673998
 30
0.0
  0
VERTEX
  5
444
  8
LAYER_1
 10
82.57752151397021
 20
45.35480717297146
 30
0.0
  0
VERTEX
  5
445
  8
LAYER_1
 10
82.59191327442804
 20
45.34742316160749
 30
0.0
  0
VERTEX
  5
446
  8
LAYER_1
 10
82.60617855884433
 20
45.33968952878466
 30
0.0
  0
VERTEX
  5
447
  8
LAYER_1
 10
82.62030869446296
 20
45.33159956997972
 30
0.0
  0
VERTEX
  5
448
  8
LAYER_1
 10
82.63429500852773
 20
45.32314658066944
 30
0.0
  0
VERTEX
  5
449
  8
LAYER_1
 10
82.6481288282825
 20
45.31432385633057
 30
0.0
  0
VERTEX
  5
44A
  8
LAYER_1
 10
82.66180148097109
 20
45.30512469243989
 30
0.0
  0
VERTEX
  5
44B
  8
LAYER_1
 10
82.6753042938374
 20
45.29554238447414
 30
0.0
  0
VERTEX
  5
44C
  8
LAYER_1
 10
82.69759985756527
 20
45.27922412389677
 30
0.0
  0
VERTEX
  5
44D
  8
LAYER_1
 10
82.72010994490812
 20
45.26215422412363
 30
0.0
  0
VERTEX
  5
44E
  8
LAYER_1
 10
82.73122874870698
 20
45.25328234500954
 30
0.0
  0
VERTEX
  5
44F
  8
LAYER_1
 10
82.74214115993578
 20
45.24415647866159
 30
0.0
  0
VERTEX
  5
450
  8
LAYER_1
 10
82.75276050410326
 20
45.23475459926815
 30
0.0
  0
VERTEX
  5
451
  8
LAYER_1
 10
82.76300010671812
 20
45.22505468101758
 30
0.0
  0
VERTEX
  5
452
  8
LAYER_1
 10
82.7727732932891
 20
45.21503469809825
 30
0.0
  0
VERTEX
  5
453
  8
LAYER_1
 10
82.78199338932497
 20
45.20467262469852
 30
0.0
  0
VERTEX
  5
454
  8
LAYER_1
 10
82.7905737203344
 20
45.19394643500675
 30
0.0
  0
VERTEX
  5
455
  8
LAYER_1
 10
82.79842761182614
 20
45.18283410321131
 30
0.0
  0
VERTEX
  5
456
  8
LAYER_1
 10
82.80546838930894
 20
45.17131360350056
 30
0.0
  0
VERTEX
  5
457
  8
LAYER_1
 10
82.81160937829151
 20
45.15936291006287
 30
0.0
  0
VERTEX
  5
458
  8
LAYER_1
 10
82.8167639042826
 20
45.1469599970866
 30
0.0
  0
VERTEX
  5
459
  8
LAYER_1
 10
82.81894415787781
 20
45.14058207520536
 30
0.0
  0
SEQEND
  5
807
  8
LAYER_1
  0
POLYLINE
  5
A2
  8
LAYER_1
 66
     1
 10
0.0
 20
0.0
 30
0.0
 70
     1
  0
VERTEX
  5
45A
  8
LAYER_1
 10
80.85781880032846
 20
41.24129912910858
 30
0.0
 42
0.0724126558958499
  0
VERTEX
  5
45B
  8
LAYER_1
 10
80.85003525274547
 20
41.18783655593217
 30
0.0
 42
0.4142135623730951
  0
VERTEX
  5
45C
  8
LAYER_1
 10
81.03753525274547
 20
41.00033655593217
 30
0.0
 42
0.3122607843515627
  0
VERTEX
  5
45D
  8
LAYER_1
 10
81.2130074085401
 20
41.12176256300919
 30
0.0
  0
VERTEX
  5
45E
  8
LAYER_1
 10
81.21554992178771
 20
41.12713425572569
 30
0.0
  0
VERTEX
  5
45F
  8
LAYER_1
 10
81.21683656664317
 20
41.12980998301776
 30
0.0
  0
VERTEX
  5
460
  8
LAYER_1
 10
81.2178446775648
 20
41.13258699176364
 30
0.0
  0
VERTEX
  5
461
  8
LAYER_1
 10
82.0308751077861
 20
44.04595523787682
 30
0.0
  0
VERTEX
  5
462
  8
LAYER_1
 10
82.0317237119988
 20
44.04850091079693
 30
0.0
  0
VERTEX
  5
463
  8
LAYER_1
 10
82.03251995318536
 20
44.05106006460147
 30
0.0
 42
0.0580179293321467
  0
VERTEX
  5
464
  8
LAYER_1
 10
82.03753525274547
 20
44.09413655593217
 30
0.0
 42
0.4142135623730951
  0
VERTEX
  5
465
  8
LAYER_1
 10
81.85003525274547
 20
44.28163655593217
 30
0.0
 42
0.2619157589055319
  0
VERTEX
  5
466
  8
LAYER_1
 10
81.68981073981062
 20
44.19152421148866
 30
0.0
  0
VERTEX
  5
467
  8
LAYER_1
 10
81.68572385895206
 20
44.18480507125258
 30
0.0
  0
VERTEX
  5
468
  8
LAYER_1
 10
81.68180560408625
 20
44.17796256142611
 30
0.0
  0
VERTEX
  5
469
  8
LAYER_1
 10
81.67837599971486
 20
44.17090791501656
 30
0.0
  0
VERTEX
  5
46A
  8
LAYER_1
 10
81.67575507033956
 20
44.16355236503125
 30
0.0
  0
VERTEX
  5
46B
  8
LAYER_1
 10
80.97388570580011
 20
41.65681859446345
 30
0.0
  0
VERTEX
  5
46C
  8
LAYER_1
 10
80.97500156153751
 20
41.65663655593217
 30
0.0
  0
VERTEX
  5
46D
  8
LAYER_1
 10
78.41253525274547
 20
41.65663655593217
 30
0.0
 42
0.4142135623730951
  0
VERTEX
  5
46E
  8
LAYER_1
 10
78.22503525274547
 20
41.46913655593217
 30
0.0
 42
0.4142135623730951
  0
VERTEX
  5
46F
  8
LAYER_1
 10
78.41253525274547
 20
41.28163655593217
 30
0.0
  0
VERTEX
  5
470
  8
LAYER_1
 10
80.86813143477755
 20
41.28163655593217
 30
0.0
  0
VERTEX
  5
471
  8
LAYER_1
 10
80.86857301071952
 20
41.28069320337834
 30
0.0
  0
VERTEX
  5
472
  8
LAYER_1
 10
80.85944996764181
 20
41.24811015968298
 30
0.0
  0
VERTEX
  5
473
  8
LAYER_1
 10
80.85864796050522
 20
41.24470072461187
 30
0.0
  0
SEQEND
  5
808
  8
LAYER_1
  0
POLYLINE
  5
A3
  8
LAYER_1
 66
     1
 10
0.0
 20
0.0
 30
0.0
 70
     1
  0
VERTEX
  5
474
  8
LAYER_1
 10
84.459555458618
 20
45.1340828387601
 30
0.0
  0
VERTEX
  5
475
  8
LAYER_1
 10
84.45518118868674
 20
45.11576193303106
 30
0.0
  0
VERTEX
  5
476
  8
LAYER_1
 10
84.45165124758572
 20
45.09675546001965
 30
0.0
  0
VERTEX
  5
477
  8
LAYER_1
 10
84.448922449746
 20
45.07713500522438
 30
0.0
  0
VERTEX
  5
478
  8
LAYER_1
 10
84.44695160959861
 20
45.05697215414374
 30
0.0
  0
VERTEX
  5
479
  8
LAYER_1
 10
84.44569554157465
 20
45.03633849227623
 30
0.0
  0
VERTEX
  5
47A
  8
LAYER_1
 10
84.44511106010516
 20
45.01530560512036
 30
0.0
  0
VERTEX
  5
47B
  8
LAYER_1
 10
84.44515497962121
 20
44.99394507817463
 30
0.0
  0
VERTEX
  5
47C
  8
LAYER_1
 10
84.44578411455385
 20
44.97232849693751
 30
0.0
  0
VERTEX
  5
47D
  8
LAYER_1
 10
84.44695527933413
 20
44.95052744690754
 30
0.0
  0
VERTEX
  5
47E
  8
LAYER_1
 10
84.4486252883931
 20
44.92861351358317
 30
0.0
  0
VERTEX
  5
47F
  8
LAYER_1
 10
84.45075095616184
 20
44.90665828246294
 30
0.0
  0
VERTEX
  5
480
  8
LAYER_1
 10
84.45328909707143
 20
44.88473333904533
 30
0.0
  0
VERTEX
  5
481
  8
LAYER_1
 10
84.45619652555288
 20
44.86291026882884
 30
0.0
  0
VERTEX
  5
482
  8
LAYER_1
 10
84.45943005603729
 20
44.84126065731197
 30
0.0
  0
VERTEX
  5
483
  8
LAYER_1
 10
84.46670268073913
 20
44.79876815237108
 30
0.0
  0
VERTEX
  5
484
  8
LAYER_1
 10
84.47476148662543
 20
44.75782850821066
 30
0.0
  0
VERTEX
  5
485
  8
LAYER_1
 10
84.48326098914464
 20
44.71901440881867
 30
0.0
  0
VERTEX
  5
486
  8
LAYER_1
 10
84.49185570374524
 20
44.68289853818312
 30
0.0
  0
VERTEX
  5
487
  8
LAYER_1
 10
84.50020014587571
 20
44.650053580292
 30
0.0
  0
VERTEX
  5
488
  8
LAYER_1
 10
84.51475627452004
 20
44.59646713869495
 30
0.0
  0
VERTEX
  5
489
  8
LAYER_1
 10
84.52416549866538
 20
44.56283655593142
 30
0.0
  0
VERTEX
  5
48A
  8
LAYER_1
 10
85.36786549866336
 20
41.40663655593217
 30
0.0
  0
VERTEX
  5
48B
  8
LAYER_1
 10
85.37936039167195
 20
41.36225910288385
 30
0.0
  0
VERTEX
  5
48C
  8
LAYER_1
 10
85.39117177002292
 20
41.3155586505053
 30
0.0
  0
VERTEX
  5
48D
  8
LAYER_1
 10
85.40373140632957
 20
41.26733990603995
 30
0.0
  0
VERTEX
  5
48E
  8
LAYER_1
 10
85.41042675015792
 20
41.24291264528831
 30
0.0
  0
VERTEX
  5
48F
  8
LAYER_1
 10
85.41747107320519
 20
41.21840757673127
 30
0.0
  0
VERTEX
  5
490
  8
LAYER_1
 10
85.42491834704803
 20
41.19392528877426
 30
0.0
  0
VERTEX
  5
491
  8
LAYER_1
 10
85.43282254326309
 20
41.1695663698227
 30
0.0
  0
VERTEX
  5
492
  8
LAYER_1
 10
85.44123763342705
 20
41.14543140828204
 30
0.0
  0
VERTEX
  5
493
  8
LAYER_1
 10
85.45021758911656
 20
41.12162099255769
 30
0.0
  0
VERTEX
  5
494
  8
LAYER_1
 10
85.4598163819083
 20
41.09823571105511
 30
0.0
  0
VERTEX
  5
495
  8
LAYER_1
 10
85.47008798337889
 20
41.07537615217971
 30
0.0
  0
VERTEX
  5
496
  8
LAYER_1
 10
85.48108636510503
 20
41.05314290433691
 30
0.0
  0
VERTEX
  5
497
  8
LAYER_1
 10
85.49286549866338
 20
41.03163655593217
 30
0.0
  0
VERTEX
  5
498
  8
LAYER_1
 10
85.50019184694204
 20
41.02011182737159
 30
0.0
  0
VERTEX
  5
499
  8
LAYER_1
 10
85.50840054588332
 20
41.00931800786736
 30
0.0
  0
VERTEX
  5
49A
  8
LAYER_1
 10
85.51744429930298
 20
40.99923115798843
 30
0.0
  0
VERTEX
  5
49B
  8
LAYER_1
 10
85.52727581101688
 20
40.98982733830373
 30
0.0
  0
VERTEX
  5
49C
  8
LAYER_1
 10
85.5378477848408
 20
40.98108260938221
 30
0.0
  0
VERTEX
  5
49D
  8
LAYER_1
 10
85.54911292459059
 20
40.97297303179283
 30
0.0
  0
VERTEX
  5
49E
  8
LAYER_1
 10
85.56102393408204
 20
40.96547466610454
 30
0.0
  0
VERTEX
  5
49F
  8
LAYER_1
 10
85.57353351713095
 20
40.95856357288629
 30
0.0
  0
VERTEX
  5
4A0
  8
LAYER_1
 10
85.58659437755315
 20
40.95221581270704
 30
0.0
  0
VERTEX
  5
4A1
  8
LAYER_1
 10
85.60015921916445
 20
40.94640744613572
 30
0.0
  0
VERTEX
  5
4A2
  8
LAYER_1
 10
85.61418074578069
 20
40.94111453374129
 30
0.0
  0
VERTEX
  5
4A3
  8
LAYER_1
 10
85.62861166121763
 20
40.93631313609271
 30
0.0
  0
VERTEX
  5
4A4
  8
LAYER_1
 10
85.64340466929113
 20
40.93197931375892
 30
0.0
  0
VERTEX
  5
4A5
  8
LAYER_1
 10
85.65851247381698
 20
40.92808912730888
 30
0.0
  0
VERTEX
  5
4A6
  8
LAYER_1
 10
85.673887778611
 20
40.92461863731154
 30
0.0
  0
VERTEX
  5
4A7
  8
LAYER_1
 10
85.68948328748903
 20
40.92154390433583
 30
0.0
  0
VERTEX
  5
4A8
  8
LAYER_1
 10
85.70525170426684
 20
40.91884098895073
 30
0.0
  0
VERTEX
  5
4A9
  8
LAYER_1
 10
85.72114573276028
 20
40.91648595172516
 30
0.0
  0
VERTEX
  5
4AA
  8
LAYER_1
 10
85.75312144015722
 20
40.9127237540285
 30
0.0
  0
VERTEX
  5
4AB
  8
LAYER_1
 10
85.78503204020637
 20
40.91006579579741
 30
0.0
  0
VERTEX
  5
4AC
  8
LAYER_1
 10
85.81649916343429
 20
40.90832056158354
 30
0.0
  0
VERTEX
  5
4AD
  8
LAYER_1
 10
85.84714444036742
 20
40.90729653593847
 30
0.0
  0
VERTEX
  5
4AE
  8
LAYER_1
 10
85.8765895015323
 20
40.90680220341382
 30
0.0
  0
VERTEX
  5
4AF
  8
LAYER_1
 10
85.93036549866333
 20
40.90663655593217
 30
0.0
  0
VERTEX
  5
4B0
  8
LAYER_1
 10
93.93036549866343
 20
40.90663655593217
 30
0.0
  0
VERTEX
  5
4B1
  8
LAYER_1
 10
93.93036549866343
 20
44.60663655593217
 30
0.0
  0
VERTEX
  5
4B2
  8
LAYER_1
 10
93.93036549866343
 20
44.64663655593217
 30
0.0
  0
VERTEX
  5
4B3
  8
LAYER_1
 10
93.93036549866343
 20
44.65663655593217
 30
0.0
  0
VERTEX
  5
4B4
  8
LAYER_1
 10
93.86786549866343
 20
44.65663655593217
 30
0.0
  0
VERTEX
  5
4B5
  8
LAYER_1
 10
93.86786549866343
 20
45.65663655593218
 30
0.0
  0
VERTEX
  5
4B6
  8
LAYER_1
 10
93.05536549866342
 20
46.15663655593218
 30
0.0
  0
VERTEX
  5
4B7
  8
LAYER_1
 10
93.05536549866342
 20
46.14098655593219
 30
0.0
 42
-0.4142135623730951
  0
VERTEX
  5
4B8
  8
LAYER_1
 10
92.83661549866342
 20
45.92223655593219
 30
0.0
 42
-0.4142135623730951
  0
VERTEX
  5
4B9
  8
LAYER_1
 10
92.61786549866342
 20
46.14098655593219
 30
0.0
  0
VERTEX
  5
4BA
  8
LAYER_1
 10
92.6178654986634
 20
46.18783655593221
 30
0.0
  0
VERTEX
  5
4BB
  8
LAYER_1
 10
92.61786549866342
 20
46.53163655593218
 30
0.0
  0
VERTEX
  5
4BC
  8
LAYER_1
 10
92.61792588163604
 20
46.56134092079353
 30
0.0
  0
VERTEX
  5
4BD
  8
LAYER_1
 10
92.61751449028378
 20
46.59278915628579
 30
0.0
  0
VERTEX
  5
4BE
  8
LAYER_1
 10
92.61685412598425
 20
46.60878908212256
 30
0.0
  0
VERTEX
  5
4BF
  8
LAYER_1
 10
92.61574251420157
 20
46.62477120354189
 30
0.0
  0
VERTEX
  5
4C0
  8
LAYER_1
 10
92.61406855363515
 20
46.64058426318542
 30
0.0
  0
VERTEX
  5
4C1
  8
LAYER_1
 10
92.61172114298435
 20
46.65607700369475
 30
0.0
  0
VERTEX
  5
4C2
  8
LAYER_1
 10
92.60858918094851
 20
46.67109816771149
 30
0.0
  0
VERTEX
  5
4C3
  8
LAYER_1
 10
92.604561566227
 20
46.68549649787728
 30
0.0
  0
VERTEX
  5
4C4
  8
LAYER_1
 10
92.60217716995268
 20
46.69241483234157
 30
0.0
  0
VERTEX
  5
4C5
  8
LAYER_1
 10
92.5995271975192
 20
46.69912073683373
 30
0.0
  0
VERTEX
  5
4C6
  8
LAYER_1
 10
92.59659776126398
 20
46.70559530418394
 30
0.0
  0
VERTEX
  5
4C7
  8
LAYER_1
 10
92.59337497352445
 20
46.71181962722244
 30
0.0
  0
VERTEX
  5
4C8
  8
LAYER_1
 10
92.58984494663804
 20
46.7177747987794
 30
0.0
  0
VERTEX
  5
4C9
  8
LAYER_1
 10
92.58599379294213
 20
46.72344191168504
 30
0.0
  0
VERTEX
  5
4CA
  8
LAYER_1
 10
92.5818076247742
 20
46.72880205876955
 30
0.0
  0
VERTEX
  5
4CB
  8
LAYER_1
 10
92.57727255447162
 20
46.73383633286313
 30
0.0
  0
VERTEX
  5
4CC
  8
LAYER_1
 10
92.57237469437183
 20
46.738525826796
 30
0.0
  0
VERTEX
  5
4CD
  8
LAYER_1
 10
92.56710015681226
 20
46.74285163339835
 30
0.0
  0
VERTEX
  5
4CE
  8
LAYER_1
 10
92.5614350541303
 20
46.74679484550038
 30
0.0
  0
VERTEX
  5
4CF
  8
LAYER_1
 10
92.5553654986634
 20
46.75033655593229
 30
0.0
  0
VERTEX
  5
4D0
  8
LAYER_1
 10
91.55536549866349
 20
47.281636555932
 30
0.0
  0
VERTEX
  5
4D1
  8
LAYER_1
 10
91.54226584364838
 20
47.28796274785104
 30
0.0
  0
VERTEX
  5
4D2
  8
LAYER_1
 10
91.52882602030185
 20
47.29324997146642
 30
0.0
  0
VERTEX
  5
4D3
  8
LAYER_1
 10
91.51507599472916
 20
47.29755372055062
 30
0.0
  0
VERTEX
  5
4D4
  8
LAYER_1
 10
91.50104573303554
 20
47.30092948887615
 30
0.0
  0
VERTEX
  5
4D5
  8
LAYER_1
 10
91.48676520132625
 20
47.30343277021551
 30
0.0
  0
VERTEX
  5
4D6
  8
LAYER_1
 10
91.4722643657065
 20
47.30511905834119
 30
0.0
  0
VERTEX
  5
4D7
  8
LAYER_1
 10
91.45757319228156
 20
47.3060438470257
 30
0.0
  0
VERTEX
  5
4D8
  8
LAYER_1
 10
91.4427216471567
 20
47.30626263004153
 30
0.0
  0
VERTEX
  5
4D9
  8
LAYER_1
 10
91.42773969643713
 20
47.30583090116119
 30
0.0
  0
VERTEX
  5
4DA
  8
LAYER_1
 10
91.41265730622808
 20
47.30480415415716
 30
0.0
  0
VERTEX
  5
4DB
  8
LAYER_1
 10
91.39750444263484
 20
47.30323788280196
 30
0.0
  0
VERTEX
  5
4DC
  8
LAYER_1
 10
91.38231107176264
 20
47.30118758086807
 30
0.0
  0
VERTEX
  5
4DD
  8
LAYER_1
 10
91.36710715971671
 20
47.29870874212801
 30
0.0
  0
VERTEX
  5
4DE
  8
LAYER_1
 10
91.35192267260231
 20
47.29585686035426
 30
0.0
  0
VERTEX
  5
4DF
  8
LAYER_1
 10
91.32173183758906
 20
47.28925594279571
 30
0.0
  0
VERTEX
  5
4E0
  8
LAYER_1
 10
91.29133183557573
 20
47.28161755629046
 30
0.0
  0
VERTEX
  5
4E1
  8
LAYER_1
 10
91.26131625043394
 20
47.27328421151634
 30
0.0
  0
VERTEX
  5
4E2
  8
LAYER_1
 10
91.23163811796329
 20
47.26444245377168
 30
0.0
  0
VERTEX
  5
4E3
  8
LAYER_1
 10
91.20225047396337
 20
47.25527882835483
 30
0.0
  0
VERTEX
  5
4E4
  8
LAYER_1
 10
91.14415879457427
 20
47.23673215569782
 30
0.0
  0
VERTEX
  5
4E5
  8
LAYER_1
 10
91.11536083078428
 20
47.22772219905434
 30
0.0
  0
VERTEX
  5
4E6
  8
LAYER_1
 10
91.0866654986635
 20
47.21913655593198
 30
0.0
  0
VERTEX
  5
4E7
  8
LAYER_1
 10
84.83666549866253
 20
45.40663655593264
 30
0.0
  0
VERTEX
  5
4E8
  8
LAYER_1
 10
84.8064343782894
 20
45.39726903162306
 30
0.0
  0
VERTEX
  5
4E9
  8
LAYER_1
 10
84.79140012271317
 20
45.39214464382046
 30
0.0
  0
VERTEX
  5
4EA
  8
LAYER_1
 10
84.77643163388541
 20
45.38671756622167
 30
0.0
  0
VERTEX
  5
4EB
  8
LAYER_1
 10
84.76153758456223
 20
45.38098109430345
 30
0.0
  0
VERTEX
  5
4EC
  8
LAYER_1
 10
84.74672664749983
 20
45.37492852354256
 30
0.0
  0
VERTEX
  5
4ED
  8
LAYER_1
 10
84.73200749545433
 20
45.36855314941575
 30
0.0
  0
VERTEX
  5
4EE
  8
LAYER_1
 10
84.7173888011819
 20
45.3618482673998
 30
0.0
  0
VERTEX
  5
4EF
  8
LAYER_1
 10
84.70287923743868
 20
45.35480717297146
 30
0.0
  0
VERTEX
  5
4F0
  8
LAYER_1
 10
84.68848747698084
 20
45.34742316160749
 30
0.0
  0
VERTEX
  5
4F1
  8
LAYER_1
 10
84.67422219256454
 20
45.33968952878466
 30
0.0
  0
VERTEX
  5
4F2
  8
LAYER_1
 10
84.66009205694593
 20
45.33159956997972
 30
0.0
  0
VERTEX
  5
4F3
  8
LAYER_1
 10
84.64610574288118
 20
45.32314658066944
 30
0.0
  0
VERTEX
  5
4F4
  8
LAYER_1
 10
84.63227192312641
 20
45.31432385633057
 30
0.0
  0
VERTEX
  5
4F5
  8
LAYER_1
 10
84.6185992704378
 20
45.30512469243989
 30
0.0
  0
VERTEX
  5
4F6
  8
LAYER_1
 10
84.60509645757149
 20
45.29554238447414
 30
0.0
  0
VERTEX
  5
4F7
  8
LAYER_1
 10
84.58280089384363
 20
45.27922412389677
 30
0.0
  0
VERTEX
  5
4F8
  8
LAYER_1
 10
84.56029080650079
 20
45.26215422412363
 30
0.0
  0
VERTEX
  5
4F9
  8
LAYER_1
 10
84.54917200270192
 20
45.25328234500954
 30
0.0
  0
VERTEX
  5
4FA
  8
LAYER_1
 10
84.53825959147312
 20
45.24415647866159
 30
0.0
  0
VERTEX
  5
4FB
  8
LAYER_1
 10
84.52764024730564
 20
45.23475459926815
 30
0.0
  0
VERTEX
  5
4FC
  8
LAYER_1
 10
84.51740064469078
 20
45.22505468101758
 30
0.0
  0
VERTEX
  5
4FD
  8
LAYER_1
 10
84.5076274581198
 20
45.21503469809825
 30
0.0
  0
VERTEX
  5
4FE
  8
LAYER_1
 10
84.49840736208394
 20
45.20467262469852
 30
0.0
  0
VERTEX
  5
4FF
  8
LAYER_1
 10
84.4898270310745
 20
45.19394643500675
 30
0.0
  0
VERTEX
  5
500
  8
LAYER_1
 10
84.48197313958275
 20
45.18283410321131
 30
0.0
  0
VERTEX
  5
501
  8
LAYER_1
 10
84.47493236209996
 20
45.17131360350056
 30
0.0
  0
VERTEX
  5
502
  8
LAYER_1
 10
84.46879137311738
 20
45.15936291006287
 30
0.0
  0
VERTEX
  5
503
  8
LAYER_1
 10
84.4636368471263
 20
45.1469599970866
 30
0.0
  0
VERTEX
  5
504
  8
LAYER_1
 10
84.46145659353108
 20
45.14058207520536
 30
0.0
  0
SEQEND
  5
809
  8
LAYER_1
  0
POLYLINE
  5
A4
  8
LAYER_1
 66
     1
 10
0.0
 20
0.0
 30
0.0
 70
     1
  0
VERTEX
  5
505
  8
LAYER_1
 10
86.42258195108045
 20
41.24129912910858
 30
0.0
 42
-0.0724126558958499
  0
VERTEX
  5
506
  8
LAYER_1
 10
86.43036549866343
 20
41.18783655593217
 30
0.0
 42
-0.4142135623730951
  0
VERTEX
  5
507
  8
LAYER_1
 10
86.24286549866343
 20
41.00033655593217
 30
0.0
 42
-0.3122607843515627
  0
VERTEX
  5
508
  8
LAYER_1
 10
86.0673933428688
 20
41.12176256300919
 30
0.0
  0
VERTEX
  5
509
  8
LAYER_1
 10
86.06485082962118
 20
41.12713425572569
 30
0.0
  0
VERTEX
  5
50A
  8
LAYER_1
 10
86.06356418476574
 20
41.12980998301776
 30
0.0
  0
VERTEX
  5
50B
  8
LAYER_1
 10
86.06255607384409
 20
41.13258699176364
 30
0.0
  0
VERTEX
  5
50C
  8
LAYER_1
 10
85.2495256436228
 20
44.04595523787682
 30
0.0
  0
VERTEX
  5
50D
  8
LAYER_1
 10
85.24867703941008
 20
44.04850091079693
 30
0.0
  0
VERTEX
  5
50E
  8
LAYER_1
 10
85.24788079822353
 20
44.05106006460147
 30
0.0
 42
-0.0580179293321467
  0
VERTEX
  5
50F
  8
LAYER_1
 10
85.24286549866343
 20
44.09413655593217
 30
0.0
 42
-0.4142135623730951
  0
VERTEX
  5
510
  8
LAYER_1
 10
85.43036549866343
 20
44.28163655593217
 30
0.0
 42
-0.2619157589055319
  0
VERTEX
  5
511
  8
LAYER_1
 10
85.59059001159827
 20
44.19152421148866
 30
0.0
  0
VERTEX
  5
512
  8
LAYER_1
 10
85.59467689245685
 20
44.18480507125258
 30
0.0
  0
VERTEX
  5
513
  8
LAYER_1
 10
85.59859514732265
 20
44.17796256142611
 30
0.0
  0
VERTEX
  5
514
  8
LAYER_1
 10
85.60202475169403
 20
44.17090791501656
 30
0.0
  0
VERTEX
  5
515
  8
LAYER_1
 10
85.60464568106934
 20
44.16355236503125
 30
0.0
  0
VERTEX
  5
516
  8
LAYER_1
 10
86.30651504560879
 20
41.65681859446345
 30
0.0
  0
VERTEX
  5
517
  8
LAYER_1
 10
86.3053991898714
 20
41.65663655593217
 30
0.0
  0
VERTEX
  5
518
  8
LAYER_1
 10
88.86786549866343
 20
41.65663655593217
 30
0.0
 42
-0.4142135623730951
  0
VERTEX
  5
519
  8
LAYER_1
 10
89.05536549866343
 20
41.46913655593217
 30
0.0
 42
-0.4142135623730951
  0
VERTEX
  5
51A
  8
LAYER_1
 10
88.86786549866343
 20
41.28163655593217
 30
0.0
  0
VERTEX
  5
51B
  8
LAYER_1
 10
86.41226931663135
 20
41.28163655593217
 30
0.0
  0
VERTEX
  5
51C
  8
LAYER_1
 10
86.41182774068939
 20
41.28069320337834
 30
0.0
  0
VERTEX
  5
51D
  8
LAYER_1
 10
86.4209507837671
 20
41.24811015968298
 30
0.0
  0
VERTEX
  5
51E
  8
LAYER_1
 10
86.42175279090368
 20
41.24470072461187
 30
0.0
  0
SEQEND
  5
80A
  8
LAYER_1
  0
POLYLINE
  5
A5
  8
LAYER_1
 66
     1
 10
0.0
 20
0.0
 30
0.0
 70
     1
  0
VERTEX
  5
51F
  8
LAYER_1
 10
91.94078371149628
 20
-33.65540229144145
 30
0.0
  0
VERTEX
  5
520
  8
LAYER_1
 10
94.8173443978578
 20
-30.78040229144146
 30
0.0
  0
VERTEX
  5
521
  8
LAYER_1
 10
94.8173443978578
 20
-29.28002089196498
 30
0.0
  0
VERTEX
  5
522
  8
LAYER_1
 10
94.8173443978578
 20
-1.65540229144078
 30
0.0
  0
VERTEX
  5
523
  8
LAYER_1
 10
55.37984439792152
 20
-1.655402291490475
 30
0.0
  0
VERTEX
  5
524
  8
LAYER_1
 10
55.34979033726888
 20
-1.655706243937586
 30
0.0
  0
VERTEX
  5
525
  8
LAYER_1
 10
55.3189055835539
 20
-1.656667255626134
 30
0.0
  0
VERTEX
  5
526
  8
LAYER_1
 10
55.28733397273682
 20
-1.658359058077058
 30
0.0
  0
VERTEX
  5
527
  8
LAYER_1
 10
55.25521934077788
 20
-1.660855382811294
 30
0.0
  0
VERTEX
  5
528
  8
LAYER_1
 10
55.22270552363732
 20
-1.664229961349779
 30
0.0
  0
VERTEX
  5
529
  8
LAYER_1
 10
55.18993635727538
 20
-1.668556525213451
 30
0.0
  0
VERTEX
  5
52A
  8
LAYER_1
 10
55.15705567765229
 20
-1.673908805923246
 30
0.0
  0
VERTEX
  5
52B
  8
LAYER_1
 10
55.12420732072832
 20
-1.680360535000101
 30
0.0
  0
VERTEX
  5
52C
  8
LAYER_1
 10
55.10784021201606
 20
-1.68402173377647
 30
0.0
  0
VERTEX
  5
52D
  8
LAYER_1
 10
55.09153512246368
 20
-1.687985443964955
 30
0.0
  0
VERTEX
  5
52E
  8
LAYER_1
 10
55.07531003156619
 20
-1.692260882005673
 30
0.0
  0
VERTEX
  5
52F
  8
LAYER_1
 10
55.05918291881861
 20
-1.696857264338743
 30
0.0
  0
VERTEX
  5
530
  8
LAYER_1
 10
55.043171763716
 20
-1.70178380740428
 30
0.0
  0
VERTEX
  5
531
  8
LAYER_1
 10
55.02729454575338
 20
-1.707049727642402
 30
0.0
  0
VERTEX
  5
532
  8
LAYER_1
 10
55.01156924442576
 20
-1.712664241493226
 30
0.0
  0
VERTEX
  5
533
  8
LAYER_1
 10
54.9960138392282
 20
-1.71863656539687
 30
0.0
  0
VERTEX
  5
534
  8
LAYER_1
 10
54.98064630965571
 20
-1.724975915793451
 30
0.0
  0
VERTEX
  5
535
  8
LAYER_1
 10
54.96548463520332
 20
-1.731691509123085
 30
0.0
  0
VERTEX
  5
536
  8
LAYER_1
 10
54.95054679536608
 20
-1.738792561825889
 30
0.0
  0
VERTEX
  5
537
  8
LAYER_1
 10
54.93585076963899
 20
-1.746288290341982
 30
0.0
  0
VERTEX
  5
538
  8
LAYER_1
 10
54.92141453751709
 20
-1.75418791111148
 30
0.0
  0
VERTEX
  5
539
  8
LAYER_1
 10
54.90725607849543
 20
-1.762500640574499
 30
0.0
  0
VERTEX
  5
53A
  8
LAYER_1
 10
54.89339337206902
 20
-1.771235695171158
 30
0.0
  0
VERTEX
  5
53B
  8
LAYER_1
 10
54.87984439773289
 20
-1.780402291341574
 30
0.0
  0
VERTEX
  5
53C
  8
LAYER_1
 10
54.86444234171729
 20
-1.791591304899944
 30
0.0
  0
VERTEX
  5
53D
  8
LAYER_1
 10
54.84942177512779
 20
-1.803278165234716
 30
0.0
  0
VERTEX
  5
53E
  8
LAYER_1
 10
54.83478091309289
 20
-1.815441706935646
 30
0.0
  0
VERTEX
  5
53F
  8
LAYER_1
 10
54.82051797074107
 20
-1.828060764592489
 30
0.0
  0
VERTEX
  5
540
  8
LAYER_1
 10
54.80663116320082
 20
-1.841114172794999
 30
0.0
  0
VERTEX
  5
541
  8
LAYER_1
 10
54.79311870560065
 20
-1.854580766132931
 30
0.0
  0
VERTEX
  5
542
  8
LAYER_1
 10
54.77997881306906
 20
-1.86843937919604
 30
0.0
  0
VERTEX
  5
543
  8
LAYER_1
 10
54.76720970073455
 20
-1.882668846574081
 30
0.0
  0
VERTEX
  5
544
  8
LAYER_1
 10
54.7548095837256
 20
-1.897248002856808
 30
0.0
  0
VERTEX
  5
545
  8
LAYER_1
 10
54.74277667717072
 20
-1.912155682633977
 30
0.0
  0
VERTEX
  5
546
  8
LAYER_1
 10
54.7311091961984
 20
-1.927370720495341
 30
0.0
  0
VERTEX
  5
547
  8
LAYER_1
 10
54.71980535593713
 20
-1.942871951030658
 30
0.0
  0
VERTEX
  5
548
  8
LAYER_1
 10
54.70886337151543
 20
-1.958638208829679
 30
0.0
  0
VERTEX
  5
549
  8
LAYER_1
 10
54.69828145806179
 20
-1.974648328482163
 30
0.0
  0
VERTEX
  5
54A
  8
LAYER_1
 10
54.68805783070468
 20
-1.990881144577861
 30
0.0
  0
VERTEX
  5
54B
  8
LAYER_1
 10
54.67819070457263
 20
-2.00731549170653
 30
0.0
  0
VERTEX
  5
54C
  8
LAYER_1
 10
54.66867829479412
 20
-2.023930204457924
 30
0.0
  0
VERTEX
  5
54D
  8
LAYER_1
 10
54.65951881649765
 20
-2.040704117421798
 30
0.0
  0
VERTEX
  5
54E
  8
LAYER_1
 10
54.65071048481173
 20
-2.057616065187908
 30
0.0
  0
VERTEX
  5
54F
  8
LAYER_1
 10
54.64225151486484
 20
-2.074644882346007
 30
0.0
  0
VERTEX
  5
550
  8
LAYER_1
 10
54.63414012178548
 20
-2.091769403485852
 30
0.0
  0
VERTEX
  5
551
  8
LAYER_1
 10
54.62637452070216
 20
-2.108968463197195
 30
0.0
  0
VERTEX
  5
552
  8
LAYER_1
 10
54.61895292674336
 20
-2.126220896069793
 30
0.0
  0
VERTEX
  5
553
  8
LAYER_1
 10
54.61187355503758
 20
-2.143505536693399
 30
0.0
  0
VERTEX
  5
554
  8
LAYER_1
 10
54.60513462071332
 20
-2.16080121965777
 30
0.0
  0
VERTEX
  5
555
  8
LAYER_1
 10
54.59873433889908
 20
-2.178086779552661
 30
0.0
  0
VERTEX
  5
556
  8
LAYER_1
 10
54.58694259331463
 20
-2.212542868493016
 30
0.0
  0
VERTEX
  5
557
  8
LAYER_1
 10
54.57648403931222
 20
-2.246704480232506
 30
0.0
  0
VERTEX
  5
558
  8
LAYER_1
 10
54.56734439791983
 20
-2.280402291489168
 30
0.0
  0
VERTEX
  5
559
  8
LAYER_1
 10
53.56734439763611
 20
-6.217902291292091
 30
0.0
  0
VERTEX
  5
55A
  8
LAYER_1
 10
53.55657479953129
 20
-6.259287955250758
 30
0.0
  0
VERTEX
  5
55B
  8
LAYER_1
 10
53.54524134635686
 20
-6.300624124659246
 30
0.0
  0
VERTEX
  5
55C
  8
LAYER_1
 10
53.5332704241454
 20
-6.341855029379753
 30
0.0
  0
VERTEX
  5
55D
  8
LAYER_1
 10
53.52058841892951
 20
-6.382924899274478
 30
0.0
  0
VERTEX
  5
55E
  8
LAYER_1
 10
53.50712171674179
 20
-6.423777964205621
 30
0.0
  0
VERTEX
  5
55F
  8
LAYER_1
 10
53.49279670361483
 20
-6.464358454035378
 30
0.0
  0
VERTEX
  5
560
  8
LAYER_1
 10
53.47753976558122
 20
-6.504610598625949
 30
0.0
  0
VERTEX
  5
561
  8
LAYER_1
 10
53.46127728867356
 20
-6.544478627839533
 30
0.0
  0
VERTEX
  5
562
  8
LAYER_1
 10
53.45274596877714
 20
-6.564251171011891
 30
0.0
  0
VERTEX
  5
563
  8
LAYER_1
 10
53.44393565892444
 20
-6.583906771538328
 30
0.0
  0
VERTEX
  5
564
  8
LAYER_1
 10
53.43483715736952
 20
-6.603438458151617
 30
0.0
  0
VERTEX
  5
565
  8
LAYER_1
 10
53.42544126236645
 20
-6.622839259584532
 30
0.0
  0
VERTEX
  5
566
  8
LAYER_1
 10
53.41573877216932
 20
-6.64210220456985
 30
0.0
  0
VERTEX
  5
567
  8
LAYER_1
 10
53.4057204850322
 20
-6.661220321840347
 30
0.0
  0
VERTEX
  5
568
  8
LAYER_1
 10
53.39537719920916
 20
-6.680186640128794
 30
0.0
  0
VERTEX
  5
569
  8
LAYER_1
 10
53.38469971295427
 20
-6.698994188167967
 30
0.0
  0
VERTEX
  5
56A
  8
LAYER_1
 10
53.37367882452161
 20
-6.717635994690642
 30
0.0
  0
VERTEX
  5
56B
  8
LAYER_1
 10
53.36230533216526
 20
-6.736105088429595
 30
0.0
  0
VERTEX
  5
56C
  8
LAYER_1
 10
53.35057003413928
 20
-6.754394498117597
 30
0.0
  0
VERTEX
  5
56D
  8
LAYER_1
 10
53.33846372869776
 20
-6.772497252487426
 30
0.0
  0
VERTEX
  5
56E
  8
LAYER_1
 10
53.32597721409476
 20
-6.790406380271856
 30
0.0
  0
VERTEX
  5
56F
  8
LAYER_1
 10
53.31310128858436
 20
-6.80811491020366
 30
0.0
  0
VERTEX
  5
570
  8
LAYER_1
 10
53.29982675042064
 20
-6.825615871015614
 30
0.0
  0
VERTEX
  5
571
  8
LAYER_1
 10
53.28614439785767
 20
-6.842902291440495
 30
0.0
  0
VERTEX
  5
572
  8
LAYER_1
 10
53.22870041931519
 20
-6.913269882777962
 30
0.0
  0
VERTEX
  5
573
  8
LAYER_1
 10
53.19903210180567
 20
-6.948911647805716
 30
0.0
  0
VERTEX
  5
574
  8
LAYER_1
 10
53.16872990705534
 20
-6.984677858222588
 30
0.0
  0
VERTEX
  5
575
  8
LAYER_1
 10
53.13779159125273
 20
-7.020432863390905
 30
0.0
  0
VERTEX
  5
576
  8
LAYER_1
 10
53.10621491058633
 20
-7.056041012672996
 30
0.0
  0
VERTEX
  5
577
  8
LAYER_1
 10
53.0739976212447
 20
-7.091366655431189
 30
0.0
  0
VERTEX
  5
578
  8
LAYER_1
 10
53.04113747941635
 20
-7.12627414102781
 30
0.0
  0
VERTEX
  5
579
  8
LAYER_1
 10
53.00763224128981
 20
-7.160627818825191
 30
0.0
  0
VERTEX
  5
57A
  8
LAYER_1
 10
52.9734796630536
 20
-7.194292038185655
 30
0.0
  0
VERTEX
  5
57B
  8
LAYER_1
 10
52.93867750089623
 20
-7.227131148471533
 30
0.0
  0
VERTEX
  5
57C
  8
LAYER_1
 10
52.92103212465604
 20
-7.24319889688723
 30
0.0
  0
VERTEX
  5
57D
  8
LAYER_1
 10
52.90322351100626
 20
-7.259009499045153
 30
0.0
  0
VERTEX
  5
57E
  8
LAYER_1
 10
52.88525137947045
 20
-7.274545998615592
 30
0.0
  0
VERTEX
  5
57F
  8
LAYER_1
 10
52.86711544957218
 20
-7.289791439268841
 30
0.0
  0
VERTEX
  5
580
  8
LAYER_1
 10
52.84881544083503
 20
-7.304728864675188
 30
0.0
  0
VERTEX
  5
581
  8
LAYER_1
 10
52.83035107278254
 20
-7.319341318504927
 30
0.0
  0
VERTEX
  5
582
  8
LAYER_1
 10
52.81172206493829
 20
-7.333611844428347
 30
0.0
  0
VERTEX
  5
583
  8
LAYER_1
 10
52.79292813682585
 20
-7.347523486115739
 30
0.0
  0
VERTEX
  5
584
  8
LAYER_1
 10
52.77396900796877
 20
-7.361059287237394
 30
0.0
  0
VERTEX
  5
585
  8
LAYER_1
 10
52.75484439789064
 20
-7.374202291463604
 30
0.0
  0
VERTEX
  5
586
  8
LAYER_1
 10
52.73196563555533
 20
-7.389200658552527
 30
0.0
  0
VERTEX
  5
587
  8
LAYER_1
 10
52.70869981995652
 20
-7.403651642676654
 30
0.0
  0
VERTEX
  5
588
  8
LAYER_1
 10
52.68506945085502
 20
-7.417576222506103
 30
0.0
  0
VERTEX
  5
589
  8
LAYER_1
 10
52.66109702801162
 20
-7.430995376710992
 30
0.0
  0
VERTEX
  5
58A
  8
LAYER_1
 10
52.63680505118714
 20
-7.443930083961444
 30
0.0
  0
VERTEX
  5
58B
  8
LAYER_1
 10
52.61221602014238
 20
-7.456401322927574
 30
0.0
  0
VERTEX
  5
58C
  8
LAYER_1
 10
52.58735243463813
 20
-7.468430072279507
 30
0.0
  0
VERTEX
  5
58D
  8
LAYER_1
 10
52.56223679443521
 20
-7.480037310687356
 30
0.0
  0
VERTEX
  5
58E
  8
LAYER_1
 10
52.53689159929443
 20
-7.491244016821245
 30
0.0
  0
VERTEX
  5
58F
  8
LAYER_1
 10
52.51133934897658
 20
-7.502071169351292
 30
0.0
  0
VERTEX
  5
590
  8
LAYER_1
 10
52.48560254324248
 20
-7.512539746947615
 30
0.0
  0
VERTEX
  5
591
  8
LAYER_1
 10
52.45970368185291
 20
-7.522670728280337
 30
0.0
  0
VERTEX
  5
592
  8
LAYER_1
 10
52.4336652645687
 20
-7.532485092019575
 30
0.0
  0
VERTEX
  5
593
  8
LAYER_1
 10
52.40750979115064
 20
-7.542003816835447
 30
0.0
  0
VERTEX
  5
594
  8
LAYER_1
 10
52.35493767495623
 20
-7.560238264377574
 30
0.0
  0
VERTEX
  5
595
  8
LAYER_1
 10
52.30216733135609
 20
-7.577541900267676
 30
0.0
  0
VERTEX
  5
596
  8
LAYER_1
 10
52.24937875843667
 20
-7.594082553866709
 30
0.0
  0
VERTEX
  5
597
  8
LAYER_1
 10
52.14446691698576
 20
-7.625546231635381
 30
0.0
  0
VERTEX
  5
598
  8
LAYER_1
 10
52.04164213529499
 20
-7.655971932571231
 30
0.0
  0
VERTEX
  5
599
  8
LAYER_1
 10
51.99146238707576
 20
-7.671215115129236
 30
0.0
  0
VERTEX
  5
59A
  8
LAYER_1
 10
51.94234439805588
 20
-7.6867022915619
 30
0.0
  0
VERTEX
  5
59B
  8
LAYER_1
 10
39.06734439781361
 20
-11.84290229142317
 30
0.0
  0
VERTEX
  5
59C
  8
LAYER_1
 10
39.00893135641135
 20
-11.86167719039395
 30
0.0
  0
VERTEX
  5
59D
  8
LAYER_1
 10
38.94979594191742
 20
-11.8804030438681
 30
0.0
  0
VERTEX
  5
59E
  8
LAYER_1
 10
38.88997617832038
 20
-11.8988887573387
 30
0.0
  0
VERTEX
  5
59F
  8
LAYER_1
 10
38.82951008960885
 20
-11.91694323629884
 30
0.0
  0
VERTEX
  5
5A0
  8
LAYER_1
 10
38.76843569977144
 20
-11.93437538624162
 30
0.0
  0
VERTEX
  5
5A1
  8
LAYER_1
 10
38.70679103279674
 20
-11.95099411266012
 30
0.0
  0
VERTEX
  5
5A2
  8
LAYER_1
 10
38.67576672787934
 20
-11.95893872501435
 30
0.0
  0
VERTEX
  5
5A3
  8
LAYER_1
 10
38.64461411267335
 20
-11.96660832104742
 30
0.0
  0
VERTEX
  5
5A4
  8
LAYER_1
 10
38.61333794017733
 20
-11.97397901394597
 30
0.0
  0
VERTEX
  5
5A5
  8
LAYER_1
 10
38.58194296338986
 20
-11.98102691689664
 30
0.0
  0
VERTEX
  5
5A6
  8
LAYER_1
 10
38.55043393530951
 20
-11.98772814308604
 30
0.0
  0
VERTEX
  5
5A7
  8
LAYER_1
 10
38.51881560893487
 20
-11.99405880570083
 30
0.0
  0
VERTEX
  5
5A8
  8
LAYER_1
 10
38.4870927372645
 20
-11.99999501792765
 30
0.0
  0
VERTEX
  5
5A9
  8
LAYER_1
 10
38.45527007329699
 20
-12.00551289295312
 30
0.0
  0
VERTEX
  5
5AA
  8
LAYER_1
 10
38.42335237003091
 20
-12.01058854396388
 30
0.0
  0
VERTEX
  5
5AB
  8
LAYER_1
 10
38.39134438046482
 20
-12.01519808414656
 30
0.0
  0
VERTEX
  5
5AC
  8
LAYER_1
 10
38.35925085759731
 20
-12.01931762668782
 30
0.0
  0
VERTEX
  5
5AD
  8
LAYER_1
 10
38.32707655442695
 20
-12.02292328477427
 30
0.0
  0
VERTEX
  5
5AE
  8
LAYER_1
 10
38.29482622395231
 20
-12.02599117159256
 30
0.0
  0
VERTEX
  5
5AF
  8
LAYER_1
 10
38.26250461917198
 20
-12.02849740032932
 30
0.0
  0
VERTEX
  5
5B0
  8
LAYER_1
 10
38.23011649308451
 20
-12.03041808417119
 30
0.0
  0
VERTEX
  5
5B1
  8
LAYER_1
 10
38.1976665986885
 20
-12.03172933630481
 30
0.0
  0
VERTEX
  5
5B2
  8
LAYER_1
 10
38.16515968898251
 20
-12.03240726991681
 30
0.0
  0
VERTEX
  5
5B3
  8
LAYER_1
 10
38.13260051696513
 20
-12.03242799819382
 30
0.0
  0
VERTEX
  5
5B4
  8
LAYER_1
 10
38.09999383563491
 20
-12.03176763432249
 30
0.0
  0
VERTEX
  5
5B5
  8
LAYER_1
 10
38.06734439799044
 20
-12.03040229148945
 30
0.0
  0
VERTEX
  5
5B6
  8
LAYER_1
 10
38.01533821021842
 20
-12.02816491254734
 30
0.0
  0
VERTEX
  5
5B7
  8
LAYER_1
 10
37.96229655775107
 20
-12.02673973213236
 30
0.0
  0
VERTEX
  5
5B8
  8
LAYER_1
 10
37.90836471695907
 20
-12.02590502567262
 30
0.0
  0
VERTEX
  5
5B9
  8
LAYER_1
 10
37.85368796421308
 20
-12.0254390685962
 30
0.0
  0
VERTEX
  5
5BA
  8
LAYER_1
 10
37.74268082834173
 20
-12.02472650430578
 30
0.0
  0
VERTEX
  5
5BB
  8
LAYER_1
 10
37.68664099795769
 20
-12.02403644794797
 30
0.0
  0
VERTEX
  5
5BC
  8
LAYER_1
 10
37.63043736110228
 20
-12.0228282426859
 30
0.0
  0
VERTEX
  5
5BD
  8
LAYER_1
 10
37.57421519414618
 20
-12.02088016394767
 30
0.0
  0
VERTEX
  5
5BE
  8
LAYER_1
 10
37.51811977346001
 20
-12.01797048716138
 30
0.0
  0
VERTEX
  5
5BF
  8
LAYER_1
 10
37.490164991834
 20
-12.0160857605715
 30
0.0
  0
VERTEX
  5
5C0
  8
LAYER_1
 10
37.46229637541447
 20
-12.01387748775514
 30
0.0
  0
VERTEX
  5
5C1
  8
LAYER_1
 10
37.43453208374775
 20
-12.01131795314081
 30
0.0
  0
VERTEX
  5
5C2
  8
LAYER_1
 10
37.4068902763802
 20
-12.00837944115703
 30
0.0
  0
VERTEX
  5
5C3
  8
LAYER_1
 10
37.37938911285811
 20
-12.00503423623232
 30
0.0
  0
VERTEX
  5
5C4
  8
LAYER_1
 10
37.35204675272784
 20
-12.00125462279518
 30
0.0
  0
VERTEX
  5
5C5
  8
LAYER_1
 10
37.32488135553573
 20
-11.99701288527412
 30
0.0
  0
VERTEX
  5
5C6
  8
LAYER_1
 10
37.29791108082809
 20
-11.99228130809766
 30
0.0
  0
VERTEX
  5
5C7
  8
LAYER_1
 10
37.27115408815125
 20
-11.98703217569432
 30
0.0
  0
VERTEX
  5
5C8
  8
LAYER_1
 10
37.24462853705157
 20
-11.9812377724926
 30
0.0
  0
VERTEX
  5
5C9
  8
LAYER_1
 10
37.21835258707535
 20
-11.97487038292102
 30
0.0
  0
VERTEX
  5
5CA
  8
LAYER_1
 10
37.19234439776895
 20
-11.96790229140808
 30
0.0
  0
VERTEX
  5
5CB
  8
LAYER_1
 10
37.08388901564636
 20
-11.93712483013882
 30
0.0
  0
VERTEX
  5
5CC
  8
LAYER_1
 10
37.02859565931455
 20
-11.92111355050048
 30
0.0
  0
VERTEX
  5
5CD
  8
LAYER_1
 10
36.97279024609183
 20
-11.90463285178961
 30
0.0
  0
VERTEX
  5
5CE
  8
LAYER_1
 10
36.91662156594529
 20
-11.88764194420365
 30
0.0
  0
VERTEX
  5
5CF
  8
LAYER_1
 10
36.86023840884205
 20
-11.87010003794009
 30
0.0
  0
VERTEX
  5
5D0
  8
LAYER_1
 10
36.80378956474918
 20
-11.85196634319636
 30
0.0
  0
VERTEX
  5
5D1
  8
LAYER_1
 10
36.74742382363377
 20
-11.83320007016992
 30
0.0
  0
VERTEX
  5
5D2
  8
LAYER_1
 10
36.6912899754629
 20
-11.81376042905824
 30
0.0
  0
VERTEX
  5
5D3
  8
LAYER_1
 10
36.63553681020367
 20
-11.79360663005877
 30
0.0
  0
VERTEX
  5
5D4
  8
LAYER_1
 10
36.5803131178232
 20
-11.77269788336897
 30
0.0
  0
VERTEX
  5
5D5
  8
LAYER_1
 10
36.52576768828852
 20
-11.75099339918629
 30
0.0
  0
VERTEX
  5
5D6
  8
LAYER_1
 10
36.47204931156677
 20
-11.7284523877082
 30
0.0
  0
VERTEX
  5
5D7
  8
LAYER_1
 10
36.44554676487544
 20
-11.71685543742007
 30
0.0
  0
VERTEX
  5
5D8
  8
LAYER_1
 10
36.41930677762501
 20
-11.70503405913214
 30
0.0
  0
VERTEX
  5
5D9
  8
LAYER_1
 10
36.39334794856134
 20
-11.69298315411908
 30
0.0
  0
VERTEX
  5
5DA
  8
LAYER_1
 10
36.36768887643034
 20
-11.68069762365558
 30
0.0
  0
VERTEX
  5
5DB
  8
LAYER_1
 10
36.34234815997787
 20
-11.66817236901632
 30
0.0
  0
VERTEX
  5
5DC
  8
LAYER_1
 10
36.31734439794985
 20
-11.65540229147598
 30
0.0
  0
VERTEX
  5
5DD
  8
LAYER_1
 10
36.30053553707854
 20
-11.64643266046633
 30
0.0
  0
VERTEX
  5
5DE
  8
LAYER_1
 10
36.28385271085133
 20
-11.63706400124551
 30
0.0
  0
VERTEX
  5
5DF
  8
LAYER_1
 10
36.26729095361582
 20
-11.62731848038306
 30
0.0
  0
VERTEX
  5
5E0
  8
LAYER_1
 10
36.25084529971961
 20
-11.61721826444853
 30
0.0
  0
VERTEX
  5
5E1
  8
LAYER_1
 10
36.23451078351029
 20
-11.60678552001146
 30
0.0
  0
VERTEX
  5
5E2
  8
LAYER_1
 10
36.21828243933547
 20
-11.59604241364138
 30
0.0
  0
VERTEX
  5
5E3
  8
LAYER_1
 10
36.18612440447971
 20
-11.57371378138039
 30
0.0
  0
VERTEX
  5
5E4
  8
LAYER_1
 10
36.15433146993313
 20
-11.5504097002219
 30
0.0
  0
VERTEX
  5
5E5
  8
LAYER_1
 10
36.12286391047651
 20
-11.52630750272223
 30
0.0
  0
VERTEX
  5
5E6
  8
LAYER_1
 10
36.09168200089063
 20
-11.50158452143773
 30
0.0
  0
VERTEX
  5
5E7
  8
LAYER_1
 10
36.0607460159563
 20
-11.47641808892472
 30
0.0
  0
VERTEX
  5
5E8
  8
LAYER_1
 10
35.9994529191654
 20
-11.42546420043852
 30
0.0
  0
VERTEX
  5
5E9
  8
LAYER_1
 10
35.93866681835013
 20
-11.37486449771431
 30
0.0
  0
VERTEX
  5
5EA
  8
LAYER_1
 10
35.90836457838533
 20
-11.35014079740378
 30
0.0
  0
VERTEX
  5
5EB
  8
LAYER_1
 10
35.87806991175681
 20
-11.32603764120275
 30
0.0
  0
VERTEX
  5
5EC
  8
LAYER_1
 10
35.84774309324535
 20
-11.30273236166754
 30
0.0
  0
VERTEX
  5
5ED
  8
LAYER_1
 10
35.81734439763176
 20
-11.28040229135451
 30
0.0
  0
VERTEX
  5
5EE
  8
LAYER_1
 10
35.79826947344566
 20
-11.26646308018118
 30
0.0
  0
VERTEX
  5
5EF
  8
LAYER_1
 10
35.77925077485645
 20
-11.25199681838293
 30
0.0
  0
VERTEX
  5
5F0
  8
LAYER_1
 10
35.76029233607345
 20
-11.23703273415889
 30
0.0
  0
VERTEX
  5
5F1
  8
LAYER_1
 10
35.74139819130599
 20
-11.22160005570818
 30
0.0
  0
VERTEX
  5
5F2
  8
LAYER_1
 10
35.7225723747634
 20
-11.20572801122992
 30
0.0
  0
VERTEX
  5
5F3
  8
LAYER_1
 10
35.70381892065501
 20
-11.18944582892322
 30
0.0
  0
VERTEX
  5
5F4
  8
LAYER_1
 10
35.68514186319013
 20
-11.17278273698722
 30
0.0
  0
VERTEX
  5
5F5
  8
LAYER_1
 10
35.6665452365781
 20
-11.15576796362104
 30
0.0
  0
VERTEX
  5
5F6
  8
LAYER_1
 10
35.62960941274991
 20
-11.1208002853946
 30
0.0
  0
VERTEX
  5
5F7
  8
LAYER_1
 10
35.59304372284505
 20
-11.0847766198369
 30
0.0
  0
VERTEX
  5
5F8
  8
LAYER_1
 10
35.55688044053812
 20
-11.04793079254089
 30
0.0
  0
VERTEX
  5
5F9
  8
LAYER_1
 10
35.52115183950377
 20
-11.01049662909957
 30
0.0
  0
VERTEX
  5
5FA
  8
LAYER_1
 10
35.48589019341659
 20
-10.97270795510591
 30
0.0
  0
VERTEX
  5
5FB
  8
LAYER_1
 10
35.45112777595122
 20
-10.93479859615288
 30
0.0
  0
VERTEX
  5
5FC
  8
LAYER_1
 10
35.38322972158435
 20
-10.85955312574064
 30
0.0
  0
VERTEX
  5
5FD
  8
LAYER_1
 10
35.31771586580011
 20
-10.78663082260665
 30
0.0
  0
VERTEX
  5
5FE
  8
LAYER_1
 10
35.28593369656302
 20
-10.75162542275145
 30
0.0
  0
VERTEX
  5
5FF
  8
LAYER_1
 10
35.25484439799544
 20
-10.71790229149474
 30
0.0
  0
VERTEX
  5
600
  8
LAYER_1
 10
35.23430606168104
 20
-10.69529859710331
 30
0.0
  0
VERTEX
  5
601
  8
LAYER_1
 10
35.21449127867575
 20
-10.67240533311885
 30
0.0
  0
VERTEX
  5
602
  8
LAYER_1
 10
35.19537199339918
 20
-10.64923347630323
 30
0.0
  0
VERTEX
  5
603
  8
LAYER_1
 10
35.1769201502709
 20
-10.62579400341831
 30
0.0
  0
VERTEX
  5
604
  8
LAYER_1
 10
35.1591076937105
 20
-10.60209789122596
 30
0.0
  0
VERTEX
  5
605
  8
LAYER_1
 10
35.14190656813756
 20
-10.57815611648802
 30
0.0
  0
VERTEX
  5
606
  8
LAYER_1
 10
35.12528871797168
 20
-10.55397965596636
 30
0.0
  0
VERTEX
  5
607
  8
LAYER_1
 10
35.10922608763244
 20
-10.52957948642285
 30
0.0
  0
VERTEX
  5
608
  8
LAYER_1
 10
35.09369062153944
 20
-10.50496658461935
 30
0.0
  0
VERTEX
  5
609
  8
LAYER_1
 10
35.07865426411225
 20
-10.48015192731771
 30
0.0
  0
VERTEX
  5
60A
  8
LAYER_1
 10
35.06408895977046
 20
-10.4551464912798
 30
0.0
  0
VERTEX
  5
60B
  8
LAYER_1
 10
35.04996665293368
 20
-10.42996125326748
 30
0.0
  0
VERTEX
  5
60C
  8
LAYER_1
 10
35.03625928802147
 20
-10.40460719004261
 30
0.0
  0
VERTEX
  5
60D
  8
LAYER_1
 10
35.02293880945342
 20
-10.37909527836705
 30
0.0
  0
VERTEX
  5
60E
  8
LAYER_1
 10
35.00997716164914
 20
-10.35343649500266
 30
0.0
  0
VERTEX
  5
60F
  8
LAYER_1
 10
34.9973462890282
 20
-10.32764181671131
 30
0.0
  0
VERTEX
  5
610
  8
LAYER_1
 10
34.97296464701471
 20
-10.27568868239515
 30
0.0
  0
VERTEX
  5
611
  8
LAYER_1
 10
34.94956943876962
 20
-10.22332368951347
 30
0.0
  0
VERTEX
  5
612
  8
LAYER_1
 10
34.92693621964966
 20
-10.17063465216115
 30
0.0
  0
VERTEX
  5
613
  8
LAYER_1
 10
34.90484054501152
 20
-10.11770938443308
 30
0.0
  0
VERTEX
  5
614
  8
LAYER_1
 10
34.86136405060752
 20
-10.01150141422925
 30
0.0
  0
VERTEX
  5
615
  8
LAYER_1
 10
34.83953434155505
 20
-9.958394339943279
 30
0.0
  0
VERTEX
  5
616
  8
LAYER_1
 10
34.81734439841121
 20
-9.905402291661119
 30
0.0
  0
VERTEX
  5
617
  8
LAYER_1
 10
32.62984439785441
 20
-4.749202291441208
 30
0.0
  0
VERTEX
  5
618
  8
LAYER_1
 10
32.61140022984638
 20
-4.705966935843295
 30
0.0
  0
VERTEX
  5
619
  8
LAYER_1
 10
32.59199453908757
 20
-4.661684101007149
 30
0.0
  0
VERTEX
  5
61A
  8
LAYER_1
 10
32.57139475381165
 20
-4.616914720208749
 30
0.0
  0
VERTEX
  5
61B
  8
LAYER_1
 10
32.56057439705282
 20
-4.594522866722444
 30
0.0
  0
VERTEX
  5
61C
  8
LAYER_1
 10
32.54936830225235
 20
-4.572219726724066
 30
0.0
  0
VERTEX
  5
61D
  8
LAYER_1
 10
32.53774739793947
 20
-4.550075416873111
 30
0.0
  0
VERTEX
  5
61E
  8
LAYER_1
 10
32.52568261264337
 20
-4.528160053829075
 30
0.0
  0
VERTEX
  5
61F
  8
LAYER_1
 10
32.51314487489328
 20
-4.506543754251457
 30
0.0
  0
VERTEX
  5
620
  8
LAYER_1
 10
32.50010511321842
 20
-4.485296634799752
 30
0.0
  0
VERTEX
  5
621
  8
LAYER_1
 10
32.48653425614798
 20
-4.464488812133457
 30
0.0
  0
VERTEX
  5
622
  8
LAYER_1
 10
32.47240323221119
 20
-4.444190402912069
 30
0.0
  0
VERTEX
  5
623
  8
LAYER_1
 10
32.45768296993727
 20
-4.424471523795086
 30
0.0
  0
VERTEX
  5
624
  8
LAYER_1
 10
32.44234439785541
 20
-4.405402291442002
 30
0.0
  0
VERTEX
  5
625
  8
LAYER_1
 10
32.42486782765241
 20
-4.38533655060692
 30
0.0
  0
VERTEX
  5
626
  8
LAYER_1
 10
32.40669973235664
 20
-4.366083587972263
 30
0.0
  0
VERTEX
  5
627
  8
LAYER_1
 10
32.38787387649364
 20
-4.347652007947428
 30
0.0
  0
VERTEX
  5
628
  8
LAYER_1
 10
32.36842402458889
 20
-4.330050414941816
 30
0.0
  0
VERTEX
  5
629
  8
LAYER_1
 10
32.34838394116791
 20
-4.313287413364826
 30
0.0
  0
VERTEX
  5
62A
  8
LAYER_1
 10
32.3277873907562
 20
-4.297371607625856
 30
0.0
  0
VERTEX
  5
62B
  8
LAYER_1
 10
32.30666813787927
 20
-4.282311602134308
 30
0.0
  0
VERTEX
  5
62C
  8
LAYER_1
 10
32.28505994706265
 20
-4.268116001299578
 30
0.0
  0
VERTEX
  5
62D
  8
LAYER_1
 10
32.26299658283182
 20
-4.254793409531068
 30
0.0
  0
VERTEX
  5
62E
  8
LAYER_1
 10
32.2405118097123
 20
-4.242352431238176
 30
0.0
  0
VERTEX
  5
62F
  8
LAYER_1
 10
32.2176393922296
 20
-4.230801670830301
 30
0.0
  0
VERTEX
  5
630
  8
LAYER_1
 10
32.19441309490922
 20
-4.220149732716843
 30
0.0
  0
VERTEX
  5
631
  8
LAYER_1
 10
32.17086668227668
 20
-4.210405221307201
 30
0.0
  0
VERTEX
  5
632
  8
LAYER_1
 10
32.14703391885749
 20
-4.201576741010775
 30
0.0
  0
VERTEX
  5
633
  8
LAYER_1
 10
32.12294856917714
 20
-4.193672896236963
 30
0.0
  0
VERTEX
  5
634
  8
LAYER_1
 10
32.09864439776115
 20
-4.186702291395164
 30
0.0
  0
VERTEX
  5
635
  8
LAYER_1
 10
24.00484439736044
 20
-2.030402291221407
 30
0.0
  0
VERTEX
  5
636
  8
LAYER_1
 10
23.95559374066298
 20
-2.017155477139106
 30
0.0
  0
VERTEX
  5
637
  8
LAYER_1
 10
23.90267347202611
 20
-2.003001436120518
 30
0.0
  0
VERTEX
  5
638
  8
LAYER_1
 10
23.84672537978331
 20
-1.988594040610447
 30
0.0
  0
VERTEX
  5
639
  8
LAYER_1
 10
23.8178164586639
 20
-1.981499670060106
 30
0.0
  0
VERTEX
  5
63A
  8
LAYER_1
 10
23.78839125226807
 20
-1.974587163053696
 30
0.0
  0
VERTEX
  5
63B
  8
LAYER_1
 10
23.75852998413749
 20
-1.967938253646818
 30
0.0
  0
VERTEX
  5
63C
  8
LAYER_1
 10
23.72831287781386
 20
-1.961634675895071
 30
0.0
  0
VERTEX
  5
63D
  8
LAYER_1
 10
23.69782015683885
 20
-1.955758163854056
 30
0.0
  0
VERTEX
  5
63E
  8
LAYER_1
 10
23.66713204475416
 20
-1.950390451579373
 30
0.0
  0
VERTEX
  5
63F
  8
LAYER_1
 10
23.63632876510147
 20
-1.945613273126624
 30
0.0
  0
VERTEX
  5
640
  8
LAYER_1
 10
23.60549054142246
 20
-1.941508362551408
 30
0.0
  0
VERTEX
  5
641
  8
LAYER_1
 10
23.57469759725883
 20
-1.938157453909327
 30
0.0
  0
VERTEX
  5
642
  8
LAYER_1
 10
23.54403015615225
 20
-1.93564228125598
 30
0.0
  0
VERTEX
  5
643
  8
LAYER_1
 10
23.48833421728156
 20
-1.931623215606503
 30
0.0
  0
VERTEX
  5
644
  8
LAYER_1
 10
23.43436560776015
 20
-1.927625799024492
 30
0.0
  0
VERTEX
  5
645
  8
LAYER_1
 10
23.38182105136084
 20
-1.924232287968187
 30
0.0
  0
VERTEX
  5
646
  8
LAYER_1
 10
23.35598801926098
 20
-1.922943952155373
 30
0.0
  0
VERTEX
  5
647
  8
LAYER_1
 10
23.33039727185645
 20
-1.922024938895825
 30
0.0
  0
VERTEX
  5
648
  8
LAYER_1
 10
23.30501089961887
 20
-1.921548030246823
 30
0.0
  0
VERTEX
  5
649
  8
LAYER_1
 10
23.27979099301982
 20
-1.921586008265646
 30
0.0
  0
VERTEX
  5
64A
  8
LAYER_1
 10
23.25469964253092
 20
-1.922211655009574
 30
0.0
  0
VERTEX
  5
64B
  8
LAYER_1
 10
23.22969893862378
 20
-1.923497752535887
 30
0.0
  0
VERTEX
  5
64C
  8
LAYER_1
 10
23.20475097176999
 20
-1.925517082901865
 30
0.0
  0
VERTEX
  5
64D
  8
LAYER_1
 10
23.17981783244115
 20
-1.928342428164788
 30
0.0
  0
VERTEX
  5
64E
  8
LAYER_1
 10
23.15486161110887
 20
-1.932046570381935
 30
0.0
  0
VERTEX
  5
64F
  8
LAYER_1
 10
23.12984439824476
 20
-1.936702291610587
 30
0.0
  0
VERTEX
  5
650
  8
LAYER_1
 10
23.12060413912526
 20
-1.938815074621017
 30
0.0
  0
VERTEX
  5
651
  8
LAYER_1
 10
23.11148818168215
 20
-1.941319568299148
 30
0.0
  0
VERTEX
  5
652
  8
LAYER_1
 10
23.10249720478458
 20
-1.944206323076553
 30
0.0
  0
VERTEX
  5
653
  8
LAYER_1
 10
23.09363188730168
 20
-1.947465889384809
 30
0.0
  0
VERTEX
  5
654
  8
LAYER_1
 10
23.0848929081026
 20
-1.951088817655491
 30
0.0
  0
VERTEX
  5
655
  8
LAYER_1
 10
23.07628094605648
 20
-1.955065658320174
 30
0.0
  0
VERTEX
  5
656
  8
LAYER_1
 10
23.06779668003244
 20
-1.959386961810432
 30
0.0
  0
VERTEX
  5
657
  8
LAYER_1
 10
23.05944078889964
 20
-1.964043278557843
 30
0.0
  0
VERTEX
  5
658
  8
LAYER_1
 10
23.0512139515272
 20
-1.969025158993979
 30
0.0
  0
VERTEX
  5
659
  8
LAYER_1
 10
23.04311684678428
 20
-1.974323153550418
 30
0.0
  0
VERTEX
  5
65A
  8
LAYER_1
 10
23.03515015354
 20
-1.979927812658734
 30
0.0
  0
VERTEX
  5
65B
  8
LAYER_1
 10
23.02731455066351
 20
-1.985829686750502
 30
0.0
  0
VERTEX
  5
65C
  8
LAYER_1
 10
23.01203933149045
 20
-1.998487281610697
 30
0.0
  0
VERTEX
  5
65D
  8
LAYER_1
 10
22.99729662021821
 20
-2.012220341583603
 30
0.0
  0
VERTEX
  5
65E
  8
LAYER_1
 10
22.9830918477999
 20
-2.026953270121824
 30
0.0
  0
VERTEX
  5
65F
  8
LAYER_1
 10
22.96943044518862
 20
-2.042610470677962
 30
0.0
  0
VERTEX
  5
660
  8
LAYER_1
 10
22.95631784333751
 20
-2.059116346704619
 30
0.0
  0
VERTEX
  5
661
  8
LAYER_1
 10
22.94375947319965
 20
-2.076395301654395
 30
0.0
  0
VERTEX
  5
662
  8
LAYER_1
 10
22.93176076572817
 20
-2.094371738979895
 30
0.0
  0
VERTEX
  5
663
  8
LAYER_1
 10
22.92032715187619
 20
-2.112970062133718
 30
0.0
  0
VERTEX
  5
664
  8
LAYER_1
 10
22.9094640625968
 20
-2.132114674568467
 30
0.0
  0
VERTEX
  5
665
  8
LAYER_1
 10
22.89917692884314
 20
-2.151729979736745
 30
0.0
  0
VERTEX
  5
666
  8
LAYER_1
 10
22.8894711815683
 20
-2.171740381091152
 30
0.0
  0
VERTEX
  5
667
  8
LAYER_1
 10
22.88035225172539
 20
-2.192070282084293
 30
0.0
  0
VERTEX
  5
668
  8
LAYER_1
 10
22.87182557026753
 20
-2.212644086168767
 30
0.0
  0
VERTEX
  5
669
  8
LAYER_1
 10
22.86389656814784
 20
-2.233386196797177
 30
0.0
  0
VERTEX
  5
66A
  8
LAYER_1
 10
22.85657067631942
 20
-2.254221017422125
 30
0.0
  0
VERTEX
  5
66B
  8
LAYER_1
 10
22.84985332573539
 20
-2.275072951496214
 30
0.0
  0
VERTEX
  5
66C
  8
LAYER_1
 10
22.84374994734885
 20
-2.295866402472044
 30
0.0
  0
VERTEX
  5
66D
  8
LAYER_1
 10
22.83826597211293
 20
-2.316525773802218
 30
0.0
  0
VERTEX
  5
66E
  8
LAYER_1
 10
22.83340683098072
 20
-2.336975468939338
 30
0.0
  0
VERTEX
  5
66F
  8
LAYER_1
 10
22.82917795490535
 20
-2.357139891336006
 30
0.0
  0
VERTEX
  5
670
  8
LAYER_1
 10
22.82558477483994
 20
-2.376943444444824
 30
0.0
  0
VERTEX
  5
671
  8
LAYER_1
 10
22.82263272173758
 20
-2.396310531718394
 30
0.0
  0
VERTEX
  5
672
  8
LAYER_1
 10
22.82032722655139
 20
-2.415165556609318
 30
0.0
  0
VERTEX
  5
673
  8
LAYER_1
 10
22.81867372023448
 20
-2.433432922570197
 30
0.0
  0
VERTEX
  5
674
  8
LAYER_1
 10
22.81767763373997
 20
-2.451037033053635
 30
0.0
  0
VERTEX
  5
675
  8
LAYER_1
 10
22.81734439802096
 20
-2.467902291512232
 30
0.0
  0
VERTEX
  5
676
  8
LAYER_1
 10
22.81734439735268
 20
-3.28040229123269
 30
0.0
  0
VERTEX
  5
677
  8
LAYER_1
 10
22.81755123586696
 20
-3.315762623654191
 30
0.0
  0
VERTEX
  5
678
  8
LAYER_1
 10
22.81816081363194
 20
-3.351105767177635
 30
0.0
  0
VERTEX
  5
679
  8
LAYER_1
 10
22.81915672389356
 20
-3.386432124032099
 30
0.0
  0
VERTEX
  5
67A
  8
LAYER_1
 10
22.82052255989776
 20
-3.421742096446661
 30
0.0
  0
VERTEX
  5
67B
  8
LAYER_1
 10
22.82224191489049
 20
-3.457036086650398
 30
0.0
  0
VERTEX
  5
67C
  8
LAYER_1
 10
22.82429838211768
 20
-3.492314496872387
 30
0.0
  0
VERTEX
  5
67D
  8
LAYER_1
 10
22.82935702625921
 20
-3.56282618628743
 30
0.0
  0
VERTEX
  5
67E
  8
LAYER_1
 10
22.83556723828989
 20
-3.63328038252441
 30
0.0
  0
VERTEX
  5
67F
  8
LAYER_1
 10
22.84279776417725
 20
-3.703680303415943
 30
0.0
  0
VERTEX
  5
680
  8
LAYER_1
 10
22.8509173498888
 20
-3.774029166794649
 30
0.0
  0
VERTEX
  5
681
  8
LAYER_1
 10
22.85979474139209
 20
-3.844330190493146
 30
0.0
  0
VERTEX
  5
682
  8
LAYER_1
 10
22.86929868465463
 20
-3.914586592344052
 30
0.0
  0
VERTEX
  5
683
  8
LAYER_1
 10
22.87929792564395
 20
-3.984801590179986
 30
0.0
  0
VERTEX
  5
684
  8
LAYER_1
 10
22.90025728467306
 20
-4.125120245137407
 30
0.0
  0
VERTEX
  5
685
  8
LAYER_1
 10
22.92162278621962
 20
-4.265311898026358
 30
0.0
  0
VERTEX
  5
686
  8
LAYER_1
 10
22.93212970535577
 20
-4.335368143276702
 30
0.0
  0
VERTEX
  5
687
  8
LAYER_1
 10
22.94234439802386
 20
-4.405402291507784
 30
0.0
  0
VERTEX
  5
688
  8
LAYER_1
 10
27.12984439784816
 20
-33.65540229144145
 30
0.0
  0
SEQEND
  5
80B
  8
LAYER_1
  0
POLYLINE
  5
A6
  8
LAYER_1
 66
     1
 10
0.0
 20
0.0
 30
0.0
 70
     1
  0
VERTEX
  5
689
  8
LAYER_1
 10
55.58284105244124
 20
-9.281237320331016
 30
0.0
 42
-0.182943023321671
  0
VERTEX
  5
68A
  8
LAYER_1
 10
55.62984439785778
 20
-9.405402291441447
 30
0.0
 42
-0.4142135623730951
  0
VERTEX
  5
68B
  8
LAYER_1
 10
55.44234439785778
 20
-9.592902291441447
 30
0.0
 42
-0.2351926824882516
  0
VERTEX
  5
68C
  8
LAYER_1
 10
55.29271838641782
 20
-9.518399223703227
 30
0.0
  0
VERTEX
  5
68D
  8
LAYER_1
 10
54.03891313462871
 20
-7.700675653010677
 30
0.0
 42
-0.1542944802827582
  0
VERTEX
  5
68E
  8
LAYER_1
 10
54.00484439785778
 20
-7.592902291441447
 30
0.0
 42
-0.4142135623730951
  0
VERTEX
  5
68F
  8
LAYER_1
 10
54.19234439785778
 20
-7.405402291441447
 30
0.0
 42
-0.1935433870032111
  0
VERTEX
  5
690
  8
LAYER_1
 10
54.32215701262366
 20
-7.45760655962539
 30
0.0
  0
SEQEND
  5
80C
  8
LAYER_1
  0
POLYLINE
  5
A7
  8
LAYER_1
 66
     1
 10
0.0
 20
0.0
 30
0.0
 70
     1
  0
VERTEX
  5
691
  8
LAYER_1
 10
38.20498823700409
 20
-19.91765323124184
 30
0.0
 42
-0.1128480835878667
  0
VERTEX
  5
692
  8
LAYER_1
 10
38.22364439785778
 20
-19.99920229144143
 30
0.0
 42
-0.4142135623730951
  0
VERTEX
  5
693
  8
LAYER_1
 10
38.03614439785778
 20
-20.18670229144143
 30
0.0
 42
-0.2838819465829341
  0
VERTEX
  5
694
  8
LAYER_1
 10
37.86850051914939
 20
-20.0831771682297
 30
0.0
  0
VERTEX
  5
695
  8
LAYER_1
 10
31.73460879608697
 20
-5.312893692992589
 30
0.0
 42
-0.0842437368403551
  0
VERTEX
  5
696
  8
LAYER_1
 10
31.72364439785778
 20
-5.249202291441435
 30
0.0
 42
-0.4142135623730951
  0
VERTEX
  5
697
  8
LAYER_1
 10
31.91114439785778
 20
-5.061702291441435
 30
0.0
 42
-0.2708198638733647
  0
VERTEX
  5
698
  8
LAYER_1
 10
32.07451850365102
 20
-5.157196033196357
 30
0.0
  0
SEQEND
  5
80D
  8
LAYER_1
  0
POLYLINE
  5
A8
  8
LAYER_1
 66
     1
 10
0.0
 20
0.0
 30
0.0
 70
     1
  0
VERTEX
  5
699
  8
LAYER_1
 10
28.26337246736023
 20
-33.805906947007
 30
0.0
  0
VERTEX
  5
69A
  8
LAYER_1
 10
24.06734439785782
 20
-3.342902291441433
 30
0.0
 42
-0.4142135623730951
  0
VERTEX
  5
69B
  8
LAYER_1
 10
24.25484439785782
 20
-3.155402291441433
 30
0.0
 42
-0.3154215272854258
  0
VERTEX
  5
69C
  8
LAYER_1
 10
24.43106538300472
 20
-3.278852198593682
 30
0.0
  0
VERTEX
  5
69D
  8
LAYER_1
 10
28.50309809197742
 20
-32.78079079679475
 30
0.0
  0
VERTEX
  5
69E
  8
LAYER_1
 10
28.50379941703559
 20
-32.78040229144143
 30
0.0
  0
VERTEX
  5
69F
  8
LAYER_1
 10
34.25484439785776
 20
-32.78040229144143
 30
0.0
 42
-0.4142135623730951
  0
VERTEX
  5
6A0
  8
LAYER_1
 10
34.44234439785776
 20
-32.96790229144143
 30
0.0
 42
-0.4142135623730951
  0
VERTEX
  5
6A1
  8
LAYER_1
 10
34.25484439785776
 20
-33.15540229144143
 30
0.0
  0
VERTEX
  5
6A2
  8
LAYER_1
 10
28.55496024063862
 20
-33.15574118560465
 30
0.0
  0
VERTEX
  5
6A3
  8
LAYER_1
 10
28.64486358666414
 20
-33.80781152221527
 30
0.0
  0
SEQEND
  5
80E
  8
LAYER_1
  0
POLYLINE
  5
A9
  8
LAYER_1
 66
     1
 10
0.0
 20
0.0
 30
0.0
 70
     1
  0
VERTEX
  5
6A4
  8
LAYER_1
 10
44.75484439785778
 20
-16.46740229144146
 30
0.0
 42
-0.4142135623730951
  0
VERTEX
  5
6A5
  8
LAYER_1
 10
44.88034439785778
 20
-16.59290229144145
 30
0.0
 42
-0.4142135623730951
  0
VERTEX
  5
6A6
  8
LAYER_1
 10
44.75484439785778
 20
-16.71840229144144
 30
0.0
 42
-0.4142135623730951
  0
VERTEX
  5
6A7
  8
LAYER_1
 10
44.62934439785778
 20
-16.59290229144145
 30
0.0
 42
-0.4142135623730951
  0
SEQEND
  5
80F
  8
LAYER_1
  0
POLYLINE
  5
AA
  8
LAYER_1
 66
     1
 10
0.0
 20
0.0
 30
0.0
 70
     1
  0
VERTEX
  5
6A8
  8
LAYER_1
 10
49.56734439785778
 20
-12.84240229144146
 30
0.0
 42
-0.4142135623730951
  0
VERTEX
  5
6A9
  8
LAYER_1
 10
49.69284439785778
 20
-12.96790229144145
 30
0.0
 42
-0.4142135623730951
  0
VERTEX
  5
6AA
  8
LAYER_1
 10
49.56734439785778
 20
-13.09340229144144
 30
0.0
 42
-0.4142135623730951
  0
VERTEX
  5
6AB
  8
LAYER_1
 10
49.44184439785778
 20
-12.96790229144145
 30
0.0
 42
-0.4142135623730951
  0
SEQEND
  5
810
  8
LAYER_1
  0
POLYLINE
  5
AB
  8
LAYER_1
 66
     1
 10
0.0
 20
0.0
 30
0.0
 70
     1
  0
VERTEX
  5
6AC
  8
LAYER_1
 10
47.17870133443462
 20
-14.64133981722705
 30
0.0
 42
-0.4142135623730951
  0
VERTEX
  5
6AD
  8
LAYER_1
 10
47.30420133443462
 20
-14.76683981722704
 30
0.0
 42
-0.4142135623730951
  0
VERTEX
  5
6AE
  8
LAYER_1
 10
47.17870133443462
 20
-14.89233981722703
 30
0.0
 42
-0.4142135623730951
  0
VERTEX
  5
6AF
  8
LAYER_1
 10
47.05320133443462
 20
-14.76683981722704
 30
0.0
 42
-0.4142135623730951
  0
SEQEND
  5
811
  8
LAYER_1
  0
POLYLINE
  5
AC
  8
LAYER_1
 66
     1
 10
0.0
 20
0.0
 30
0.0
 70
     1
  0
VERTEX
  5
6B0
  8
LAYER_1
 10
77.19237115926161
 20
-14.01010620706758
 30
0.0
  0
VERTEX
  5
6B1
  8
LAYER_1
 10
77.19237115926161
 20
-3.186702291440781
 30
0.0
  0
VERTEX
  5
6B2
  8
LAYER_1
 10
76.91108760604882
 20
-3.186702291441463
 30
0.0
  0
VERTEX
  5
6B3
  8
LAYER_1
 10
61.03234439785779
 20
-3.186702291441463
 30
0.0
  0
VERTEX
  5
6B4
  8
LAYER_1
 10
59.81734439785779
 20
-3.186702291441463
 30
0.0
 42
-0.4142135623730951
  0
VERTEX
  5
6B5
  8
LAYER_1
 10
59.62984439785779
 20
-2.999202291441463
 30
0.0
 42
-0.4142135623730951
  0
VERTEX
  5
6B6
  8
LAYER_1
 10
59.81734439785779
 20
-2.811702291441463
 30
0.0
  0
VERTEX
  5
6B7
  8
LAYER_1
 10
61.00403461818685
 20
-2.811702291441463
 30
0.0
  0
VERTEX
  5
6B8
  8
LAYER_1
 10
91.44066411059573
 20
-2.811702291441463
 30
0.0
  0
VERTEX
  5
6B9
  8
LAYER_1
 10
91.44067643221507
 20
-2.811151863904655
 30
0.0
 42
-0.4115311864778598
  0
VERTEX
  5
6BA
  8
LAYER_1
 10
91.56617115926161
 20
-2.686802291440785
 30
0.0
 42
-0.4142135623730951
  0
VERTEX
  5
6BB
  8
LAYER_1
 10
91.6916779945436
 20
-2.812380109863682
 30
0.0
  0
VERTEX
  5
6BC
  8
LAYER_1
 10
91.6923443978578
 20
-5.717501723437266
 30
0.0
  0
VERTEX
  5
6BD
  8
LAYER_1
 10
91.69224962291342
 20
-5.717902291441462
 30
0.0
  0
VERTEX
  5
6BE
  8
LAYER_1
 10
94.99427115926161
 20
-5.719448231887995
 30
0.0
  0
VERTEX
  5
6BF
  8
LAYER_1
 10
94.99427115926161
 20
-6.095887922624499
 30
0.0
  0
VERTEX
  5
6C0
  8
LAYER_1
 10
91.69237118240584
 20
-6.092902291441462
 30
0.0
  0
VERTEX
  5
6C1
  8
LAYER_1
 10
91.6923443978578
 20
-6.093020453148
 30
0.0
  0
VERTEX
  5
6C2
  8
LAYER_1
 10
91.69234439785778
 20
-29.31168572306938
 30
0.0
  0
VERTEX
  5
6C3
  8
LAYER_1
 10
91.69371952335989
 20
-29.31170229144146
 30
0.0
  0
VERTEX
  5
6C4
  8
LAYER_1
 10
92.06734439785778
 20
-29.31170229144146
 30
0.0
  0
VERTEX
  5
6C5
  8
LAYER_1
 10
94.9673443978578
 20
-29.31170229144146
 30
0.0
  0
VERTEX
  5
6C6
  8
LAYER_1
 10
94.9673443978578
 20
-29.68670229144146
 30
0.0
  0
VERTEX
  5
6C7
  8
LAYER_1
 10
92.06734439785778
 20
-29.68670229144146
 30
0.0
  0
VERTEX
  5
6C8
  8
LAYER_1
 10
91.69277952559209
 20
-29.68670229144146
 30
0.0
  0
VERTEX
  5
6C9
  8
LAYER_1
 10
91.69234439785778
 20
-29.68670378075922
 30
0.0
  0
VERTEX
  5
6CA
  8
LAYER_1
 10
91.69234439785778
 20
-32.89825190463428
 30
0.0
  0
VERTEX
  5
6CB
  8
LAYER_1
 10
91.69237115926161
 20
-32.90440229144077
 30
0.0
 42
-0.4142135623730951
  0
VERTEX
  5
6CC
  8
LAYER_1
 10
91.81787115926161
 20
-33.02990229144078
 30
0.0
 42
-0.4142135623730951
  0
VERTEX
  5
6CD
  8
LAYER_1
 10
91.6923577785597
 20
-33.15540229144111
 30
0.0
  0
VERTEX
  5
6CE
  8
LAYER_1
 10
76.6923443978578
 20
-33.15540229144145
 30
0.0
 42
-0.4142135623730951
  0
VERTEX
  5
6CF
  8
LAYER_1
 10
76.5048443978578
 20
-32.96790229144145
 30
0.0
 42
-0.4142135623730951
  0
VERTEX
  5
6D0
  8
LAYER_1
 10
76.6923443978578
 20
-32.78040229144145
 30
0.0
  0
VERTEX
  5
6D1
  8
LAYER_1
 10
91.3175928093525
 20
-32.77981569204071
 30
0.0
  0
VERTEX
  5
6D2
  8
LAYER_1
 10
91.31734520050459
 20
-3.188824205079271
 30
0.0
  0
VERTEX
  5
6D3
  8
LAYER_1
 10
91.31072870322373
 20
-3.186702291441463
 30
0.0
  0
VERTEX
  5
6D4
  8
LAYER_1
 10
77.72460041455798
 20
-3.186702291441463
 30
0.0
  0
VERTEX
  5
6D5
  8
LAYER_1
 10
77.56737115926161
 20
-3.186702291440781
 30
0.0
  0
VERTEX
  5
6D6
  8
LAYER_1
 10
77.56737115926161
 20
-14.01010620706758
 30
0.0
  0
VERTEX
  5
6D7
  8
LAYER_1
 10
77.56811138801022
 20
-14.03040229144078
 30
0.0
  0
VERTEX
  5
6D8
  8
LAYER_1
 10
78.00487115926161
 20
-14.03040229144078
 30
0.0
  0
VERTEX
  5
6D9
  8
LAYER_1
 10
78.00487115926161
 20
-14.40540229144078
 30
0.0
  0
VERTEX
  5
6DA
  8
LAYER_1
 10
77.56801332598948
 20
-14.40540229144078
 30
0.0
  0
VERTEX
  5
6DB
  8
LAYER_1
 10
77.56737115926161
 20
-14.42303476885405
 30
0.0
  0
VERTEX
  5
6DC
  8
LAYER_1
 10
77.56737115926161
 20
-14.56170229144078
 30
0.0
  0
VERTEX
  5
6DD
  8
LAYER_1
 10
77.19237115926161
 20
-14.56170229144078
 30
0.0
  0
VERTEX
  5
6DE
  8
LAYER_1
 10
77.19237115926161
 20
-14.41774081293372
 30
0.0
  0
VERTEX
  5
6DF
  8
LAYER_1
 10
77.19053749761693
 20
-14.40540229144078
 30
0.0
  0
VERTEX
  5
6E0
  8
LAYER_1
 10
73.87987115926161
 20
-14.40540229144078
 30
0.0
  0
VERTEX
  5
6E1
  8
LAYER_1
 10
73.87987115926161
 20
-14.03040229144078
 30
0.0
  0
VERTEX
  5
6E2
  8
LAYER_1
 10
77.19217915713575
 20
-14.03040229144078
 30
0.0
  0
SEQEND
  5
812
  8
LAYER_1
  0
POLYLINE
  5
AD
  8
LAYER_1
 66
     1
 10
0.0
 20
0.0
 30
0.0
 70
     1
  0
VERTEX
  5
6E3
  8
LAYER_1
 10
24.74427115926162
 20
-32.05781152221527
 30
0.0
  0
VERTEX
  5
6E4
  8
LAYER_1
 10
24.36927115926162
 20
-32.05781152221527
 30
0.0
  0
VERTEX
  5
6E5
  8
LAYER_1
 10
24.36927115926162
 20
-33.80781152221527
 30
0.0
  0
VERTEX
  5
6E6
  8
LAYER_1
 10
24.74427115926162
 20
-33.80781152221527
 30
0.0
  0
SEQEND
  5
813
  8
LAYER_1
  0
POLYLINE
  5
AE
  8
LAYER_1
 66
     1
 10
0.0
 20
0.0
 30
0.0
 70
     1
  0
VERTEX
  5
6E7
  8
LAYER_1
 10
1.369271159261615
 20
-1.307811522215275
 30
0.0
  0
VERTEX
  5
6E8
  8
LAYER_1
 10
0.9942711592616149
 20
-1.307811522215275
 30
0.0
  0
VERTEX
  5
6E9
  8
LAYER_1
 10
0.9942711592616149
 20
-33.80781152221526
 30
0.0
  0
VERTEX
  5
6EA
  8
LAYER_1
 10
1.369271159261615
 20
-33.80781152221526
 30
0.0
  0
SEQEND
  5
814
  8
LAYER_1
  0
POLYLINE
  5
AF
  8
LAYER_1
 66
     1
 10
0.0
 20
0.0
 30
0.0
 70
     1
  0
VERTEX
  5
6EB
  8
LAYER_1
 10
1.369271159261615
 20
-1.307811522215275
 30
0.0
  0
VERTEX
  5
6EC
  8
LAYER_1
 10
0.9942711592616149
 20
-1.307811522215275
 30
0.0
  0
VERTEX
  5
6ED
  8
LAYER_1
 10
0.9942711592616149
 20
-2.432811522215275
 30
0.0
  0
VERTEX
  5
6EE
  8
LAYER_1
 10
1.369271159261615
 20
-2.432811522215275
 30
0.0
  0
SEQEND
  5
815
  8
LAYER_1
  0
POLYLINE
  5
B0
  8
LAYER_1
 66
     1
 10
0.0
 20
0.0
 30
0.0
 70
     1
  0
VERTEX
  5
6EF
  8
LAYER_1
 10
24.74690839734277
 20
-32.05781152221527
 30
0.0
  0
VERTEX
  5
6F0
  8
LAYER_1
 10
24.36927115926162
 20
-32.05781152221527
 30
0.0
  0
VERTEX
  5
6F1
  8
LAYER_1
 10
24.36927115926162
 20
-32.51510650798033
 30
0.0
  0
VERTEX
  5
6F2
  8
LAYER_1
 10
24.74690839734277
 20
-32.51510650798033
 30
0.0
  0
SEQEND
  5
816
  8
LAYER_1
  0
POLYLINE
  5
B1
  8
LAYER_1
 66
     1
 10
0.0
 20
0.0
 30
0.0
 70
     1
  0
VERTEX
  5
6F3
  8
LAYER_1
 10
19.10563889034877
 20
-32.12031152221527
 30
0.0
  0
VERTEX
  5
6F4
  8
LAYER_1
 10
24.61927115926162
 20
-32.12031152221527
 30
0.0
  0
VERTEX
  5
6F5
  8
LAYER_1
 10
24.61927115926162
 20
-32.43281152221527
 30
0.0
  0
VERTEX
  5
6F6
  8
LAYER_1
 10
19.09453499333389
 20
-32.43281152221527
 30
0.0
  0
VERTEX
  5
6F7
  8
LAYER_1
 10
18.93177115926161
 20
-32.43281152221527
 30
0.0
 42
-0.4142135623730951
  0
VERTEX
  5
6F8
  8
LAYER_1
 10
18.05677115926161
 20
-31.55781152221527
 30
0.0
  0
VERTEX
  5
6F9
  8
LAYER_1
 10
18.05677115926161
 20
-31.37809320804099
 30
0.0
  0
VERTEX
  5
6FA
  8
LAYER_1
 10
18.05677115926161
 20
-1.307811522215275
 30
0.0
  0
VERTEX
  5
6FB
  8
LAYER_1
 10
18.43177115926161
 20
-1.307811522215275
 30
0.0
  0
VERTEX
  5
6FC
  8
LAYER_1
 10
18.43177115926161
 20
-31.45026853863774
 30
0.0
  0
VERTEX
  5
6FD
  8
LAYER_1
 10
18.43050660426626
 20
-31.62149932878297
 30
0.0
 42
0.4142135623730951
  0
VERTEX
  5
6FE
  8
LAYER_1
 10
18.93050660426626
 20
-32.12149932878297
 30
0.0
  0
SEQEND
  5
817
  8
LAYER_1
  0
POLYLINE
  5
B2
  8
LAYER_1
 66
     1
 10
0.0
 20
0.0
 30
0.0
 70
     1
  0
VERTEX
  5
6FF
  8
LAYER_1
 10
24.61927115926162
 20
-32.12031152221527
 30
0.0
  0
VERTEX
  5
700
  8
LAYER_1
 10
24.61927115926162
 20
-33.68281152221527
 30
0.0
  0
VERTEX
  5
701
  8
LAYER_1
 10
1.119271159261615
 20
-33.68281152221526
 30
0.0
  0
VERTEX
  5
702
  8
LAYER_1
 10
1.119271159261615
 20
-1.432811522215275
 30
0.0
  0
VERTEX
  5
703
  8
LAYER_1
 10
16.20217544865973
 20
-1.432811522215275
 30
0.0
  0
VERTEX
  5
704
  8
LAYER_1
 10
18.43177115926161
 20
-1.432811522215275
 30
0.0
  0
VERTEX
  5
705
  8
LAYER_1
 10
18.43177115926161
 20
-31.34579728911113
 30
0.0
  0
VERTEX
  5
706
  8
LAYER_1
 10
18.43050660426626
 20
-31.62149932878297
 30
0.0
 42
0.4142135623730951
  0
VERTEX
  5
707
  8
LAYER_1
 10
18.93050660426626
 20
-32.12149932878297
 30
0.0
  0
SEQEND
  5
818
  8
LAYER_1
  0
POLYLINE
  5
B3
  8
LAYER_1
 66
     1
 10
0.0
 20
0.0
 30
0.0
 70
     1
  0
VERTEX
  5
708
  8
LAYER_1
 10
2.931771159261615
 20
-17.93281152221527
 30
0.0
 42
-0.4142135623730951
  0
VERTEX
  5
709
  8
LAYER_1
 10
3.181746159261607
 20
-17.68281152221527
 30
0.0
 42
-0.4142135623730951
  0
VERTEX
  5
70A
  8
LAYER_1
 10
3.431746159261607
 20
-17.93281152221527
 30
0.0
  0
VERTEX
  5
70B
  8
LAYER_1
 10
3.504327367915451
 20
-17.93281152221527
 30
0.0
  0
VERTEX
  5
70C
  8
LAYER_1
 10
15.08850975494552
 20
-17.93281152221527
 30
0.0
  0
VERTEX
  5
70D
  8
LAYER_1
 10
15.11924615926162
 20
-17.93281152221527
 30
0.0
 42
-0.4142135623730951
  0
VERTEX
  5
70E
  8
LAYER_1
 10
15.36924615926162
 20
-17.68281152221527
 30
0.0
 42
-0.4142135623730951
  0
VERTEX
  5
70F
  8
LAYER_1
 10
15.61927115926161
 20
-17.93281152221527
 30
0.0
  0
VERTEX
  5
710
  8
LAYER_1
 10
15.61927115926161
 20
-30.30781152221527
 30
0.0
 42
-0.4142135623730951
  0
VERTEX
  5
711
  8
LAYER_1
 10
15.36924615926162
 20
-30.55781152221527
 30
0.0
 42
-0.4142135623730951
  0
VERTEX
  5
712
  8
LAYER_1
 10
15.11924615926162
 20
-30.30781152221527
 30
0.0
  0
VERTEX
  5
713
  8
LAYER_1
 10
15.0614883636778
 20
-30.30781152221527
 30
0.0
  0
VERTEX
  5
714
  8
LAYER_1
 10
3.46095605333268
 20
-30.30781152221527
 30
0.0
  0
VERTEX
  5
715
  8
LAYER_1
 10
3.431746159261607
 20
-30.30781152221527
 30
0.0
 42
-0.4142135623730951
  0
VERTEX
  5
716
  8
LAYER_1
 10
3.181746159261607
 20
-30.55781152221527
 30
0.0
 42
-0.4142135623730951
  0
VERTEX
  5
717
  8
LAYER_1
 10
2.931771159261615
 20
-30.30781152221527
 30
0.0
  0
SEQEND
  5
819
  8
LAYER_1
  0
POLYLINE
  5
B4
  8
LAYER_1
 66
     1
 10
0.0
 20
0.0
 30
0.0
 70
     1
  0
VERTEX
  5
718
  8
LAYER_1
 10
2.619271159261615
 20
-24.87081152221527
 30
0.0
 42
0.4142135623730951
  0
VERTEX
  5
719
  8
LAYER_1
 10
2.744771159261617
 20
-24.74531152221527
 30
0.0
 42
0.4142135623730951
  0
VERTEX
  5
71A
  8
LAYER_1
 10
2.619271159261615
 20
-24.61981152221527
 30
0.0
 42
0.4142135623730951
  0
VERTEX
  5
71B
  8
LAYER_1
 10
2.493771159261613
 20
-24.74531152221527
 30
0.0
 42
0.4142135623730951
  0
SEQEND
  5
81A
  8
LAYER_1
  0
POLYLINE
  5
B5
  8
LAYER_1
 66
     1
 10
0.0
 20
0.0
 30
0.0
 70
     1
  0
VERTEX
  5
71C
  8
LAYER_1
 10
2.619271159261615
 20
-30.68331152221527
 30
0.0
 42
0.4142135623730951
  0
VERTEX
  5
71D
  8
LAYER_1
 10
2.744771159261617
 20
-30.55781152221527
 30
0.0
 42
0.4142135623730951
  0
VERTEX
  5
71E
  8
LAYER_1
 10
2.619271159261615
 20
-30.43231152221527
 30
0.0
 42
0.4142135623730951
  0
VERTEX
  5
71F
  8
LAYER_1
 10
2.493771159261613
 20
-30.55781152221527
 30
0.0
 42
0.4142135623730951
  0
SEQEND
  5
81B
  8
LAYER_1
  0
POLYLINE
  5
B6
  8
LAYER_1
 66
     1
 10
0.0
 20
0.0
 30
0.0
 70
     1
  0
VERTEX
  5
720
  8
LAYER_1
 10
2.619271159261615
 20
-17.77701152221528
 30
0.0
 42
0.4142135623730951
  0
VERTEX
  5
721
  8
LAYER_1
 10
2.744771159261617
 20
-17.65151152221526
 30
0.0
 42
0.4142135623730951
  0
VERTEX
  5
722
  8
LAYER_1
 10
2.619271159261615
 20
-17.52601152221527
 30
0.0
 42
0.4142135623730951
  0
VERTEX
  5
723
  8
LAYER_1
 10
2.493771159261613
 20
-17.65151152221526
 30
0.0
 42
0.4142135623730951
  0
SEQEND
  5
81C
  8
LAYER_1
  0
POLYLINE
  5
B7
  8
LAYER_1
 66
     1
 10
0.0
 20
0.0
 30
0.0
 70
     1
  0
VERTEX
  5
724
  8
LAYER_1
 10
2.619271159261615
 20
-19.15201152221528
 30
0.0
 42
0.4142135623730951
  0
VERTEX
  5
725
  8
LAYER_1
 10
2.744771159261617
 20
-19.02651152221526
 30
0.0
 42
0.4142135623730951
  0
VERTEX
  5
726
  8
LAYER_1
 10
2.619271159261615
 20
-18.90101152221527
 30
0.0
 42
0.4142135623730951
  0
VERTEX
  5
727
  8
LAYER_1
 10
2.493771159261613
 20
-19.02651152221526
 30
0.0
 42
0.4142135623730951
  0
SEQEND
  5
81D
  8
LAYER_1
  0
POLYLINE
  5
B8
  8
LAYER_1
 66
     1
 10
0.0
 20
0.0
 30
0.0
 70
     1
  0
VERTEX
  5
728
  8
LAYER_1
 10
2.619271159261615
 20
-29.30831152221527
 30
0.0
 42
0.4142135623730951
  0
VERTEX
  5
729
  8
LAYER_1
 10
2.744771159261617
 20
-29.18281152221527
 30
0.0
 42
0.4142135623730951
  0
VERTEX
  5
72A
  8
LAYER_1
 10
2.619271159261615
 20
-29.05731152221527
 30
0.0
 42
0.4142135623730951
  0
VERTEX
  5
72B
  8
LAYER_1
 10
2.493771159261613
 20
-29.18281152221527
 30
0.0
 42
0.4142135623730951
  0
SEQEND
  5
81E
  8
LAYER_1
  0
POLYLINE
  5
B9
  8
LAYER_1
 66
     1
 10
0.0
 20
0.0
 30
0.0
 70
     1
  0
VERTEX
  5
72C
  8
LAYER_1
 10
15.80677115926161
 20
-24.87076152221528
 30
0.0
 42
0.4142135623730951
  0
VERTEX
  5
72D
  8
LAYER_1
 10
15.93227115926162
 20
-24.74526152221527
 30
0.0
 42
0.4142135623730951
  0
VERTEX
  5
72E
  8
LAYER_1
 10
15.80677115926161
 20
-24.61976152221528
 30
0.0
 42
0.4142135623730951
  0
VERTEX
  5
72F
  8
LAYER_1
 10
15.68127115926161
 20
-24.74526152221527
 30
0.0
 42
0.4142135623730951
  0
SEQEND
  5
81F
  8
LAYER_1
  0
POLYLINE
  5
BA
  8
LAYER_1
 66
     1
 10
0.0
 20
0.0
 30
0.0
 70
     1
  0
VERTEX
  5
730
  8
LAYER_1
 10
15.80677115926161
 20
-30.68326152221527
 30
0.0
 42
0.4142135623730951
  0
VERTEX
  5
731
  8
LAYER_1
 10
15.93227115926162
 20
-30.55776152221527
 30
0.0
 42
0.4142135623730951
  0
VERTEX
  5
732
  8
LAYER_1
 10
15.80677115926161
 20
-30.43226152221528
 30
0.0
 42
0.4142135623730951
  0
VERTEX
  5
733
  8
LAYER_1
 10
15.68127115926161
 20
-30.55776152221527
 30
0.0
 42
0.4142135623730951
  0
SEQEND
  5
820
  8
LAYER_1
  0
POLYLINE
  5
BB
  8
LAYER_1
 66
     1
 10
0.0
 20
0.0
 30
0.0
 70
     1
  0
VERTEX
  5
734
  8
LAYER_1
 10
15.80677115926161
 20
-17.77696152221526
 30
0.0
 42
0.4142135623730951
  0
VERTEX
  5
735
  8
LAYER_1
 10
15.93227115926162
 20
-17.65146152221527
 30
0.0
 42
0.4142135623730951
  0
VERTEX
  5
736
  8
LAYER_1
 10
15.80677115926161
 20
-17.52596152221525
 30
0.0
 42
0.4142135623730951
  0
VERTEX
  5
737
  8
LAYER_1
 10
15.68127115926161
 20
-17.65146152221527
 30
0.0
 42
0.4142135623730951
  0
SEQEND
  5
821
  8
LAYER_1
  0
POLYLINE
  5
BC
  8
LAYER_1
 66
     1
 10
0.0
 20
0.0
 30
0.0
 70
     1
  0
VERTEX
  5
738
  8
LAYER_1
 10
15.80677115926161
 20
-19.15196152221526
 30
0.0
 42
0.4142135623730951
  0
VERTEX
  5
739
  8
LAYER_1
 10
15.93227115926162
 20
-19.02646152221527
 30
0.0
 42
0.4142135623730951
  0
VERTEX
  5
73A
  8
LAYER_1
 10
15.80677115926161
 20
-18.90096152221525
 30
0.0
 42
0.4142135623730951
  0
VERTEX
  5
73B
  8
LAYER_1
 10
15.68127115926161
 20
-19.02646152221527
 30
0.0
 42
0.4142135623730951
  0
SEQEND
  5
822
  8
LAYER_1
  0
POLYLINE
  5
BD
  8
LAYER_1
 66
     1
 10
0.0
 20
0.0
 30
0.0
 70
     1
  0
VERTEX
  5
73C
  8
LAYER_1
 10
15.80677115926161
 20
-29.30826152221528
 30
0.0
 42
0.4142135623730951
  0
VERTEX
  5
73D
  8
LAYER_1
 10
15.93227115926162
 20
-29.18276152221527
 30
0.0
 42
0.4142135623730951
  0
VERTEX
  5
73E
  8
LAYER_1
 10
15.80677115926161
 20
-29.05726152221528
 30
0.0
 42
0.4142135623730951
  0
VERTEX
  5
73F
  8
LAYER_1
 10
15.68127115926161
 20
-29.18276152221527
 30
0.0
 42
0.4142135623730951
  0
SEQEND
  5
823
  8
LAYER_1
  0
POLYLINE
  5
BE
  8
LAYER_1
 66
     1
 10
0.0
 20
0.0
 30
0.0
 70
     1
  0
VERTEX
  5
740
  8
LAYER_1
 10
9.213021159261615
 20
-30.68331152221527
 30
0.0
 42
0.4142135623730951
  0
VERTEX
  5
741
  8
LAYER_1
 10
9.338521159261617
 20
-30.55781152221527
 30
0.0
 42
0.4142135623730951
  0
VERTEX
  5
742
  8
LAYER_1
 10
9.213021159261615
 20
-30.43231152221527
 30
0.0
 42
0.4142135623730951
  0
VERTEX
  5
743
  8
LAYER_1
 10
9.087521159261613
 20
-30.55781152221527
 30
0.0
 42
0.4142135623730951
  0
SEQEND
  5
824
  8
LAYER_1
  0
POLYLINE
  5
BF
  8
LAYER_1
 66
     1
 10
0.0
 20
0.0
 30
0.0
 70
     1
  0
VERTEX
  5
744
  8
LAYER_1
 10
9.212971159261613
 20
-17.77701152221528
 30
0.0
 42
0.4142135623730951
  0
VERTEX
  5
745
  8
LAYER_1
 10
9.338471159261616
 20
-17.65151152221526
 30
0.0
 42
0.4142135623730951
  0
VERTEX
  5
746
  8
LAYER_1
 10
9.212971159261613
 20
-17.52601152221527
 30
0.0
 42
0.4142135623730951
  0
VERTEX
  5
747
  8
LAYER_1
 10
9.08747115926161
 20
-17.65151152221526
 30
0.0
 42
0.4142135623730951
  0
SEQEND
  5
825
  8
LAYER_1
  0
POLYLINE
  5
C0
  8
LAYER_1
 66
     1
 10
0.0
 20
0.0
 30
0.0
 70
     1
  0
VERTEX
  5
748
  8
LAYER_1
 10
17.18177115926161
 20
-20.62081152221527
 30
0.0
 42
0.4142135623730951
  0
VERTEX
  5
749
  8
LAYER_1
 10
17.30727115926162
 20
-20.49531152221527
 30
0.0
 42
0.4142135623730951
  0
VERTEX
  5
74A
  8
LAYER_1
 10
17.18177115926161
 20
-20.36981152221527
 30
0.0
 42
0.4142135623730951
  0
VERTEX
  5
74B
  8
LAYER_1
 10
17.05627115926161
 20
-20.49531152221527
 30
0.0
 42
0.4142135623730951
  0
SEQEND
  5
826
  8
LAYER_1
  0
POLYLINE
  5
C1
  8
LAYER_1
 66
     1
 10
0.0
 20
0.0
 30
0.0
 70
     1
  0
VERTEX
  5
74C
  8
LAYER_1
 10
124.0257344964511
 20
1.751259249586404
 30
0.0
  0
VERTEX
  5
74D
  8
LAYER_1
 10
147.5257344964511
 20
1.751259249586404
 30
0.0
  0
VERTEX
  5
74E
  8
LAYER_1
 10
147.5257344964511
 20
32.7512592495864
 30
0.0
  0
VERTEX
  5
74F
  8
LAYER_1
 10
124.0257344964511
 20
32.7512592495864
 30
0.0
  0
SEQEND
  5
827
  8
LAYER_1
  0
POLYLINE
  5
C2
  8
LAYER_1
 66
     1
 10
0.0
 20
0.0
 30
0.0
 70
     1
  0
VERTEX
  5
750
  8
LAYER_1
 10
123.9007344964511
 20
1.626259249586404
 30
0.0
  0
VERTEX
  5
751
  8
LAYER_1
 10
124.2757344964511
 20
1.626259249586404
 30
0.0
  0
VERTEX
  5
752
  8
LAYER_1
 10
124.2757344964511
 20
32.8762592495864
 30
0.0
  0
VERTEX
  5
753
  8
LAYER_1
 10
123.9007344964511
 20
32.8762592495864
 30
0.0
  0
SEQEND
  5
828
  8
LAYER_1
  0
POLYLINE
  5
C3
  8
LAYER_1
 66
     1
 10
0.0
 20
0.0
 30
0.0
 70
     1
  0
VERTEX
  5
754
  8
LAYER_1
 10
147.2757344964511
 20
1.626259249586404
 30
0.0
  0
VERTEX
  5
755
  8
LAYER_1
 10
147.6507344964511
 20
1.626259249586404
 30
0.0
  0
VERTEX
  5
756
  8
LAYER_1
 10
147.6507344964511
 20
32.8762592495864
 30
0.0
  0
VERTEX
  5
757
  8
LAYER_1
 10
147.2757344964511
 20
32.8762592495864
 30
0.0
  0
SEQEND
  5
829
  8
LAYER_1
  0
POLYLINE
  5
C4
  8
LAYER_1
 66
     1
 10
0.0
 20
0.0
 30
0.0
 70
     1
  0
VERTEX
  5
758
  8
LAYER_1
 10
127.2757344964511
 20
21.3762592495864
 30
0.0
 42
0.4142135623730951
  0
VERTEX
  5
759
  8
LAYER_1
 10
126.6507344964511
 20
20.7512592495864
 30
0.0
 42
0.4142135623730951
  0
VERTEX
  5
75A
  8
LAYER_1
 10
127.2757344964511
 20
20.1262592495864
 30
0.0
 42
0.4142135623730951
  0
VERTEX
  5
75B
  8
LAYER_1
 10
127.9007344964511
 20
20.7512592495864
 30
0.0
 42
0.4142135623730951
  0
SEQEND
  5
82A
  8
LAYER_1
  0
POLYLINE
  5
C5
  8
LAYER_1
 66
     1
 10
0.0
 20
0.0
 30
0.0
 70
     1
  0
VERTEX
  5
75C
  8
LAYER_1
 10
97.47658181124848
 20
-31.80218070439611
 30
0.0
  0
VERTEX
  5
75D
  8
LAYER_1
 10
120.9765818112485
 20
-31.80218070439611
 30
0.0
  0
VERTEX
  5
75E
  8
LAYER_1
 10
120.9765818112485
 20
-1.677180704396115
 30
0.0
  0
VERTEX
  5
75F
  8
LAYER_1
 10
97.47658181124848
 20
-1.677180704396115
 30
0.0
  0
SEQEND
  5
82B
  8
LAYER_1
  0
POLYLINE
  5
C6
  8
LAYER_1
 66
     1
 10
0.0
 20
0.0
 30
0.0
 70
     1
  0
VERTEX
  5
760
  8
LAYER_1
 10
97.35158181124848
 20
-31.92718070439611
 30
0.0
  0
VERTEX
  5
761
  8
LAYER_1
 10
97.72658181124848
 20
-31.92718070439611
 30
0.0
  0
VERTEX
  5
762
  8
LAYER_1
 10
97.72658181124848
 20
-1.552180704396115
 30
0.0
  0
VERTEX
  5
763
  8
LAYER_1
 10
97.35158181124848
 20
-1.552180704396115
 30
0.0
  0
SEQEND
  5
82C
  8
LAYER_1
  0
POLYLINE
  5
C7
  8
LAYER_1
 66
     1
 10
0.0
 20
0.0
 30
0.0
 70
     1
  0
VERTEX
  5
764
  8
LAYER_1
 10
120.7265818112485
 20
-31.92718070439611
 30
0.0
  0
VERTEX
  5
765
  8
LAYER_1
 10
121.1015818112485
 20
-31.92718070439611
 30
0.0
  0
VERTEX
  5
766
  8
LAYER_1
 10
121.1015818112485
 20
-1.552180704396115
 30
0.0
  0
VERTEX
  5
767
  8
LAYER_1
 10
120.7265818112485
 20
-1.552180704396115
 30
0.0
  0
SEQEND
  5
82D
  8
LAYER_1
  0
POLYLINE
  5
C8
  8
LAYER_1
 66
     1
 10
0.0
 20
0.0
 30
0.0
 70
     1
  0
VERTEX
  5
768
  8
LAYER_1
 10
97.35158181124848
 20
-31.92718070439611
 30
0.0
  0
VERTEX
  5
769
  8
LAYER_1
 10
113.6015818112485
 20
-31.92718070439611
 30
0.0
  0
VERTEX
  5
76A
  8
LAYER_1
 10
113.6015818112485
 20
-31.55218070439611
 30
0.0
  0
VERTEX
  5
76B
  8
LAYER_1
 10
97.35158181124848
 20
-31.55218070439611
 30
0.0
  0
SEQEND
  5
82E
  8
LAYER_1
  0
POLYLINE
  5
C9
  8
LAYER_1
 66
     1
 10
0.0
 20
0.0
 30
0.0
 70
     1
  0
VERTEX
  5
76C
  8
LAYER_1
 10
113.4140818112485
 20
-31.92718070439611
 30
0.0
  0
VERTEX
  5
76D
  8
LAYER_1
 10
121.1640818112485
 20
-31.92718070439611
 30
0.0
  0
VERTEX
  5
76E
  8
LAYER_1
 10
121.1640818112485
 20
-31.55218070439611
 30
0.0
  0
VERTEX
  5
76F
  8
LAYER_1
 10
113.4140818112485
 20
-31.55218070439611
 30
0.0
  0
SEQEND
  5
82F
  8
LAYER_1
  0
POLYLINE
  5
CA
  8
LAYER_1
 66
     1
 10
0.0
 20
0.0
 30
0.0
 70
     1
  0
VERTEX
  5
770
  8
LAYER_1
 10
99.22658181124848
 20
-4.364180704396116
 30
0.0
 42
0.4142135623730951
  0
VERTEX
  5
771
  8
LAYER_1
 10
99.10108181124849
 20
-4.489680704396115
 30
0.0
 42
0.4142135623730951
  0
VERTEX
  5
772
  8
LAYER_1
 10
99.22658181124848
 20
-4.615180704396113
 30
0.0
 42
0.4142135623730951
  0
VERTEX
  5
773
  8
LAYER_1
 10
99.3520818112485
 20
-4.489680704396115
 30
0.0
 42
0.4142135623730951
  0
SEQEND
  5
830
  8
LAYER_1
  0
POLYLINE
  5
CB
  8
LAYER_1
 66
     1
 10
0.0
 20
0.0
 30
0.0
 70
     1
  0
VERTEX
  5
774
  8
LAYER_1
 10
100.2265818112485
 20
-4.364180704396116
 30
0.0
 42
0.4142135623730951
  0
VERTEX
  5
775
  8
LAYER_1
 10
100.1010818112485
 20
-4.489680704396115
 30
0.0
 42
0.4142135623730951
  0
VERTEX
  5
776
  8
LAYER_1
 10
100.2265818112485
 20
-4.615180704396113
 30
0.0
 42
0.4142135623730951
  0
VERTEX
  5
777
  8
LAYER_1
 10
100.3520818112485
 20
-4.489680704396115
 30
0.0
 42
0.4142135623730951
  0
SEQEND
  5
831
  8
LAYER_1
  0
POLYLINE
  5
CC
  8
LAYER_1
 66
     1
 10
0.0
 20
0.0
 30
0.0
 70
     1
  0
VERTEX
  5
778
  8
LAYER_1
 10
118.3515818112485
 20
-4.364180704396116
 30
0.0
 42
0.4142135623730951
  0
VERTEX
  5
779
  8
LAYER_1
 10
118.2260818112485
 20
-4.489680704396115
 30
0.0
 42
0.4142135623730951
  0
VERTEX
  5
77A
  8
LAYER_1
 10
118.3515818112485
 20
-4.615180704396113
 30
0.0
 42
0.4142135623730951
  0
VERTEX
  5
77B
  8
LAYER_1
 10
118.4770818112485
 20
-4.489680704396115
 30
0.0
 42
0.4142135623730951
  0
SEQEND
  5
832
  8
LAYER_1
  0
POLYLINE
  5
CD
  8
LAYER_1
 66
     1
 10
0.0
 20
0.0
 30
0.0
 70
     1
  0
VERTEX
  5
77C
  8
LAYER_1
 10
119.3515818112485
 20
-4.364180704396116
 30
0.0
 42
0.4142135623730951
  0
VERTEX
  5
77D
  8
LAYER_1
 10
119.2260818112485
 20
-4.489680704396115
 30
0.0
 42
0.4142135623730951
  0
VERTEX
  5
77E
  8
LAYER_1
 10
119.3515818112485
 20
-4.615180704396113
 30
0.0
 42
0.4142135623730951
  0
VERTEX
  5
77F
  8
LAYER_1
 10
119.4770818112485
 20
-4.489680704396115
 30
0.0
 42
0.4142135623730951
  0
SEQEND
  5
833
  8
LAYER_1
  0
POLYLINE
  5
CE
  8
LAYER_1
 66
     1
 10
0.0
 20
0.0
 30
0.0
 70
     1
  0
VERTEX
  5
780
  8
LAYER_1
 10
119.3515818112485
 20
-2.489180704396116
 30
0.0
 42
0.4142135623730951
  0
VERTEX
  5
781
  8
LAYER_1
 10
119.2260818112485
 20
-2.614680704396115
 30
0.0
 42
0.4142135623730951
  0
VERTEX
  5
782
  8
LAYER_1
 10
119.3515818112485
 20
-2.740180704396113
 30
0.0
 42
0.4142135623730951
  0
VERTEX
  5
783
  8
LAYER_1
 10
119.4770818112485
 20
-2.614680704396115
 30
0.0
 42
0.4142135623730951
  0
SEQEND
  5
834
  8
LAYER_1
  0
POLYLINE
  5
CF
  8
LAYER_1
 66
     1
 10
0.0
 20
0.0
 30
0.0
 70
     1
  0
VERTEX
  5
784
  8
LAYER_1
 10
118.3515818112485
 20
-2.489180704396116
 30
0.0
 42
0.4142135623730951
  0
VERTEX
  5
785
  8
LAYER_1
 10
118.2260818112485
 20
-2.614680704396115
 30
0.0
 42
0.4142135623730951
  0
VERTEX
  5
786
  8
LAYER_1
 10
118.3515818112485
 20
-2.740180704396113
 30
0.0
 42
0.4142135623730951
  0
VERTEX
  5
787
  8
LAYER_1
 10
118.4770818112485
 20
-2.614680704396115
 30
0.0
 42
0.4142135623730951
  0
SEQEND
  5
835
  8
LAYER_1
  0
POLYLINE
  5
D0
  8
LAYER_1
 66
     1
 10
0.0
 20
0.0
 30
0.0
 70
     1
  0
VERTEX
  5
788
  8
LAYER_1
 10
99.22658181124848
 20
-2.489180704396116
 30
0.0
 42
0.4142135623730951
  0
VERTEX
  5
789
  8
LAYER_1
 10
99.10108181124849
 20
-2.614680704396115
 30
0.0
 42
0.4142135623730951
  0
VERTEX
  5
78A
  8
LAYER_1
 10
99.22658181124848
 20
-2.740180704396113
 30
0.0
 42
0.4142135623730951
  0
VERTEX
  5
78B
  8
LAYER_1
 10
99.3520818112485
 20
-2.614680704396115
 30
0.0
 42
0.4142135623730951
  0
SEQEND
  5
836
  8
LAYER_1
  0
POLYLINE
  5
D1
  8
LAYER_1
 66
     1
 10
0.0
 20
0.0
 30
0.0
 70
     1
  0
VERTEX
  5
78C
  8
LAYER_1
 10
100.2265818112485
 20
-2.489180704396116
 30
0.0
 42
0.4142135623730951
  0
VERTEX
  5
78D
  8
LAYER_1
 10
100.1010818112485
 20
-2.614680704396115
 30
0.0
 42
0.4142135623730951
  0
VERTEX
  5
78E
  8
LAYER_1
 10
100.2265818112485
 20
-2.740180704396113
 30
0.0
 42
0.4142135623730951
  0
VERTEX
  5
78F
  8
LAYER_1
 10
100.3520818112485
 20
-2.614680704396115
 30
0.0
 42
0.4142135623730951
  0
SEQEND
  5
837
  8
LAYER_1
  0
POLYLINE
  5
D2
  8
LAYER_1
 66
     1
 10
0.0
 20
0.0
 30
0.0
 70
     1
  0
VERTEX
  5
790
  8
LAYER_1
 10
109.2265818112485
 20
-2.739680704396115
 30
0.0
 42
0.4142135623730951
  0
VERTEX
  5
791
  8
LAYER_1
 10
108.6640818112485
 20
-3.302180704396115
 30
0.0
 42
0.4142135623730951
  0
VERTEX
  5
792
  8
LAYER_1
 10
109.2265818112485
 20
-3.864680704396115
 30
0.0
 42
0.4142135623730951
  0
VERTEX
  5
793
  8
LAYER_1
 10
109.7890818112485
 20
-3.302180704396115
 30
0.0
 42
0.4142135623730951
  0
SEQEND
  5
838
  8
LAYER_1
  0
POLYLINE
  5
D3
  8
LAYER_1
 66
     1
 10
0.0
 20
0.0
 30
0.0
 70
     1
  0
VERTEX
  5
794
  8
LAYER_1
 10
112.5390818112485
 20
-2.739680704396115
 30
0.0
 42
0.4142135623730951
  0
VERTEX
  5
795
  8
LAYER_1
 10
111.9765818112485
 20
-3.302180704396115
 30
0.0
 42
0.4142135623730951
  0
VERTEX
  5
796
  8
LAYER_1
 10
112.5390818112485
 20
-3.864680704396115
 30
0.0
 42
0.4142135623730951
  0
VERTEX
  5
797
  8
LAYER_1
 10
113.1015818112485
 20
-3.302180704396115
 30
0.0
 42
0.4142135623730951
  0
SEQEND
  5
839
  8
LAYER_1
  0
POLYLINE
  5
D4
  8
LAYER_1
 66
     1
 10
0.0
 20
0.0
 30
0.0
 70
     1
  0
VERTEX
  5
798
  8
LAYER_1
 10
115.8515818112485
 20
-2.739680704396115
 30
0.0
 42
0.4142135623730951
  0
VERTEX
  5
799
  8
LAYER_1
 10
115.2890818112485
 20
-3.302180704396115
 30
0.0
 42
0.4142135623730951
  0
VERTEX
  5
79A
  8
LAYER_1
 10
115.8515818112485
 20
-3.864680704396115
 30
0.0
 42
0.4142135623730951
  0
VERTEX
  5
79B
  8
LAYER_1
 10
116.4140818112485
 20
-3.302180704396115
 30
0.0
 42
0.4142135623730951
  0
SEQEND
  5
83A
  8
LAYER_1
  0
POLYLINE
  5
D5
  8
LAYER_1
 66
     1
 10
0.0
 20
0.0
 30
0.0
 70
     1
  0
VERTEX
  5
79C
  8
LAYER_1
 10
105.9140818112485
 20
-2.739680704396115
 30
0.0
 42
0.4142135623730951
  0
VERTEX
  5
79D
  8
LAYER_1
 10
105.3515818112485
 20
-3.302180704396115
 30
0.0
 42
0.4142135623730951
  0
VERTEX
  5
79E
  8
LAYER_1
 10
105.9140818112485
 20
-3.864680704396115
 30
0.0
 42
0.4142135623730951
  0
VERTEX
  5
79F
  8
LAYER_1
 10
106.4765818112485
 20
-3.302180704396115
 30
0.0
 42
0.4142135623730951
  0
SEQEND
  5
83B
  8
LAYER_1
  0
POLYLINE
  5
D6
  8
LAYER_1
 66
     1
 10
0.0
 20
0.0
 30
0.0
 70
     1
  0
VERTEX
  5
7A0
  8
LAYER_1
 10
102.6015818112485
 20
-2.739680704396115
 30
0.0
 42
0.4142135623730951
  0
VERTEX
  5
7A1
  8
LAYER_1
 10
102.0390818112485
 20
-3.302180704396115
 30
0.0
 42
0.4142135623730951
  0
VERTEX
  5
7A2
  8
LAYER_1
 10
102.6015818112485
 20
-3.864680704396115
 30
0.0
 42
0.4142135623730951
  0
VERTEX
  5
7A3
  8
LAYER_1
 10
103.1640818112485
 20
-3.302180704396115
 30
0.0
 42
0.4142135623730951
  0
SEQEND
  5
83C
  8
LAYER_1
  0
POLYLINE
  5
D7
  8
LAYER_1
 66
     1
 10
0.0
 20
0.0
 30
0.0
 70
     1
  0
VERTEX
  5
7A4
  8
LAYER_1
 10
98.99938449645106
 20
1.751259249586404
 30
0.0
  0
VERTEX
  5
7A5
  8
LAYER_1
 10
121.9368844964511
 20
1.751259249586404
 30
0.0
  0
VERTEX
  5
7A6
  8
LAYER_1
 10
121.9368844964511
 20
44.8762592495864
 30
0.0
  0
VERTEX
  5
7A7
  8
LAYER_1
 10
98.99938449645106
 20
44.8762592495864
 30
0.0
  0
SEQEND
  5
83D
  8
LAYER_1
  0
POLYLINE
  5
D8
  8
LAYER_1
 66
     1
 10
0.0
 20
0.0
 30
0.0
 70
     1
  0
VERTEX
  5
7A8
  8
LAYER_1
 10
110.7181344964511
 20
44.0637592495864
 30
0.0
 42
0.4142135623730951
  0
VERTEX
  5
7A9
  8
LAYER_1
 10
110.3431344964511
 20
43.6887592495864
 30
0.0
 42
0.4142135623730951
  0
VERTEX
  5
7AA
  8
LAYER_1
 10
110.7181344964511
 20
43.3137592495864
 30
0.0
 42
0.4142135623730951
  0
VERTEX
  5
7AB
  8
LAYER_1
 10
111.0931344964511
 20
43.6887592495864
 30
0.0
 42
0.4142135623730951
  0
SEQEND
  5
83E
  8
LAYER_1
  0
POLYLINE
  5
D9
  8
LAYER_1
 66
     1
 10
0.0
 20
0.0
 30
0.0
 70
     1
  0
VERTEX
  5
7AC
  8
LAYER_1
 10
110.7181344964511
 20
44.2512592495864
 30
0.0
 42
0.4142135623730951
  0
VERTEX
  5
7AD
  8
LAYER_1
 10
110.1556344964511
 20
43.6887592495864
 30
0.0
 42
0.4142135623730951
  0
VERTEX
  5
7AE
  8
LAYER_1
 10
110.7181344964511
 20
43.1262592495864
 30
0.0
 42
0.4142135623730951
  0
VERTEX
  5
7AF
  8
LAYER_1
 10
111.2806344964511
 20
43.6887592495864
 30
0.0
 42
0.4142135623730951
  0
SEQEND
  5
83F
  8
LAYER_1
  0
POLYLINE
  5
DA
  8
LAYER_1
 66
     1
 10
0.0
 20
0.0
 30
0.0
 70
     1
  0
VERTEX
  5
7B0
  8
LAYER_1
 10
98.84313449645106
 20
1.626259249586404
 30
0.0
  0
VERTEX
  5
7B1
  8
LAYER_1
 10
122.0931344964511
 20
1.626259249586404
 30
0.0
  0
VERTEX
  5
7B2
  8
LAYER_1
 10
122.0931344964511
 20
2.126259249586404
 30
0.0
  0
VERTEX
  5
7B3
  8
LAYER_1
 10
98.84313449645106
 20
2.126259249586404
 30
0.0
  0
SEQEND
  5
840
  8
LAYER_1
  0
POLYLINE
  5
DB
  8
LAYER_1
 66
     1
 10
0.0
 20
0.0
 30
0.0
 70
     1
  0
VERTEX
  5
7B4
  8
LAYER_1
 10
146.5142631903161
 20
-2.483386215190862
 30
0.0
  0
VERTEX
  5
7B5
  8
LAYER_1
 10
123.0142631903161
 20
-2.483386215190862
 30
0.0
  0
VERTEX
  5
7B6
  8
LAYER_1
 10
123.0142631903161
 20
-18.48338621519086
 30
0.0
  0
VERTEX
  5
7B7
  8
LAYER_1
 10
146.5142631903161
 20
-18.48338621519086
 30
0.0
  0
SEQEND
  5
841
  8
LAYER_1
  0
POLYLINE
  5
DC
  8
LAYER_1
 66
     1
 10
0.0
 20
0.0
 30
0.0
 70
     1
  0
VERTEX
  5
7B8
  8
LAYER_1
 10
146.6392631903161
 20
-2.358386215190862
 30
0.0
  0
VERTEX
  5
7B9
  8
LAYER_1
 10
146.2642631903161
 20
-2.358386215190862
 30
0.0
  0
VERTEX
  5
7BA
  8
LAYER_1
 10
146.2642631903161
 20
-18.60838621519086
 30
0.0
  0
VERTEX
  5
7BB
  8
LAYER_1
 10
146.6392631903161
 20
-18.60838621519086
 30
0.0
  0
SEQEND
  5
842
  8
LAYER_1
  0
POLYLINE
  5
DD
  8
LAYER_1
 66
     1
 10
0.0
 20
0.0
 30
0.0
 70
     1
  0
VERTEX
  5
7BC
  8
LAYER_1
 10
123.2642631903161
 20
-2.358386215190862
 30
0.0
  0
VERTEX
  5
7BD
  8
LAYER_1
 10
122.8892631903161
 20
-2.358386215190862
 30
0.0
  0
VERTEX
  5
7BE
  8
LAYER_1
 10
122.8892631903161
 20
-18.60838621519086
 30
0.0
  0
VERTEX
  5
7BF
  8
LAYER_1
 10
123.2642631903161
 20
-18.60838621519086
 30
0.0
  0
SEQEND
  5
843
  8
LAYER_1
  0
POLYLINE
  5
DE
  8
LAYER_1
 66
     1
 10
0.0
 20
0.0
 30
0.0
 70
     1
  0
VERTEX
  5
7C0
  8
LAYER_1
 10
134.7642631903161
 20
-13.54588621519086
 30
0.0
 42
0.4142135623730951
  0
VERTEX
  5
7C1
  8
LAYER_1
 10
137.3267631903161
 20
-10.98338621519086
 30
0.0
 42
0.4142135623730951
  0
VERTEX
  5
7C2
  8
LAYER_1
 10
134.7642631903161
 20
-8.420886215190862
 30
0.0
 42
0.4142135623730951
  0
VERTEX
  5
7C3
  8
LAYER_1
 10
132.2017631903161
 20
-10.98338621519086
 30
0.0
 42
0.4142135623730951
  0
SEQEND
  5
844
  8
LAYER_1
  0
POLYLINE
  5
DF
  8
LAYER_1
 66
     1
 10
0.0
 20
0.0
 30
0.0
 70
     1
  0
VERTEX
  5
7C4
  8
LAYER_1
 10
136.9205131903161
 20
-8.92138621519085
 30
0.0
 42
0.4142135623730951
  0
VERTEX
  5
7C5
  8
LAYER_1
 10
137.046013190316
 20
-8.795886215190862
 30
0.0
 42
0.4142135623730951
  0
VERTEX
  5
7C6
  8
LAYER_1
 10
136.9205131903161
 20
-8.670386215190874
 30
0.0
 42
0.4142135623730951
  0
VERTEX
  5
7C7
  8
LAYER_1
 10
136.7950131903161
 20
-8.795886215190862
 30
0.0
 42
0.4142135623730951
  0
SEQEND
  5
845
  8
LAYER_1
  0
POLYLINE
  5
E0
  8
LAYER_1
 66
     1
 10
0.0
 20
0.0
 30
0.0
 70
     1
  0
VERTEX
  5
7C8
  8
LAYER_1
 10
132.6080131903161
 20
-8.92138621519085
 30
0.0
 42
0.4142135623730951
  0
VERTEX
  5
7C9
  8
LAYER_1
 10
132.733513190316
 20
-8.795886215190862
 30
0.0
 42
0.4142135623730951
  0
VERTEX
  5
7CA
  8
LAYER_1
 10
132.6080131903161
 20
-8.670386215190874
 30
0.0
 42
0.4142135623730951
  0
VERTEX
  5
7CB
  8
LAYER_1
 10
132.4825131903161
 20
-8.795886215190862
 30
0.0
 42
0.4142135623730951
  0
SEQEND
  5
846
  8
LAYER_1
  0
POLYLINE
  5
E1
  8
LAYER_1
 66
     1
 10
0.0
 20
0.0
 30
0.0
 70
     1
  0
VERTEX
  5
7CC
  8
LAYER_1
 10
132.6080131903161
 20
-13.29638621519085
 30
0.0
 42
0.4142135623730951
  0
VERTEX
  5
7CD
  8
LAYER_1
 10
132.733513190316
 20
-13.17088621519086
 30
0.0
 42
0.4142135623730951
  0
VERTEX
  5
7CE
  8
LAYER_1
 10
132.6080131903161
 20
-13.04538621519087
 30
0.0
 42
0.4142135623730951
  0
VERTEX
  5
7CF
  8
LAYER_1
 10
132.4825131903161
 20
-13.17088621519086
 30
0.0
 42
0.4142135623730951
  0
SEQEND
  5
847
  8
LAYER_1
  0
POLYLINE
  5
E2
  8
LAYER_1
 66
     1
 10
0.0
 20
0.0
 30
0.0
 70
     1
  0
VERTEX
  5
7D0
  8
LAYER_1
 10
136.9205131903161
 20
-13.29638621519085
 30
0.0
 42
0.4142135623730951
  0
VERTEX
  5
7D1
  8
LAYER_1
 10
137.046013190316
 20
-13.17088621519086
 30
0.0
 42
0.4142135623730951
  0
VERTEX
  5
7D2
  8
LAYER_1
 10
136.9205131903161
 20
-13.04538621519087
 30
0.0
 42
0.4142135623730951
  0
VERTEX
  5
7D3
  8
LAYER_1
 10
136.7950131903161
 20
-13.17088621519086
 30
0.0
 42
0.4142135623730951
  0
SEQEND
  5
848
  8
LAYER_1
  0
ENDSEC
  0
EOF
