  0
SECTION
  2
HEADER
  9
$ACADVER
  1
AC1009
  9
$DWGCODEPAGE
  3
ansi_1252
  9
$INSBASE
 10
0.0
 20
0.0
 30
0.0
  9
$EXTMIN
 10
0.5217285917026366
 20
0.5624555375955964
 30
0.0
  9
$EXTMAX
 10
95.81926185490305
 20
46.78251649551039
 30
0.0
  9
$LIMMIN
 10
0.0
 20
0.0
  9
$LIMMAX
 10
12.0
 20
9.0
  9
$ORTHOMODE
 70
     0
  9
$REGENMODE
 70
     1
  9
$FILLMODE
 70
     1
  9
$QTEXTMODE
 70
     0
  9
$MIRRTEXT
 70
     1
  9
$DRAGMODE
 70
     2
  9
$LTSCALE
 40
1.0
  9
$OSMODE
 70
    37
  9
$ATTMODE
 70
     1
  9
$TEXTSIZE
 40
0.2
  9
$TRACEWID
 40
0.05
  9
$TEXTSTYLE
  7
STANDARD
  9
$CLAYER
  8
0
  9
$CELTYPE
  6
BYLAYER
  9
$CECOLOR
 62
   256
  9
$DIMSCALE
 40
1.0
  9
$DIMASZ
 40
0.18
  9
$DIMEXO
 40
0.0625
  9
$DIMDLI
 40
0.38
  9
$DIMRND
 40
0.0
  9
$DIMDLE
 40
0.0
  9
$DIMEXE
 40
0.18
  9
$DIMTP
 40
0.0
  9
$DIMTM
 40
0.0
  9
$DIMTXT
 40
0.18
  9
$DIMCEN
 40
0.09
  9
$DIMTSZ
 40
0.0
  9
$DIMTOL
 70
     0
  9
$DIMLIM
 70
     0
  9
$DIMTIH
 70
     1
  9
$DIMTOH
 70
     1
  9
$DIMSE1
 70
     0
  9
$DIMSE2
 70
     0
  9
$DIMTAD
 70
     0
  9
$DIMZIN
 70
     0
  9
$DIMBLK
  1

  9
$DIMASO
 70
     1
  9
$DIMSHO
 70
     1
  9
$DIMPOST
  1

  9
$DIMAPOST
  1

  9
$DIMALT
 70
     0
  9
$DIMALTD
 70
     2
  9
$DIMALTF
 40
25.4
  9
$DIMLFAC
 40
1.0
  9
$DIMTOFL
 70
     0
  9
$DIMTVP
 40
0.0
  9
$DIMTIX
 70
     0
  9
$DIMSOXD
 70
     0
  9
$DIMSAH
 70
     0
  9
$DIMBLK1
  1

  9
$DIMBLK2
  1

  9
$DIMSTYLE
  2
STANDARD
  9
$DIMCLRD
 70
     0
  9
$DIMCLRE
 70
     0
  9
$DIMCLRT
 70
     0
  9
$DIMTFAC
 40
1.0
  9
$DIMGAP
 40
0.09
  9
$LUNITS
 70
     2
  9
$LUPREC
 70
     4
  9
$SKETCHINC
 40
0.1
  9
$FILLETRAD
 40
0.5
  9
$AUNITS
 70
     0
  9
$AUPREC
 70
     0
  9
$MENU
  1
.
  9
$ELEVATION
 40
0.0
  9
$PELEVATION
 40
0.0
  9
$THICKNESS
 40
0.0
  9
$LIMCHECK
 70
     0
  9
$CHAMFERA
 40
0.0
  9
$CHAMFERB
 40
0.0
  9
$SKPOLY
 70
     0
  9
$TDCREATE
 40
2454910.5
  9
$TDUPDATE
 40
2457323.543320416
  9
$TDINDWG
 40
0.0000000116
  9
$TDUSRTIMER
 40
0.0000000116
  9
$USRTIMER
 70
     1
  9
$ANGBASE
 50
0.0
  9
$ANGDIR
 70
     0
  9
$PDMODE
 70
     0
  9
$PDSIZE
 40
0.0
  9
$PLINEWID
 40
0.0
  9
$COORDS
 70
     1
  9
$SPLFRAME
 70
     0
  9
$SPLINETYPE
 70
     6
  9
$SPLINESEGS
 70
     8
  9
$ATTDIA
 70
     0
  9
$ATTREQ
 70
     1
  9
$HANDLING
 70
     1
  9
$HANDSEED
  5
7F4
  9
$SURFTAB1
 70
     6
  9
$SURFTAB2
 70
     6
  9
$SURFTYPE
 70
     6
  9
$SURFU
 70
     6
  9
$SURFV
 70
     6
  9
$UCSNAME
  2

  9
$UCSORG
 10
0.0
 20
0.0
 30
0.0
  9
$UCSXDIR
 10
1.0
 20
0.0
 30
0.0
  9
$UCSYDIR
 10
0.0
 20
1.0
 30
0.0
  9
$PUCSNAME
  2

  9
$PUCSORG
 10
0.0
 20
0.0
 30
0.0
  9
$PUCSXDIR
 10
1.0
 20
0.0
 30
0.0
  9
$PUCSYDIR
 10
0.0
 20
1.0
 30
0.0
  9
$USERI1
 70
     0
  9
$USERI2
 70
     0
  9
$USERI3
 70
     0
  9
$USERI4
 70
     0
  9
$USERI5
 70
     0
  9
$USERR1
 40
0.0
  9
$USERR2
 40
0.0
  9
$USERR3
 40
0.0
  9
$USERR4
 40
0.0
  9
$USERR5
 40
0.0
  9
$WORLDVIEW
 70
     1
  9
$SHADEDGE
 70
     3
  9
$SHADEDIF
 70
    70
  9
$TILEMODE
 70
     1
  9
$MAXACTVP
 70
    64
  9
$PLIMCHECK
 70
     0
  9
$PEXTMIN
 10
1.000000000000000E+20
 20
1.000000000000000E+20
 30
1.000000000000000E+20
  9
$PEXTMAX
 10
-1.000000000000000E+20
 20
-1.000000000000000E+20
 30
-1.000000000000000E+20
  9
$PLIMMIN
 10
0.0
 20
0.0
  9
$PLIMMAX
 10
12.0
 20
9.0
  9
$UNITMODE
 70
     0
  9
$VISRETAIN
 70
     1
  9
$PLINEGEN
 70
     0
  9
$PSLTSCALE
 70
     1
  0
ENDSEC
  0
SECTION
  2
TABLES
  0
TABLE
  2
VPORT
 70
     1
  0
VPORT
  2
*ACTIVE
 70
     0
 10
0.0
 20
0.0
 11
1.0
 21
1.0
 12
10.42990654205607
 22
4.5
 13
0.0
 23
0.0
 14
0.5
 24
0.5
 15
0.5
 25
0.5
 16
0.0
 26
0.0
 36
1.0
 17
0.0
 27
0.0
 37
0.0
 40
9.0
 41
1.972972972850329
 42
50.0
 43
0.0
 44
0.0
 50
0.0
 51
0.0
 71
     0
 72
   100
 73
     1
 74
     3
 75
     0
 76
     0
 77
     0
 78
     0
  0
ENDTAB
  0
TABLE
  2
LTYPE
 70
     2
  0
LTYPE
  2
CONTINUOUS
 70
     0
  3
Solid line
 72
    65
 73
     0
 40
0.0
  0
LTYPE
  2
CONTINUOUS2
 70
     0
  3
Solid Line
 72
    65
 73
     0
 40
0.0
  0
ENDTAB
  0
TABLE
  2
LAYER
 70
     2
  0
LAYER
  2
0
 70
     0
 62
     7
  6
CONTINUOUS
  0
LAYER
  2
LAYER_1
 70
     0
 62
    18
  6
CONTINUOUS
  0
ENDTAB
  0
TABLE
  2
STYLE
 70
     1
  0
STYLE
  2
STANDARD
 70
     0
 40
0.0
 41
1.0
 50
0.0
 71
     0
 42
0.2
  3
txt
  4

  0
ENDTAB
  0
TABLE
  2
VIEW
 70
     0
  0
ENDTAB
  0
TABLE
  2
UCS
 70
     0
  0
ENDTAB
  0
TABLE
  2
APPID
 70
     1
  0
APPID
  2
ACAD
 70
     0
  0
ENDTAB
  0
TABLE
  2
DIMSTYLE
 70
     1
  0
DIMSTYLE
  2
STANDARD
 70
     0
  3

  4

  5

  6

  7

 40
1.0
 41
0.18
 42
0.0625
 43
0.38
 44
0.18
 45
0.0
 46
0.0
 47
0.0
 48
0.0
140
0.18
141
0.09
142
0.0
143
25.4
144
1.0
145
0.0
146
1.0
147
0.09
 71
     0
 72
     0
 73
     1
 74
     1
 75
     0
 76
     0
 77
     0
 78
     0
170
     0
171
     2
172
     0
173
     0
174
     0
175
     0
176
     0
177
     0
178
     0
  0
ENDTAB
  0
ENDSEC
  0
SECTION
  2
BLOCKS
  0
BLOCK
  8
0
  2
$MODEL_SPACE
 70
     0
 10
0.0
 20
0.0
 30
0.0
  3
$MODEL_SPACE
  1

  0
ENDBLK
  5
21
  8
0
  0
BLOCK
 67
     1
  8
0
  2
$PAPER_SPACE
 70
     0
 10
0.0
 20
0.0
 30
0.0
  3
$PAPER_SPACE
  1

  0
ENDBLK
  5
1D
 67
     1
  8
0
  0
ENDSEC
  0
SECTION
  2
ENTITIES
  0
POLYLINE
  5
70
  8
LAYER_1
 66
     1
 10
0.0
 20
0.0
 30
0.0
 70
     1
  0
VERTEX
  5
AC
  8
LAYER_1
 10
28.27133678484252
 20
8.43877431974763
 30
0.0
 42
0.329084038001653
  0
VERTEX
  5
AD
  8
LAYER_1
 10
29.50566285285972
 20
6.766476381019785
 30
0.0
  0
VERTEX
  5
AE
  8
LAYER_1
 10
32.0831426835493
 20
5.807791406777177
 30
0.0
 42
-0.293694145603207
  0
VERTEX
  5
AF
  8
LAYER_1
 10
32.52175139378652
 20
5.125489813154608
 30
0.0
  0
VERTEX
  5
B0
  8
LAYER_1
 10
32.52172859170263
 20
4.062455537595596
 30
0.0
 42
-0.4142135623730951
  0
VERTEX
  5
B1
  8
LAYER_1
 10
29.02159289818376
 20
0.5624555375955964
 30
0.0
  0
VERTEX
  5
B2
  8
LAYER_1
 10
4.025241833987071
 20
0.5624555375955964
 30
0.0
 42
-0.4142135623730951
  0
VERTEX
  5
B3
  8
LAYER_1
 10
0.5217285917026366
 20
4.062455537595596
 30
0.0
  0
VERTEX
  5
B4
  8
LAYER_1
 10
0.5225786859280355
 20
5.126680340350632
 30
0.0
 42
-0.3127338152378186
  0
VERTEX
  5
B5
  8
LAYER_1
 10
1.009493013340826
 20
5.829023510659368
 30
0.0
  0
VERTEX
  5
B6
  8
LAYER_1
 10
3.712066573262451
 20
6.833461632004393
 30
0.0
 42
0.2995507159491871
  0
VERTEX
  5
B7
  8
LAYER_1
 10
4.769932044736056
 20
8.440772987785081
 30
0.0
  0
VERTEX
  5
B8
  8
LAYER_1
 10
4.770633828974628
 20
14.68651111198121
 30
0.0
 42
0.2815384657348346
  0
VERTEX
  5
B9
  8
LAYER_1
 10
3.817951286107348
 20
16.2443252448454
 30
0.0
  0
VERTEX
  5
BA
  8
LAYER_1
 10
0.9813559630001372
 20
17.30995102000977
 30
0.0
 42
-0.3019091078264014
  0
VERTEX
  5
BB
  8
LAYER_1
 10
0.5220146844596023
 20
18.00133912204766
 30
0.0
  0
VERTEX
  5
BC
  8
LAYER_1
 10
0.5217285917026366
 20
19.0624555375956
 30
0.0
 42
-0.4142135623730951
  0
VERTEX
  5
BD
  8
LAYER_1
 10
4.029338315429829
 20
22.56245553759559
 30
0.0
  0
VERTEX
  5
BE
  8
LAYER_1
 10
29.0206172308573
 20
22.56245553759559
 30
0.0
 42
-0.4142135623730951
  0
VERTEX
  5
BF
  8
LAYER_1
 10
32.52172859170263
 20
19.06245553759559
 30
0.0
  0
VERTEX
  5
C0
  8
LAYER_1
 10
32.52135364637299
 20
17.99894117690021
 30
0.0
 42
-0.2963914419050681
  0
VERTEX
  5
C1
  8
LAYER_1
 10
32.07595773647382
 20
17.31358262235096
 30
0.0
  0
VERTEX
  5
C2
  8
LAYER_1
 10
29.49279108194857
 20
16.35432926008268
 30
0.0
 42
0.3266027802139435
  0
VERTEX
  5
C3
  8
LAYER_1
 10
28.27343090888549
 20
14.6867197811973
 30
0.0
  0
SEQEND
  5
7BF
  8
LAYER_1
  0
POLYLINE
  5
71
  8
LAYER_1
 66
     1
 10
0.0
 20
0.0
 30
0.0
 70
     1
  0
VERTEX
  5
C4
  8
LAYER_1
 10
7.71556137717538
 20
4.579767681866088
 30
0.0
  0
VERTEX
  5
C5
  8
LAYER_1
 10
25.32009038105766
 20
4.579767681866088
 30
0.0
  0
VERTEX
  5
C6
  8
LAYER_1
 10
25.32009038105766
 20
18.53967434686296
 30
0.0
  0
VERTEX
  5
C7
  8
LAYER_1
 10
7.71556137717538
 20
18.53967434686296
 30
0.0
  0
SEQEND
  5
7C0
  8
LAYER_1
  0
POLYLINE
  5
72
  8
LAYER_1
 66
     1
 10
0.0
 20
0.0
 30
0.0
 70
     1
  0
VERTEX
  5
C8
  8
LAYER_1
 10
7.396299026873084
 20
4.312431640963624
 30
0.0
  0
VERTEX
  5
C9
  8
LAYER_1
 10
25.64629902687308
 20
4.312431640963624
 30
0.0
  0
VERTEX
  5
CA
  8
LAYER_1
 10
25.64629902687308
 20
18.81243164096363
 30
0.0
  0
VERTEX
  5
CB
  8
LAYER_1
 10
7.396299026873084
 20
18.81243164096363
 30
0.0
  0
SEQEND
  5
7C1
  8
LAYER_1
  0
POLYLINE
  5
73
  8
LAYER_1
 66
     1
 10
0.0
 20
0.0
 30
0.0
 70
     1
  0
VERTEX
  5
CC
  8
LAYER_1
 10
45.95529163781553
 20
3.225046855509845
 30
0.0
 42
0.414214
  0
VERTEX
  5
CD
  8
LAYER_1
 10
46.20529163781553
 20
3.475046855509845
 30
0.0
  0
VERTEX
  5
CE
  8
LAYER_1
 10
46.20529163781553
 20
7.975046855509845
 30
0.0
 42
0.414214
  0
VERTEX
  5
CF
  8
LAYER_1
 10
45.95529163781553
 20
8.225046855509845
 30
0.0
  0
VERTEX
  5
D0
  8
LAYER_1
 10
41.45529163781553
 20
8.225046855509845
 30
0.0
 42
0.414214
  0
VERTEX
  5
D1
  8
LAYER_1
 10
41.20529163781553
 20
7.975046855509845
 30
0.0
  0
VERTEX
  5
D2
  8
LAYER_1
 10
41.20529163781553
 20
3.475046855509845
 30
0.0
 42
0.414214
  0
VERTEX
  5
D3
  8
LAYER_1
 10
41.45529163781553
 20
3.225046855509845
 30
0.0
  0
SEQEND
  5
7C2
  8
LAYER_1
  0
POLYLINE
  5
74
  8
LAYER_1
 66
     1
 10
0.0
 20
0.0
 30
0.0
 70
     1
  0
VERTEX
  5
D4
  8
LAYER_1
 10
37.20529163781553
 20
18.22504685550985
 30
0.0
 42
0.414214
  0
VERTEX
  5
D5
  8
LAYER_1
 10
38.20529163781553
 20
17.22504685550985
 30
0.0
 42
0.414214
  0
VERTEX
  5
D6
  8
LAYER_1
 10
39.20529163781553
 20
18.22504685550985
 30
0.0
 42
0.414214
  0
VERTEX
  5
D7
  8
LAYER_1
 10
38.20529163781553
 20
19.22504685550985
 30
0.0
 42
0.414214
  0
SEQEND
  5
7C3
  8
LAYER_1
  0
POLYLINE
  5
75
  8
LAYER_1
 66
     1
 10
0.0
 20
0.0
 30
0.0
 70
     1
  0
VERTEX
  5
D8
  8
LAYER_1
 10
42.95529163781553
 20
19.22504685550985
 30
0.0
 42
0.414214
  0
VERTEX
  5
D9
  8
LAYER_1
 10
43.70529163781553
 20
18.47504685550985
 30
0.0
 42
0.414214
  0
VERTEX
  5
DA
  8
LAYER_1
 10
44.45529163781553
 20
19.22504685550985
 30
0.0
 42
0.414214
  0
VERTEX
  5
DB
  8
LAYER_1
 10
43.70529163781553
 20
19.97504685550985
 30
0.0
 42
0.414214
  0
SEQEND
  5
7C4
  8
LAYER_1
  0
POLYLINE
  5
76
  8
LAYER_1
 66
     1
 10
0.0
 20
0.0
 30
0.0
 70
     1
  0
VERTEX
  5
DC
  8
LAYER_1
 10
51.58029163781553
 20
19.35004685550985
 30
0.0
 42
0.414214
  0
VERTEX
  5
DD
  8
LAYER_1
 10
51.83029163781553
 20
19.10004685550985
 30
0.0
 42
0.414214
  0
VERTEX
  5
DE
  8
LAYER_1
 10
52.08029163781553
 20
19.35004685550985
 30
0.0
 42
0.414214
  0
VERTEX
  5
DF
  8
LAYER_1
 10
51.83029163781553
 20
19.60004685550985
 30
0.0
 42
0.414214
  0
SEQEND
  5
7C5
  8
LAYER_1
  0
POLYLINE
  5
77
  8
LAYER_1
 66
     1
 10
0.0
 20
0.0
 30
0.0
 70
     1
  0
VERTEX
  5
E0
  8
LAYER_1
 10
35.33029163781553
 20
19.35004685550985
 30
0.0
 42
0.414214
  0
VERTEX
  5
E1
  8
LAYER_1
 10
35.58029163781553
 20
19.10004685550985
 30
0.0
 42
0.414214
  0
VERTEX
  5
E2
  8
LAYER_1
 10
35.83029163781553
 20
19.35004685550985
 30
0.0
 42
0.414214
  0
VERTEX
  5
E3
  8
LAYER_1
 10
35.58029163781553
 20
19.60004685550985
 30
0.0
 42
0.414214
  0
SEQEND
  5
7C6
  8
LAYER_1
  0
POLYLINE
  5
78
  8
LAYER_1
 66
     1
 10
0.0
 20
0.0
 30
0.0
 70
     1
  0
VERTEX
  5
E4
  8
LAYER_1
 10
51.58029163781553
 20
2.600046855509845
 30
0.0
 42
0.414214
  0
VERTEX
  5
E5
  8
LAYER_1
 10
51.83029163781553
 20
2.350046855509845
 30
0.0
 42
0.414214
  0
VERTEX
  5
E6
  8
LAYER_1
 10
52.08029163781553
 20
2.600046855509845
 30
0.0
 42
0.414214
  0
VERTEX
  5
E7
  8
LAYER_1
 10
51.83029163781553
 20
2.850046855509845
 30
0.0
 42
0.414214
  0
SEQEND
  5
7C7
  8
LAYER_1
  0
POLYLINE
  5
79
  8
LAYER_1
 66
     1
 10
0.0
 20
0.0
 30
0.0
 70
     1
  0
VERTEX
  5
E8
  8
LAYER_1
 10
35.33029163781553
 20
2.600046855509845
 30
0.0
 42
0.414214
  0
VERTEX
  5
E9
  8
LAYER_1
 10
35.58029163781553
 20
2.350046855509845
 30
0.0
 42
0.414214
  0
VERTEX
  5
EA
  8
LAYER_1
 10
35.83029163781553
 20
2.600046855509845
 30
0.0
 42
0.414214
  0
VERTEX
  5
EB
  8
LAYER_1
 10
35.58029163781553
 20
2.850046855509845
 30
0.0
 42
0.414214
  0
SEQEND
  5
7C8
  8
LAYER_1
  0
POLYLINE
  5
7A
  8
LAYER_1
 66
     1
 10
0.0
 20
0.0
 30
0.0
 70
     1
  0
VERTEX
  5
EC
  8
LAYER_1
 10
53.18093263781553
 20
1.250046855509844
 30
0.0
  0
VERTEX
  5
ED
  8
LAYER_1
 10
53.18093263781553
 20
20.70004685550984
 30
0.0
  0
VERTEX
  5
EE
  8
LAYER_1
 10
34.22965063781554
 20
20.70004685550984
 30
0.0
  0
VERTEX
  5
EF
  8
LAYER_1
 10
34.22965063781554
 20
1.250046855509844
 30
0.0
  0
SEQEND
  5
7C9
  8
LAYER_1
  0
POLYLINE
  5
7B
  8
LAYER_1
 66
     1
 10
0.0
 20
0.0
 30
0.0
 70
     1
  0
VERTEX
  5
F0
  8
LAYER_1
 10
53.45529163781553
 20
0.975046855509845
 30
0.0
  0
VERTEX
  5
F1
  8
LAYER_1
 10
53.45529163781553
 20
20.97504685550985
 30
0.0
  0
VERTEX
  5
F2
  8
LAYER_1
 10
33.95529163781553
 20
20.97504685550985
 30
0.0
  0
VERTEX
  5
F3
  8
LAYER_1
 10
33.95529163781553
 20
0.975046855509845
 30
0.0
  0
SEQEND
  5
7CA
  8
LAYER_1
  0
POLYLINE
  5
7C
  8
LAYER_1
 66
     1
 10
0.0
 20
0.0
 30
0.0
 70
     1
  0
VERTEX
  5
F4
  8
LAYER_1
 10
87.01148440728637
 20
9.587373158453858
 30
0.0
  0
VERTEX
  5
F5
  8
LAYER_1
 10
87.01168940728637
 20
9.535673158453847
 30
0.0
  0
VERTEX
  5
F6
  8
LAYER_1
 10
87.01230140728637
 20
9.484131158453849
 30
0.0
  0
VERTEX
  5
F7
  8
LAYER_1
 10
87.01331840728638
 20
9.432750158453857
 30
0.0
  0
VERTEX
  5
F8
  8
LAYER_1
 10
87.01473740728638
 20
9.381533158453848
 30
0.0
  0
VERTEX
  5
F9
  8
LAYER_1
 10
87.01655740728637
 20
9.330486158453851
 30
0.0
  0
VERTEX
  5
FA
  8
LAYER_1
 10
87.01877440728637
 20
9.279611158453847
 30
0.0
  0
VERTEX
  5
FB
  8
LAYER_1
 10
87.02138640728637
 20
9.22891315845385
 30
0.0
  0
VERTEX
  5
FC
  8
LAYER_1
 10
87.02439140728637
 20
9.17839615845385
 30
0.0
  0
VERTEX
  5
FD
  8
LAYER_1
 10
87.02778740728637
 20
9.128063158453855
 30
0.0
  0
VERTEX
  5
FE
  8
LAYER_1
 10
87.03157040728637
 20
9.077919158453852
 30
0.0
  0
VERTEX
  5
FF
  8
LAYER_1
 10
87.03573840728637
 20
9.027967158453848
 30
0.0
  0
VERTEX
  5
100
  8
LAYER_1
 10
87.04029040728638
 20
8.978212158453857
 30
0.0
  0
VERTEX
  5
101
  8
LAYER_1
 10
87.04522240728637
 20
8.928657158453845
 30
0.0
  0
VERTEX
  5
102
  8
LAYER_1
 10
87.05053240728638
 20
8.879306158453858
 30
0.0
  0
VERTEX
  5
103
  8
LAYER_1
 10
87.05621740728638
 20
8.830164158453854
 30
0.0
  0
VERTEX
  5
104
  8
LAYER_1
 10
87.06227540728638
 20
8.781233158453844
 30
0.0
  0
VERTEX
  5
105
  8
LAYER_1
 10
87.06870440728638
 20
8.732519158453854
 30
0.0
  0
VERTEX
  5
106
  8
LAYER_1
 10
87.07550240728638
 20
8.684024158453852
 30
0.0
  0
VERTEX
  5
107
  8
LAYER_1
 10
87.08266540728637
 20
8.635753158453852
 30
0.0
  0
VERTEX
  5
108
  8
LAYER_1
 10
87.09019140728638
 20
8.587710158453845
 30
0.0
  0
VERTEX
  5
109
  8
LAYER_1
 10
87.09807840728637
 20
8.53989915845385
 30
0.0
  0
VERTEX
  5
10A
  8
LAYER_1
 10
87.10632340728638
 20
8.492324158453854
 30
0.0
  0
VERTEX
  5
10B
  8
LAYER_1
 10
87.11492540728638
 20
8.444988158453853
 30
0.0
  0
VERTEX
  5
10C
  8
LAYER_1
 10
87.12387940728637
 20
8.39789515845385
 30
0.0
  0
VERTEX
  5
10D
  8
LAYER_1
 10
87.13318540728638
 20
8.351050158453845
 30
0.0
  0
VERTEX
  5
10E
  8
LAYER_1
 10
87.14283940728637
 20
8.304456158453846
 30
0.0
  0
VERTEX
  5
10F
  8
LAYER_1
 10
87.15284040728638
 20
8.258118158453854
 30
0.0
  0
VERTEX
  5
110
  8
LAYER_1
 10
87.16318440728638
 20
8.212039158453848
 30
0.0
  0
VERTEX
  5
111
  8
LAYER_1
 10
87.17386940728638
 20
8.166222158453849
 30
0.0
  0
VERTEX
  5
112
  8
LAYER_1
 10
87.18489340728637
 20
8.120673158453855
 30
0.0
  0
VERTEX
  5
113
  8
LAYER_1
 10
87.19625340728636
 20
8.075395158453844
 30
0.0
  0
VERTEX
  5
114
  8
LAYER_1
 10
87.20794740728637
 20
8.03039215845385
 30
0.0
  0
VERTEX
  5
115
  8
LAYER_1
 10
87.21997240728636
 20
7.985668158453848
 30
0.0
  0
VERTEX
  5
116
  8
LAYER_1
 10
87.23232640728638
 20
7.941226158453844
 30
0.0
  0
VERTEX
  5
117
  8
LAYER_1
 10
87.24500740728637
 20
7.897071158453855
 30
0.0
  0
VERTEX
  5
118
  8
LAYER_1
 10
87.25801140728636
 20
7.853207158453856
 30
0.0
  0
VERTEX
  5
119
  8
LAYER_1
 10
87.27133840728636
 20
7.809638158453851
 30
0.0
  0
VERTEX
  5
11A
  8
LAYER_1
 10
87.28498340728636
 20
7.766366158453849
 30
0.0
  0
VERTEX
  5
11B
  8
LAYER_1
 10
87.29894540728638
 20
7.723398158453847
 30
0.0
  0
VERTEX
  5
11C
  8
LAYER_1
 10
87.31322140728638
 20
7.680735158453857
 30
0.0
  0
VERTEX
  5
11D
  8
LAYER_1
 10
87.32780840728638
 20
7.638383158453848
 30
0.0
  0
VERTEX
  5
11E
  8
LAYER_1
 10
87.34270640728637
 20
7.596345158453857
 30
0.0
  0
VERTEX
  5
11F
  8
LAYER_1
 10
87.35790940728637
 20
7.554625158453845
 30
0.0
  0
VERTEX
  5
120
  8
LAYER_1
 10
87.37341840728637
 20
7.513227158453844
 30
0.0
  0
VERTEX
  5
121
  8
LAYER_1
 10
87.38922840728638
 20
7.472155158453845
 30
0.0
  0
VERTEX
  5
122
  8
LAYER_1
 10
87.40533740728638
 20
7.43141315845385
 30
0.0
  0
VERTEX
  5
123
  8
LAYER_1
 10
87.42174440728637
 20
7.391005158453851
 30
0.0
  0
VERTEX
  5
124
  8
LAYER_1
 10
87.43844540728638
 20
7.350935158453851
 30
0.0
  0
VERTEX
  5
125
  8
LAYER_1
 10
87.45543840728637
 20
7.311206158453857
 30
0.0
  0
VERTEX
  5
126
  8
LAYER_1
 10
87.47272140728637
 20
7.271823158453856
 30
0.0
  0
VERTEX
  5
127
  8
LAYER_1
 10
87.49029140728636
 20
7.232789158453855
 30
0.0
  0
VERTEX
  5
128
  8
LAYER_1
 10
87.50814640728636
 20
7.194109158453855
 30
0.0
  0
VERTEX
  5
129
  8
LAYER_1
 10
87.52628340728637
 20
7.15578615845385
 30
0.0
  0
VERTEX
  5
12A
  8
LAYER_1
 10
87.54469940728637
 20
7.117825158453854
 30
0.0
  0
VERTEX
  5
12B
  8
LAYER_1
 10
87.56339440728637
 20
7.080228158453849
 30
0.0
  0
VERTEX
  5
12C
  8
LAYER_1
 10
87.58236340728637
 20
7.043001158453848
 30
0.0
  0
VERTEX
  5
12D
  8
LAYER_1
 10
87.60160440728637
 20
7.006147158453857
 30
0.0
  0
VERTEX
  5
12E
  8
LAYER_1
 10
87.62111640728638
 20
6.969670158453852
 30
0.0
  0
VERTEX
  5
12F
  8
LAYER_1
 10
87.64089540728638
 20
6.933574158453851
 30
0.0
  0
VERTEX
  5
130
  8
LAYER_1
 10
87.66093940728636
 20
6.897863158453845
 30
0.0
  0
VERTEX
  5
131
  8
LAYER_1
 10
87.68124640728637
 20
6.862541158453851
 30
0.0
  0
VERTEX
  5
132
  8
LAYER_1
 10
87.70181340728637
 20
6.827611158453848
 30
0.0
  0
VERTEX
  5
133
  8
LAYER_1
 10
87.72263740728637
 20
6.793078158453852
 30
0.0
  0
VERTEX
  5
134
  8
LAYER_1
 10
87.74371740728638
 20
6.758946158453853
 30
0.0
  0
VERTEX
  5
135
  8
LAYER_1
 10
87.76505040728638
 20
6.725218158453856
 30
0.0
  0
VERTEX
  5
136
  8
LAYER_1
 10
87.78663340728637
 20
6.691898158453853
 30
0.0
  0
VERTEX
  5
137
  8
LAYER_1
 10
87.80846440728637
 20
6.658991158453844
 30
0.0
  0
VERTEX
  5
138
  8
LAYER_1
 10
87.83054140728636
 20
6.626500158453851
 30
0.0
  0
VERTEX
  5
139
  8
LAYER_1
 10
87.85286040728637
 20
6.594430158453847
 30
0.0
  0
VERTEX
  5
13A
  8
LAYER_1
 10
87.87542040728637
 20
6.562783158453854
 30
0.0
  0
VERTEX
  5
13B
  8
LAYER_1
 10
87.89821840728636
 20
6.531565158453844
 30
0.0
  0
VERTEX
  5
13C
  8
LAYER_1
 10
87.92125240728637
 20
6.500778158453855
 30
0.0
  0
VERTEX
  5
13D
  8
LAYER_1
 10
87.94451940728636
 20
6.470428158453856
 30
0.0
  0
VERTEX
  5
13E
  8
LAYER_1
 10
87.96801740728638
 20
6.440517158453844
 30
0.0
  0
VERTEX
  5
13F
  8
LAYER_1
 10
87.99174340728636
 20
6.411050158453847
 30
0.0
  0
VERTEX
  5
140
  8
LAYER_1
 10
88.01569440728638
 20
6.382031158453856
 30
0.0
  0
VERTEX
  5
141
  8
LAYER_1
 10
88.03986940728637
 20
6.353463158453849
 30
0.0
  0
VERTEX
  5
142
  8
LAYER_1
 10
88.06426540728637
 20
6.325351158453856
 30
0.0
  0
VERTEX
  5
143
  8
LAYER_1
 10
88.08888040728637
 20
6.297699158453852
 30
0.0
  0
VERTEX
  5
144
  8
LAYER_1
 10
88.11371040728638
 20
6.270510158453845
 30
0.0
  0
VERTEX
  5
145
  8
LAYER_1
 10
88.13875440728637
 20
6.243788158453853
 30
0.0
  0
VERTEX
  5
146
  8
LAYER_1
 10
88.16401040728637
 20
6.217538158453848
 30
0.0
  0
VERTEX
  5
147
  8
LAYER_1
 10
88.18947340728637
 20
6.191762158453855
 30
0.0
  0
VERTEX
  5
148
  8
LAYER_1
 10
88.21514340728636
 20
6.166466158453844
 30
0.0
  0
VERTEX
  5
149
  8
LAYER_1
 10
88.24101740728638
 20
6.141653158453849
 30
0.0
  0
VERTEX
  5
14A
  8
LAYER_1
 10
88.26709240728637
 20
6.117327158453847
 30
0.0
  0
VERTEX
  5
14B
  8
LAYER_1
 10
88.29336640728637
 20
6.093492158453856
 30
0.0
  0
VERTEX
  5
14C
  8
LAYER_1
 10
88.31983640728637
 20
6.070151158453854
 30
0.0
  0
VERTEX
  5
14D
  8
LAYER_1
 10
88.34650040728637
 20
6.047309158453857
 30
0.0
  0
VERTEX
  5
14E
  8
LAYER_1
 10
88.37335540728638
 20
6.024970158453854
 30
0.0
  0
VERTEX
  5
14F
  8
LAYER_1
 10
88.40040040728637
 20
6.003138158453851
 30
0.0
  0
VERTEX
  5
150
  8
LAYER_1
 10
88.42763140728637
 20
5.981816158453853
 30
0.0
  0
VERTEX
  5
151
  8
LAYER_1
 10
88.45504640728637
 20
5.961009158453848
 30
0.0
  0
VERTEX
  5
152
  8
LAYER_1
 10
88.48264340728637
 20
5.940720158453857
 30
0.0
  0
VERTEX
  5
153
  8
LAYER_1
 10
88.51041940728636
 20
5.920953158453855
 30
0.0
  0
VERTEX
  5
154
  8
LAYER_1
 10
88.53837140728636
 20
5.901712158453847
 30
0.0
  0
VERTEX
  5
155
  8
LAYER_1
 10
88.56649840728637
 20
5.883002158453849
 30
0.0
  0
VERTEX
  5
156
  8
LAYER_1
 10
88.59479740728638
 20
5.864826158453852
 30
0.0
  0
VERTEX
  5
157
  8
LAYER_1
 10
88.62326540728638
 20
5.847188158453847
 30
0.0
  0
VERTEX
  5
158
  8
LAYER_1
 10
88.65190040728636
 20
5.830092158453851
 30
0.0
  0
VERTEX
  5
159
  8
LAYER_1
 10
88.68070040728638
 20
5.813541158453845
 30
0.0
  0
VERTEX
  5
15A
  8
LAYER_1
 10
88.70966140728636
 20
5.797541158453853
 30
0.0
  0
VERTEX
  5
15B
  8
LAYER_1
 10
88.73878340728636
 20
5.782094158453845
 30
0.0
  0
VERTEX
  5
15C
  8
LAYER_1
 10
88.76806140728637
 20
5.767205158453848
 30
0.0
  0
VERTEX
  5
15D
  8
LAYER_1
 10
88.79749440728638
 20
5.752877158453856
 30
0.0
  0
VERTEX
  5
15E
  8
LAYER_1
 10
88.82707940728638
 20
5.739115158453856
 30
0.0
  0
VERTEX
  5
15F
  8
LAYER_1
 10
88.85681340728637
 20
5.725922158453855
 30
0.0
  0
VERTEX
  5
160
  8
LAYER_1
 10
88.88669540728638
 20
5.713303158453854
 30
0.0
  0
VERTEX
  5
161
  8
LAYER_1
 10
88.91672240728637
 20
5.701261158453846
 30
0.0
  0
VERTEX
  5
162
  8
LAYER_1
 10
88.94689140728637
 20
5.689801158453847
 30
0.0
  0
VERTEX
  5
163
  8
LAYER_1
 10
88.97720040728636
 20
5.67892515845385
 30
0.0
  0
VERTEX
  5
164
  8
LAYER_1
 10
89.00764740728637
 20
5.668638158453845
 30
0.0
  0
VERTEX
  5
165
  8
LAYER_1
 10
89.03822940728638
 20
5.658945158453847
 30
0.0
  0
VERTEX
  5
166
  8
LAYER_1
 10
89.06894340728637
 20
5.64984815845385
 30
0.0
  0
VERTEX
  5
167
  8
LAYER_1
 10
89.09978740728637
 20
5.641353158453853
 30
0.0
  0
VERTEX
  5
168
  8
LAYER_1
 10
89.13075940728636
 20
5.633462158453852
 30
0.0
  0
VERTEX
  5
169
  8
LAYER_1
 10
89.16185640728638
 20
5.626179158453851
 30
0.0
  0
VERTEX
  5
16A
  8
LAYER_1
 10
89.19307640728637
 20
5.619510158453849
 30
0.0
  0
VERTEX
  5
16B
  8
LAYER_1
 10
89.22441640728637
 20
5.613457158453855
 30
0.0
  0
VERTEX
  5
16C
  8
LAYER_1
 10
89.25587440728637
 20
5.608024158453844
 30
0.0
  0
VERTEX
  5
16D
  8
LAYER_1
 10
89.28744740728636
 20
5.603216158453847
 30
0.0
  0
VERTEX
  5
16E
  8
LAYER_1
 10
89.31913340728637
 20
5.599036158453856
 30
0.0
  0
VERTEX
  5
16F
  8
LAYER_1
 10
89.35093040728637
 20
5.595489158453844
 30
0.0
  0
VERTEX
  5
170
  8
LAYER_1
 10
89.38283540728638
 20
5.59257715845385
 30
0.0
  0
VERTEX
  5
171
  8
LAYER_1
 10
89.41484540728636
 20
5.590306158453856
 30
0.0
  0
VERTEX
  5
172
  8
LAYER_1
 10
89.44695840728637
 20
5.588679158453857
 30
0.0
  0
VERTEX
  5
173
  8
LAYER_1
 10
89.47917240728637
 20
5.587700158453856
 30
0.0
  0
VERTEX
  5
174
  8
LAYER_1
 10
89.51148440728637
 20
5.587373158453858
 30
0.0
  0
VERTEX
  5
175
  8
LAYER_1
 10
89.54379640728637
 20
5.587700158453856
 30
0.0
  0
VERTEX
  5
176
  8
LAYER_1
 10
89.57601040728638
 20
5.588679158453857
 30
0.0
  0
VERTEX
  5
177
  8
LAYER_1
 10
89.60812440728638
 20
5.590306158453856
 30
0.0
  0
VERTEX
  5
178
  8
LAYER_1
 10
89.64013440728637
 20
5.59257715845385
 30
0.0
  0
VERTEX
  5
179
  8
LAYER_1
 10
89.67203940728636
 20
5.595489158453844
 30
0.0
  0
VERTEX
  5
17A
  8
LAYER_1
 10
89.70383540728638
 20
5.599036158453856
 30
0.0
  0
VERTEX
  5
17B
  8
LAYER_1
 10
89.73552140728637
 20
5.603216158453847
 30
0.0
  0
VERTEX
  5
17C
  8
LAYER_1
 10
89.76709540728636
 20
5.608024158453844
 30
0.0
  0
VERTEX
  5
17D
  8
LAYER_1
 10
89.79855340728638
 20
5.613457158453855
 30
0.0
  0
VERTEX
  5
17E
  8
LAYER_1
 10
89.82989340728638
 20
5.619510158453849
 30
0.0
  0
VERTEX
  5
17F
  8
LAYER_1
 10
89.86111240728637
 20
5.626179158453851
 30
0.0
  0
VERTEX
  5
180
  8
LAYER_1
 10
89.89221040728637
 20
5.633462158453852
 30
0.0
  0
VERTEX
  5
181
  8
LAYER_1
 10
89.92318140728638
 20
5.641353158453853
 30
0.0
  0
VERTEX
  5
182
  8
LAYER_1
 10
89.95402640728638
 20
5.64984815845385
 30
0.0
  0
VERTEX
  5
183
  8
LAYER_1
 10
89.98474040728637
 20
5.658945158453847
 30
0.0
  0
VERTEX
  5
184
  8
LAYER_1
 10
90.01532140728638
 20
5.668638158453845
 30
0.0
  0
VERTEX
  5
185
  8
LAYER_1
 10
90.04576840728636
 20
5.67892515845385
 30
0.0
  0
VERTEX
  5
186
  8
LAYER_1
 10
90.07607740728638
 20
5.689801158453847
 30
0.0
  0
VERTEX
  5
187
  8
LAYER_1
 10
90.10624640728638
 20
5.701261158453846
 30
0.0
  0
VERTEX
  5
188
  8
LAYER_1
 10
90.13627340728637
 20
5.713303158453854
 30
0.0
  0
VERTEX
  5
189
  8
LAYER_1
 10
90.16615540728638
 20
5.725922158453855
 30
0.0
  0
VERTEX
  5
18A
  8
LAYER_1
 10
90.19589040728637
 20
5.739115158453856
 30
0.0
  0
VERTEX
  5
18B
  8
LAYER_1
 10
90.22547540728637
 20
5.752877158453856
 30
0.0
  0
VERTEX
  5
18C
  8
LAYER_1
 10
90.25490840728638
 20
5.767205158453848
 30
0.0
  0
VERTEX
  5
18D
  8
LAYER_1
 10
90.28418640728638
 20
5.782094158453845
 30
0.0
  0
VERTEX
  5
18E
  8
LAYER_1
 10
90.31330740728637
 20
5.797541158453853
 30
0.0
  0
VERTEX
  5
18F
  8
LAYER_1
 10
90.34226940728637
 20
5.813541158453845
 30
0.0
  0
VERTEX
  5
190
  8
LAYER_1
 10
90.37106840728637
 20
5.830092158453851
 30
0.0
  0
VERTEX
  5
191
  8
LAYER_1
 10
90.39970340728637
 20
5.847188158453847
 30
0.0
  0
VERTEX
  5
192
  8
LAYER_1
 10
90.42817140728637
 20
5.864826158453852
 30
0.0
  0
VERTEX
  5
193
  8
LAYER_1
 10
90.45647040728637
 20
5.883002158453849
 30
0.0
  0
VERTEX
  5
194
  8
LAYER_1
 10
90.48459740728637
 20
5.901712158453847
 30
0.0
  0
VERTEX
  5
195
  8
LAYER_1
 10
90.51255040728638
 20
5.920953158453855
 30
0.0
  0
VERTEX
  5
196
  8
LAYER_1
 10
90.54032640728637
 20
5.940720158453857
 30
0.0
  0
VERTEX
  5
197
  8
LAYER_1
 10
90.56792240728636
 20
5.961009158453848
 30
0.0
  0
VERTEX
  5
198
  8
LAYER_1
 10
90.59533840728638
 20
5.981816158453853
 30
0.0
  0
VERTEX
  5
199
  8
LAYER_1
 10
90.62256940728638
 20
6.003138158453851
 30
0.0
  0
VERTEX
  5
19A
  8
LAYER_1
 10
90.64961340728637
 20
6.024970158453854
 30
0.0
  0
VERTEX
  5
19B
  8
LAYER_1
 10
90.67646940728638
 20
6.047309158453857
 30
0.0
  0
VERTEX
  5
19C
  8
LAYER_1
 10
90.70313340728637
 20
6.070151158453854
 30
0.0
  0
VERTEX
  5
19D
  8
LAYER_1
 10
90.72960340728638
 20
6.093492158453856
 30
0.0
  0
VERTEX
  5
19E
  8
LAYER_1
 10
90.75587740728638
 20
6.117327158453847
 30
0.0
  0
VERTEX
  5
19F
  8
LAYER_1
 10
90.78195140728637
 20
6.141653158453849
 30
0.0
  0
VERTEX
  5
1A0
  8
LAYER_1
 10
90.80782540728637
 20
6.166466158453844
 30
0.0
  0
VERTEX
  5
1A1
  8
LAYER_1
 10
90.83349540728638
 20
6.191762158453855
 30
0.0
  0
VERTEX
  5
1A2
  8
LAYER_1
 10
90.85895940728638
 20
6.217538158453848
 30
0.0
  0
VERTEX
  5
1A3
  8
LAYER_1
 10
90.88421440728636
 20
6.243788158453853
 30
0.0
  0
VERTEX
  5
1A4
  8
LAYER_1
 10
90.90925840728637
 20
6.270510158453845
 30
0.0
  0
VERTEX
  5
1A5
  8
LAYER_1
 10
90.93408840728638
 20
6.297699158453852
 30
0.0
  0
VERTEX
  5
1A6
  8
LAYER_1
 10
90.95870340728636
 20
6.325351158453856
 30
0.0
  0
VERTEX
  5
1A7
  8
LAYER_1
 10
90.98309940728636
 20
6.353463158453849
 30
0.0
  0
VERTEX
  5
1A8
  8
LAYER_1
 10
91.00727440728637
 20
6.382031158453856
 30
0.0
  0
VERTEX
  5
1A9
  8
LAYER_1
 10
91.03122640728638
 20
6.411050158453847
 30
0.0
  0
VERTEX
  5
1AA
  8
LAYER_1
 10
91.05495240728636
 20
6.440517158453844
 30
0.0
  0
VERTEX
  5
1AB
  8
LAYER_1
 10
91.07844940728637
 20
6.470428158453856
 30
0.0
  0
VERTEX
  5
1AC
  8
LAYER_1
 10
91.10171640728636
 20
6.500778158453855
 30
0.0
  0
VERTEX
  5
1AD
  8
LAYER_1
 10
91.12475040728637
 20
6.531565158453844
 30
0.0
  0
VERTEX
  5
1AE
  8
LAYER_1
 10
91.14754840728638
 20
6.562783158453854
 30
0.0
  0
VERTEX
  5
1AF
  8
LAYER_1
 10
91.17010840728638
 20
6.594430158453847
 30
0.0
  0
VERTEX
  5
1B0
  8
LAYER_1
 10
91.19242840728637
 20
6.626500158453851
 30
0.0
  0
VERTEX
  5
1B1
  8
LAYER_1
 10
91.21450440728638
 20
6.658991158453844
 30
0.0
  0
VERTEX
  5
1B2
  8
LAYER_1
 10
91.23633540728638
 20
6.691898158453853
 30
0.0
  0
VERTEX
  5
1B3
  8
LAYER_1
 10
91.25791840728637
 20
6.725218158453856
 30
0.0
  0
VERTEX
  5
1B4
  8
LAYER_1
 10
91.27925140728637
 20
6.758946158453853
 30
0.0
  0
VERTEX
  5
1B5
  8
LAYER_1
 10
91.30033140728638
 20
6.793078158453852
 30
0.0
  0
VERTEX
  5
1B6
  8
LAYER_1
 10
91.32115640728638
 20
6.827611158453848
 30
0.0
  0
VERTEX
  5
1B7
  8
LAYER_1
 10
91.34172340728638
 20
6.862541158453851
 30
0.0
  0
VERTEX
  5
1B8
  8
LAYER_1
 10
91.36203040728638
 20
6.897863158453845
 30
0.0
  0
VERTEX
  5
1B9
  8
LAYER_1
 10
91.38207440728637
 20
6.933574158453851
 30
0.0
  0
VERTEX
  5
1BA
  8
LAYER_1
 10
91.40185340728637
 20
6.969670158453852
 30
0.0
  0
VERTEX
  5
1BB
  8
LAYER_1
 10
91.42136440728636
 20
7.006147158453857
 30
0.0
  0
VERTEX
  5
1BC
  8
LAYER_1
 10
91.44060640728638
 20
7.043001158453848
 30
0.0
  0
VERTEX
  5
1BD
  8
LAYER_1
 10
91.45957540728638
 20
7.080228158453849
 30
0.0
  0
VERTEX
  5
1BE
  8
LAYER_1
 10
91.47826940728636
 20
7.117825158453854
 30
0.0
  0
VERTEX
  5
1BF
  8
LAYER_1
 10
91.49668640728636
 20
7.15578615845385
 30
0.0
  0
VERTEX
  5
1C0
  8
LAYER_1
 10
91.51482340728637
 20
7.194109158453855
 30
0.0
  0
VERTEX
  5
1C1
  8
LAYER_1
 10
91.53267740728637
 20
7.232789158453855
 30
0.0
  0
VERTEX
  5
1C2
  8
LAYER_1
 10
91.55024740728636
 20
7.271823158453856
 30
0.0
  0
VERTEX
  5
1C3
  8
LAYER_1
 10
91.56753040728638
 20
7.311206158453857
 30
0.0
  0
VERTEX
  5
1C4
  8
LAYER_1
 10
91.58452340728637
 20
7.350935158453851
 30
0.0
  0
VERTEX
  5
1C5
  8
LAYER_1
 10
91.60122540728638
 20
7.391005158453851
 30
0.0
  0
VERTEX
  5
1C6
  8
LAYER_1
 10
91.61763140728637
 20
7.43141315845385
 30
0.0
  0
VERTEX
  5
1C7
  8
LAYER_1
 10
91.63374140728637
 20
7.472155158453845
 30
0.0
  0
VERTEX
  5
1C8
  8
LAYER_1
 10
91.64955140728638
 20
7.513227158453844
 30
0.0
  0
VERTEX
  5
1C9
  8
LAYER_1
 10
91.66505940728636
 20
7.554625158453845
 30
0.0
  0
VERTEX
  5
1CA
  8
LAYER_1
 10
91.68026340728638
 20
7.596345158453857
 30
0.0
  0
VERTEX
  5
1CB
  8
LAYER_1
 10
91.69516040728637
 20
7.638383158453848
 30
0.0
  0
VERTEX
  5
1CC
  8
LAYER_1
 10
91.70974840728637
 20
7.680735158453857
 30
0.0
  0
VERTEX
  5
1CD
  8
LAYER_1
 10
91.72402440728636
 20
7.723398158453847
 30
0.0
  0
VERTEX
  5
1CE
  8
LAYER_1
 10
91.73798640728637
 20
7.766366158453849
 30
0.0
  0
VERTEX
  5
1CF
  8
LAYER_1
 10
91.75163140728638
 20
7.809638158453851
 30
0.0
  0
VERTEX
  5
1D0
  8
LAYER_1
 10
91.76495740728636
 20
7.853207158453856
 30
0.0
  0
VERTEX
  5
1D1
  8
LAYER_1
 10
91.77796240728638
 20
7.897071158453855
 30
0.0
  0
VERTEX
  5
1D2
  8
LAYER_1
 10
91.79064240728637
 20
7.941226158453844
 30
0.0
  0
VERTEX
  5
1D3
  8
LAYER_1
 10
91.80299740728638
 20
7.985668158453848
 30
0.0
  0
VERTEX
  5
1D4
  8
LAYER_1
 10
91.81502240728638
 20
8.03039215845385
 30
0.0
  0
VERTEX
  5
1D5
  8
LAYER_1
 10
91.82671640728638
 20
8.075395158453844
 30
0.0
  0
VERTEX
  5
1D6
  8
LAYER_1
 10
91.83807640728638
 20
8.120673158453855
 30
0.0
  0
VERTEX
  5
1D7
  8
LAYER_1
 10
91.84910040728637
 20
8.166222158453849
 30
0.0
  0
VERTEX
  5
1D8
  8
LAYER_1
 10
91.85978540728637
 20
8.212039158453848
 30
0.0
  0
VERTEX
  5
1D9
  8
LAYER_1
 10
91.87012940728637
 20
8.258118158453854
 30
0.0
  0
VERTEX
  5
1DA
  8
LAYER_1
 10
91.88012940728636
 20
8.304456158453846
 30
0.0
  0
VERTEX
  5
1DB
  8
LAYER_1
 10
91.88978340728637
 20
8.351050158453845
 30
0.0
  0
VERTEX
  5
1DC
  8
LAYER_1
 10
91.89908940728638
 20
8.39789515845385
 30
0.0
  0
VERTEX
  5
1DD
  8
LAYER_1
 10
91.90804440728637
 20
8.444988158453853
 30
0.0
  0
VERTEX
  5
1DE
  8
LAYER_1
 10
91.91664540728637
 20
8.492324158453854
 30
0.0
  0
VERTEX
  5
1DF
  8
LAYER_1
 10
91.92489140728638
 20
8.53989915845385
 30
0.0
  0
VERTEX
  5
1E0
  8
LAYER_1
 10
91.93277840728636
 20
8.587710158453845
 30
0.0
  0
VERTEX
  5
1E1
  8
LAYER_1
 10
91.94030440728638
 20
8.635753158453852
 30
0.0
  0
VERTEX
  5
1E2
  8
LAYER_1
 10
91.94746740728637
 20
8.684024158453852
 30
0.0
  0
VERTEX
  5
1E3
  8
LAYER_1
 10
91.95426440728637
 20
8.732519158453854
 30
0.0
  0
VERTEX
  5
1E4
  8
LAYER_1
 10
91.96069340728637
 20
8.781233158453844
 30
0.0
  0
VERTEX
  5
1E5
  8
LAYER_1
 10
91.96675240728636
 20
8.830164158453854
 30
0.0
  0
VERTEX
  5
1E6
  8
LAYER_1
 10
91.97243740728636
 20
8.879306158453858
 30
0.0
  0
VERTEX
  5
1E7
  8
LAYER_1
 10
91.97774740728637
 20
8.928657158453845
 30
0.0
  0
VERTEX
  5
1E8
  8
LAYER_1
 10
91.98267940728637
 20
8.978212158453857
 30
0.0
  0
VERTEX
  5
1E9
  8
LAYER_1
 10
91.98723040728636
 20
9.027967158453848
 30
0.0
  0
VERTEX
  5
1EA
  8
LAYER_1
 10
91.99139840728638
 20
9.077919158453852
 30
0.0
  0
VERTEX
  5
1EB
  8
LAYER_1
 10
91.99518240728638
 20
9.128063158453855
 30
0.0
  0
VERTEX
  5
1EC
  8
LAYER_1
 10
91.99857740728636
 20
9.17839615845385
 30
0.0
  0
VERTEX
  5
1ED
  8
LAYER_1
 10
92.00158240728636
 20
9.22891315845385
 30
0.0
  0
VERTEX
  5
1EE
  8
LAYER_1
 10
92.00419440728636
 20
9.279611158453847
 30
0.0
  0
VERTEX
  5
1EF
  8
LAYER_1
 10
92.00641240728636
 20
9.330486158453851
 30
0.0
  0
VERTEX
  5
1F0
  8
LAYER_1
 10
92.00823140728637
 20
9.381533158453848
 30
0.0
  0
VERTEX
  5
1F1
  8
LAYER_1
 10
92.00965140728637
 20
9.432750158453857
 30
0.0
  0
VERTEX
  5
1F2
  8
LAYER_1
 10
92.01066840728636
 20
9.484131158453849
 30
0.0
  0
VERTEX
  5
1F3
  8
LAYER_1
 10
92.01128040728638
 20
9.535673158453847
 30
0.0
  0
VERTEX
  5
1F4
  8
LAYER_1
 10
92.01148440728637
 20
9.587373158453858
 30
0.0
  0
VERTEX
  5
1F5
  8
LAYER_1
 10
92.01128040728638
 20
9.639072158453857
 30
0.0
  0
VERTEX
  5
1F6
  8
LAYER_1
 10
92.01066840728636
 20
9.690614158453855
 30
0.0
  0
VERTEX
  5
1F7
  8
LAYER_1
 10
92.00965140728637
 20
9.741996158453844
 30
0.0
  0
VERTEX
  5
1F8
  8
LAYER_1
 10
92.00823140728637
 20
9.793212158453855
 30
0.0
  0
VERTEX
  5
1F9
  8
LAYER_1
 10
92.00641240728636
 20
9.84426015845385
 30
0.0
  0
VERTEX
  5
1FA
  8
LAYER_1
 10
92.00419440728636
 20
9.895134158453857
 30
0.0
  0
VERTEX
  5
1FB
  8
LAYER_1
 10
92.00158240728636
 20
9.945832158453854
 30
0.0
  0
VERTEX
  5
1FC
  8
LAYER_1
 10
91.99857740728636
 20
9.996349158453853
 30
0.0
  0
VERTEX
  5
1FD
  8
LAYER_1
 10
91.99518240728638
 20
10.04668215845385
 30
0.0
  0
VERTEX
  5
1FE
  8
LAYER_1
 10
91.99139840728638
 20
10.09682615845385
 30
0.0
  0
VERTEX
  5
1FF
  8
LAYER_1
 10
91.98723040728636
 20
10.14677815845386
 30
0.0
  0
VERTEX
  5
200
  8
LAYER_1
 10
91.98267940728637
 20
10.19653315845385
 30
0.0
  0
VERTEX
  5
201
  8
LAYER_1
 10
91.97774740728637
 20
10.24608815845384
 30
0.0
  0
VERTEX
  5
202
  8
LAYER_1
 10
91.97243740728636
 20
10.29543915845385
 30
0.0
  0
VERTEX
  5
203
  8
LAYER_1
 10
91.96675240728636
 20
10.34458215845385
 30
0.0
  0
VERTEX
  5
204
  8
LAYER_1
 10
91.96069340728637
 20
10.39351215845385
 30
0.0
  0
VERTEX
  5
205
  8
LAYER_1
 10
91.95426440728637
 20
10.44222715845385
 30
0.0
  0
VERTEX
  5
206
  8
LAYER_1
 10
91.94746740728637
 20
10.49072115845385
 30
0.0
  0
VERTEX
  5
207
  8
LAYER_1
 10
91.94030440728638
 20
10.53899215845385
 30
0.0
  0
VERTEX
  5
208
  8
LAYER_1
 10
91.93277840728636
 20
10.58703515845384
 30
0.0
  0
VERTEX
  5
209
  8
LAYER_1
 10
91.92489140728638
 20
10.63484615845385
 30
0.0
  0
VERTEX
  5
20A
  8
LAYER_1
 10
91.91664540728637
 20
10.68242215845385
 30
0.0
  0
VERTEX
  5
20B
  8
LAYER_1
 10
91.90804440728637
 20
10.72975815845385
 30
0.0
  0
VERTEX
  5
20C
  8
LAYER_1
 10
91.89908940728638
 20
10.77685015845385
 30
0.0
  0
VERTEX
  5
20D
  8
LAYER_1
 10
91.88978340728637
 20
10.82369515845384
 30
0.0
  0
VERTEX
  5
20E
  8
LAYER_1
 10
91.88012940728636
 20
10.87028915845386
 30
0.0
  0
VERTEX
  5
20F
  8
LAYER_1
 10
91.87012940728637
 20
10.91662815845385
 30
0.0
  0
VERTEX
  5
210
  8
LAYER_1
 10
91.85978540728637
 20
10.96270715845385
 30
0.0
  0
VERTEX
  5
211
  8
LAYER_1
 10
91.84910040728637
 20
11.00852315845385
 30
0.0
  0
VERTEX
  5
212
  8
LAYER_1
 10
91.83807640728638
 20
11.05407215845385
 30
0.0
  0
VERTEX
  5
213
  8
LAYER_1
 10
91.82671640728638
 20
11.09935015845384
 30
0.0
  0
VERTEX
  5
214
  8
LAYER_1
 10
91.81502240728638
 20
11.14435315845385
 30
0.0
  0
VERTEX
  5
215
  8
LAYER_1
 10
91.80299740728638
 20
11.18907715845386
 30
0.0
  0
VERTEX
  5
216
  8
LAYER_1
 10
91.79064240728637
 20
11.23351915845384
 30
0.0
  0
VERTEX
  5
217
  8
LAYER_1
 10
91.77796240728638
 20
11.27767415845385
 30
0.0
  0
VERTEX
  5
218
  8
LAYER_1
 10
91.76495740728636
 20
11.32153815845385
 30
0.0
  0
VERTEX
  5
219
  8
LAYER_1
 10
91.75163140728638
 20
11.36510815845385
 30
0.0
  0
VERTEX
  5
21A
  8
LAYER_1
 10
91.73798640728637
 20
11.40837915845385
 30
0.0
  0
VERTEX
  5
21B
  8
LAYER_1
 10
91.72402440728636
 20
11.45134815845385
 30
0.0
  0
VERTEX
  5
21C
  8
LAYER_1
 10
91.70974840728637
 20
11.49401015845385
 30
0.0
  0
VERTEX
  5
21D
  8
LAYER_1
 10
91.69516040728637
 20
11.53636215845385
 30
0.0
  0
VERTEX
  5
21E
  8
LAYER_1
 10
91.68026340728638
 20
11.57840015845385
 30
0.0
  0
VERTEX
  5
21F
  8
LAYER_1
 10
91.66505940728636
 20
11.62012015845384
 30
0.0
  0
VERTEX
  5
220
  8
LAYER_1
 10
91.64955140728638
 20
11.66151815845384
 30
0.0
  0
VERTEX
  5
221
  8
LAYER_1
 10
91.63374140728637
 20
11.70259015845384
 30
0.0
  0
VERTEX
  5
222
  8
LAYER_1
 10
91.61763140728637
 20
11.74333215845385
 30
0.0
  0
VERTEX
  5
223
  8
LAYER_1
 10
91.60122540728638
 20
11.78374015845385
 30
0.0
  0
VERTEX
  5
224
  8
LAYER_1
 10
91.58452340728637
 20
11.82381115845385
 30
0.0
  0
VERTEX
  5
225
  8
LAYER_1
 10
91.56753040728638
 20
11.86353915845385
 30
0.0
  0
VERTEX
  5
226
  8
LAYER_1
 10
91.55024740728636
 20
11.90292315845385
 30
0.0
  0
VERTEX
  5
227
  8
LAYER_1
 10
91.53267740728637
 20
11.94195615845385
 30
0.0
  0
VERTEX
  5
228
  8
LAYER_1
 10
91.51482340728637
 20
11.98063615845385
 30
0.0
  0
VERTEX
  5
229
  8
LAYER_1
 10
91.49668640728636
 20
12.01895915845385
 30
0.0
  0
VERTEX
  5
22A
  8
LAYER_1
 10
91.47826940728636
 20
12.05692115845385
 30
0.0
  0
VERTEX
  5
22B
  8
LAYER_1
 10
91.45957540728638
 20
12.09451715845385
 30
0.0
  0
VERTEX
  5
22C
  8
LAYER_1
 10
91.44060640728638
 20
12.13174415845386
 30
0.0
  0
VERTEX
  5
22D
  8
LAYER_1
 10
91.42136440728636
 20
12.16859815845385
 30
0.0
  0
VERTEX
  5
22E
  8
LAYER_1
 10
91.40185340728637
 20
12.20507515845385
 30
0.0
  0
VERTEX
  5
22F
  8
LAYER_1
 10
91.38207440728637
 20
12.24117115845385
 30
0.0
  0
VERTEX
  5
230
  8
LAYER_1
 10
91.36203040728638
 20
12.27688215845384
 30
0.0
  0
VERTEX
  5
231
  8
LAYER_1
 10
91.34172340728638
 20
12.31220515845385
 30
0.0
  0
VERTEX
  5
232
  8
LAYER_1
 10
91.32115640728638
 20
12.34713415845385
 30
0.0
  0
VERTEX
  5
233
  8
LAYER_1
 10
91.30033140728638
 20
12.38166715845385
 30
0.0
  0
VERTEX
  5
234
  8
LAYER_1
 10
91.27925140728637
 20
12.41580015845385
 30
0.0
  0
VERTEX
  5
235
  8
LAYER_1
 10
91.25791840728637
 20
12.44952815845384
 30
0.0
  0
VERTEX
  5
236
  8
LAYER_1
 10
91.23633540728638
 20
12.48284715845385
 30
0.0
  0
VERTEX
  5
237
  8
LAYER_1
 10
91.21450440728638
 20
12.51575415845384
 30
0.0
  0
VERTEX
  5
238
  8
LAYER_1
 10
91.19242840728637
 20
12.54824515845385
 30
0.0
  0
VERTEX
  5
239
  8
LAYER_1
 10
91.17010840728638
 20
12.58031615845385
 30
0.0
  0
VERTEX
  5
23A
  8
LAYER_1
 10
91.14754840728638
 20
12.61196215845385
 30
0.0
  0
VERTEX
  5
23B
  8
LAYER_1
 10
91.12475040728637
 20
12.64318115845386
 30
0.0
  0
VERTEX
  5
23C
  8
LAYER_1
 10
91.10171640728636
 20
12.67396715845385
 30
0.0
  0
VERTEX
  5
23D
  8
LAYER_1
 10
91.07844940728637
 20
12.70431815845384
 30
0.0
  0
VERTEX
  5
23E
  8
LAYER_1
 10
91.05495240728636
 20
12.73422815845385
 30
0.0
  0
VERTEX
  5
23F
  8
LAYER_1
 10
91.03122640728638
 20
12.76369515845386
 30
0.0
  0
VERTEX
  5
240
  8
LAYER_1
 10
91.00727440728637
 20
12.79271415845385
 30
0.0
  0
VERTEX
  5
241
  8
LAYER_1
 10
90.98309940728636
 20
12.82128215845385
 30
0.0
  0
VERTEX
  5
242
  8
LAYER_1
 10
90.95870340728636
 20
12.84939415845385
 30
0.0
  0
VERTEX
  5
243
  8
LAYER_1
 10
90.93408840728638
 20
12.87704615845385
 30
0.0
  0
VERTEX
  5
244
  8
LAYER_1
 10
90.90925840728637
 20
12.90423515845384
 30
0.0
  0
VERTEX
  5
245
  8
LAYER_1
 10
90.88421440728636
 20
12.93095715845385
 30
0.0
  0
VERTEX
  5
246
  8
LAYER_1
 10
90.85895940728638
 20
12.95720815845385
 30
0.0
  0
VERTEX
  5
247
  8
LAYER_1
 10
90.83349540728638
 20
12.98298315845385
 30
0.0
  0
VERTEX
  5
248
  8
LAYER_1
 10
90.80782540728637
 20
13.00827915845385
 30
0.0
  0
VERTEX
  5
249
  8
LAYER_1
 10
90.78195140728637
 20
13.03309215845385
 30
0.0
  0
VERTEX
  5
24A
  8
LAYER_1
 10
90.75587740728638
 20
13.05741915845385
 30
0.0
  0
VERTEX
  5
24B
  8
LAYER_1
 10
90.72960340728638
 20
13.08125415845385
 30
0.0
  0
VERTEX
  5
24C
  8
LAYER_1
 10
90.70313340728637
 20
13.10459415845385
 30
0.0
  0
VERTEX
  5
24D
  8
LAYER_1
 10
90.67646940728638
 20
13.12743615845385
 30
0.0
  0
VERTEX
  5
24E
  8
LAYER_1
 10
90.64961340728637
 20
13.14977515845385
 30
0.0
  0
VERTEX
  5
24F
  8
LAYER_1
 10
90.62256940728638
 20
13.17160715845385
 30
0.0
  0
VERTEX
  5
250
  8
LAYER_1
 10
90.59533840728638
 20
13.19292915845385
 30
0.0
  0
VERTEX
  5
251
  8
LAYER_1
 10
90.56792240728636
 20
13.21373715845385
 30
0.0
  0
VERTEX
  5
252
  8
LAYER_1
 10
90.54032640728637
 20
13.23402615845384
 30
0.0
  0
VERTEX
  5
253
  8
LAYER_1
 10
90.51255040728638
 20
13.25379215845385
 30
0.0
  0
VERTEX
  5
254
  8
LAYER_1
 10
90.48459740728637
 20
13.27303315845386
 30
0.0
  0
VERTEX
  5
255
  8
LAYER_1
 10
90.45647040728637
 20
13.29174315845385
 30
0.0
  0
VERTEX
  5
256
  8
LAYER_1
 10
90.42817140728637
 20
13.30991915845385
 30
0.0
  0
VERTEX
  5
257
  8
LAYER_1
 10
90.39970340728637
 20
13.32755715845386
 30
0.0
  0
VERTEX
  5
258
  8
LAYER_1
 10
90.37106840728637
 20
13.34465415845385
 30
0.0
  0
VERTEX
  5
259
  8
LAYER_1
 10
90.34226940728637
 20
13.36120415845384
 30
0.0
  0
VERTEX
  5
25A
  8
LAYER_1
 10
90.31330740728637
 20
13.37720515845385
 30
0.0
  0
VERTEX
  5
25B
  8
LAYER_1
 10
90.28418640728638
 20
13.39265115845384
 30
0.0
  0
VERTEX
  5
25C
  8
LAYER_1
 10
90.25490840728638
 20
13.40754115845385
 30
0.0
  0
VERTEX
  5
25D
  8
LAYER_1
 10
90.22547540728637
 20
13.42186815845385
 30
0.0
  0
VERTEX
  5
25E
  8
LAYER_1
 10
90.19589040728637
 20
13.43563015845385
 30
0.0
  0
VERTEX
  5
25F
  8
LAYER_1
 10
90.16615540728638
 20
13.44882315845385
 30
0.0
  0
VERTEX
  5
260
  8
LAYER_1
 10
90.13627340728637
 20
13.46144215845385
 30
0.0
  0
VERTEX
  5
261
  8
LAYER_1
 10
90.10624640728638
 20
13.47348415845386
 30
0.0
  0
VERTEX
  5
262
  8
LAYER_1
 10
90.07607740728638
 20
13.48494515845385
 30
0.0
  0
VERTEX
  5
263
  8
LAYER_1
 10
90.04576840728636
 20
13.49582015845385
 30
0.0
  0
VERTEX
  5
264
  8
LAYER_1
 10
90.01532140728638
 20
13.50610715845384
 30
0.0
  0
VERTEX
  5
265
  8
LAYER_1
 10
89.98474040728637
 20
13.51580015845386
 30
0.0
  0
VERTEX
  5
266
  8
LAYER_1
 10
89.95402640728638
 20
13.52489715845385
 30
0.0
  0
VERTEX
  5
267
  8
LAYER_1
 10
89.92318140728638
 20
13.53339315845385
 30
0.0
  0
VERTEX
  5
268
  8
LAYER_1
 10
89.89221040728637
 20
13.54128415845385
 30
0.0
  0
VERTEX
  5
269
  8
LAYER_1
 10
89.86111240728637
 20
13.54856615845385
 30
0.0
  0
VERTEX
  5
26A
  8
LAYER_1
 10
89.82989340728638
 20
13.55523615845385
 30
0.0
  0
VERTEX
  5
26B
  8
LAYER_1
 10
89.79855340728638
 20
13.56128915845385
 30
0.0
  0
VERTEX
  5
26C
  8
LAYER_1
 10
89.76709540728636
 20
13.56672115845384
 30
0.0
  0
VERTEX
  5
26D
  8
LAYER_1
 10
89.73552140728637
 20
13.57152915845386
 30
0.0
  0
VERTEX
  5
26E
  8
LAYER_1
 10
89.70383540728638
 20
13.57570915845385
 30
0.0
  0
VERTEX
  5
26F
  8
LAYER_1
 10
89.67203940728636
 20
13.57925715845386
 30
0.0
  0
VERTEX
  5
270
  8
LAYER_1
 10
89.64013440728637
 20
13.58216815845385
 30
0.0
  0
VERTEX
  5
271
  8
LAYER_1
 10
89.60812440728638
 20
13.58443915845385
 30
0.0
  0
VERTEX
  5
272
  8
LAYER_1
 10
89.57601040728638
 20
13.58606615845385
 30
0.0
  0
VERTEX
  5
273
  8
LAYER_1
 10
89.54379640728637
 20
13.58704515845385
 30
0.0
  0
VERTEX
  5
274
  8
LAYER_1
 10
89.51148440728637
 20
13.58737315845386
 30
0.0
  0
VERTEX
  5
275
  8
LAYER_1
 10
89.47917240728637
 20
13.58704515845385
 30
0.0
  0
VERTEX
  5
276
  8
LAYER_1
 10
89.44695840728637
 20
13.58606615845385
 30
0.0
  0
VERTEX
  5
277
  8
LAYER_1
 10
89.41484540728636
 20
13.58443915845385
 30
0.0
  0
VERTEX
  5
278
  8
LAYER_1
 10
89.38283540728638
 20
13.58216815845385
 30
0.0
  0
VERTEX
  5
279
  8
LAYER_1
 10
89.35093040728637
 20
13.57925715845386
 30
0.0
  0
VERTEX
  5
27A
  8
LAYER_1
 10
89.31913340728637
 20
13.57570915845385
 30
0.0
  0
VERTEX
  5
27B
  8
LAYER_1
 10
89.28744740728636
 20
13.57152915845386
 30
0.0
  0
VERTEX
  5
27C
  8
LAYER_1
 10
89.25587440728637
 20
13.56672115845384
 30
0.0
  0
VERTEX
  5
27D
  8
LAYER_1
 10
89.22441640728637
 20
13.56128915845385
 30
0.0
  0
VERTEX
  5
27E
  8
LAYER_1
 10
89.19307640728637
 20
13.55523615845385
 30
0.0
  0
VERTEX
  5
27F
  8
LAYER_1
 10
89.16185640728638
 20
13.54856615845385
 30
0.0
  0
VERTEX
  5
280
  8
LAYER_1
 10
89.13075940728636
 20
13.54128415845385
 30
0.0
  0
VERTEX
  5
281
  8
LAYER_1
 10
89.09978740728637
 20
13.53339315845385
 30
0.0
  0
VERTEX
  5
282
  8
LAYER_1
 10
89.06894340728637
 20
13.52489715845385
 30
0.0
  0
VERTEX
  5
283
  8
LAYER_1
 10
89.03822940728638
 20
13.51580015845386
 30
0.0
  0
VERTEX
  5
284
  8
LAYER_1
 10
89.00764740728637
 20
13.50610715845384
 30
0.0
  0
VERTEX
  5
285
  8
LAYER_1
 10
88.97720040728636
 20
13.49582015845385
 30
0.0
  0
VERTEX
  5
286
  8
LAYER_1
 10
88.94689140728637
 20
13.48494515845385
 30
0.0
  0
VERTEX
  5
287
  8
LAYER_1
 10
88.91672240728637
 20
13.47348415845386
 30
0.0
  0
VERTEX
  5
288
  8
LAYER_1
 10
88.88669540728638
 20
13.46144215845385
 30
0.0
  0
VERTEX
  5
289
  8
LAYER_1
 10
88.85681340728637
 20
13.44882315845385
 30
0.0
  0
VERTEX
  5
28A
  8
LAYER_1
 10
88.82707940728638
 20
13.43563015845385
 30
0.0
  0
VERTEX
  5
28B
  8
LAYER_1
 10
88.79749440728638
 20
13.42186815845385
 30
0.0
  0
VERTEX
  5
28C
  8
LAYER_1
 10
88.76806140728637
 20
13.40754115845385
 30
0.0
  0
VERTEX
  5
28D
  8
LAYER_1
 10
88.73878340728636
 20
13.39265115845384
 30
0.0
  0
VERTEX
  5
28E
  8
LAYER_1
 10
88.70966140728636
 20
13.37720515845385
 30
0.0
  0
VERTEX
  5
28F
  8
LAYER_1
 10
88.68070040728638
 20
13.36120415845384
 30
0.0
  0
VERTEX
  5
290
  8
LAYER_1
 10
88.65190040728636
 20
13.34465415845385
 30
0.0
  0
VERTEX
  5
291
  8
LAYER_1
 10
88.62326540728638
 20
13.32755715845386
 30
0.0
  0
VERTEX
  5
292
  8
LAYER_1
 10
88.59479740728638
 20
13.30991915845385
 30
0.0
  0
VERTEX
  5
293
  8
LAYER_1
 10
88.56649840728637
 20
13.29174315845385
 30
0.0
  0
VERTEX
  5
294
  8
LAYER_1
 10
88.53837140728636
 20
13.27303315845386
 30
0.0
  0
VERTEX
  5
295
  8
LAYER_1
 10
88.51041940728636
 20
13.25379215845385
 30
0.0
  0
VERTEX
  5
296
  8
LAYER_1
 10
88.48264340728637
 20
13.23402615845384
 30
0.0
  0
VERTEX
  5
297
  8
LAYER_1
 10
88.45504640728637
 20
13.21373715845385
 30
0.0
  0
VERTEX
  5
298
  8
LAYER_1
 10
88.42763140728637
 20
13.19292915845385
 30
0.0
  0
VERTEX
  5
299
  8
LAYER_1
 10
88.40040040728637
 20
13.17160715845385
 30
0.0
  0
VERTEX
  5
29A
  8
LAYER_1
 10
88.37335540728638
 20
13.14977515845385
 30
0.0
  0
VERTEX
  5
29B
  8
LAYER_1
 10
88.34650040728637
 20
13.12743615845385
 30
0.0
  0
VERTEX
  5
29C
  8
LAYER_1
 10
88.31983640728637
 20
13.10459415845385
 30
0.0
  0
VERTEX
  5
29D
  8
LAYER_1
 10
88.29336640728637
 20
13.08125415845385
 30
0.0
  0
VERTEX
  5
29E
  8
LAYER_1
 10
88.26709240728637
 20
13.05741915845385
 30
0.0
  0
VERTEX
  5
29F
  8
LAYER_1
 10
88.24101740728638
 20
13.03309215845385
 30
0.0
  0
VERTEX
  5
2A0
  8
LAYER_1
 10
88.21514340728636
 20
13.00827915845385
 30
0.0
  0
VERTEX
  5
2A1
  8
LAYER_1
 10
88.18947340728637
 20
12.98298315845385
 30
0.0
  0
VERTEX
  5
2A2
  8
LAYER_1
 10
88.16401040728637
 20
12.95720815845385
 30
0.0
  0
VERTEX
  5
2A3
  8
LAYER_1
 10
88.13875440728637
 20
12.93095715845385
 30
0.0
  0
VERTEX
  5
2A4
  8
LAYER_1
 10
88.11371040728638
 20
12.90423515845384
 30
0.0
  0
VERTEX
  5
2A5
  8
LAYER_1
 10
88.08888040728637
 20
12.87704615845385
 30
0.0
  0
VERTEX
  5
2A6
  8
LAYER_1
 10
88.06426540728637
 20
12.84939415845385
 30
0.0
  0
VERTEX
  5
2A7
  8
LAYER_1
 10
88.03986940728637
 20
12.82128215845385
 30
0.0
  0
VERTEX
  5
2A8
  8
LAYER_1
 10
88.01569440728638
 20
12.79271415845385
 30
0.0
  0
VERTEX
  5
2A9
  8
LAYER_1
 10
87.99174340728636
 20
12.76369515845386
 30
0.0
  0
VERTEX
  5
2AA
  8
LAYER_1
 10
87.96801740728638
 20
12.73422815845385
 30
0.0
  0
VERTEX
  5
2AB
  8
LAYER_1
 10
87.94451940728636
 20
12.70431815845384
 30
0.0
  0
VERTEX
  5
2AC
  8
LAYER_1
 10
87.92125240728637
 20
12.67396715845385
 30
0.0
  0
VERTEX
  5
2AD
  8
LAYER_1
 10
87.89821840728636
 20
12.64318115845386
 30
0.0
  0
VERTEX
  5
2AE
  8
LAYER_1
 10
87.87542040728637
 20
12.61196215845385
 30
0.0
  0
VERTEX
  5
2AF
  8
LAYER_1
 10
87.85286040728637
 20
12.58031615845385
 30
0.0
  0
VERTEX
  5
2B0
  8
LAYER_1
 10
87.83054140728636
 20
12.54824515845385
 30
0.0
  0
VERTEX
  5
2B1
  8
LAYER_1
 10
87.80846440728637
 20
12.51575415845384
 30
0.0
  0
VERTEX
  5
2B2
  8
LAYER_1
 10
87.78663340728637
 20
12.48284715845385
 30
0.0
  0
VERTEX
  5
2B3
  8
LAYER_1
 10
87.76505040728638
 20
12.44952815845384
 30
0.0
  0
VERTEX
  5
2B4
  8
LAYER_1
 10
87.74371740728638
 20
12.41580015845385
 30
0.0
  0
VERTEX
  5
2B5
  8
LAYER_1
 10
87.72263740728637
 20
12.38166715845385
 30
0.0
  0
VERTEX
  5
2B6
  8
LAYER_1
 10
87.70181340728637
 20
12.34713415845385
 30
0.0
  0
VERTEX
  5
2B7
  8
LAYER_1
 10
87.68124640728637
 20
12.31220515845385
 30
0.0
  0
VERTEX
  5
2B8
  8
LAYER_1
 10
87.66093940728636
 20
12.27688215845384
 30
0.0
  0
VERTEX
  5
2B9
  8
LAYER_1
 10
87.64089540728638
 20
12.24117115845385
 30
0.0
  0
VERTEX
  5
2BA
  8
LAYER_1
 10
87.62111640728638
 20
12.20507515845385
 30
0.0
  0
VERTEX
  5
2BB
  8
LAYER_1
 10
87.60160440728637
 20
12.16859815845385
 30
0.0
  0
VERTEX
  5
2BC
  8
LAYER_1
 10
87.58236340728637
 20
12.13174415845386
 30
0.0
  0
VERTEX
  5
2BD
  8
LAYER_1
 10
87.56339440728637
 20
12.09451715845385
 30
0.0
  0
VERTEX
  5
2BE
  8
LAYER_1
 10
87.54469940728637
 20
12.05692115845385
 30
0.0
  0
VERTEX
  5
2BF
  8
LAYER_1
 10
87.52628340728637
 20
12.01895915845385
 30
0.0
  0
VERTEX
  5
2C0
  8
LAYER_1
 10
87.50814640728636
 20
11.98063615845385
 30
0.0
  0
VERTEX
  5
2C1
  8
LAYER_1
 10
87.49029140728636
 20
11.94195615845385
 30
0.0
  0
VERTEX
  5
2C2
  8
LAYER_1
 10
87.47272140728637
 20
11.90292315845385
 30
0.0
  0
VERTEX
  5
2C3
  8
LAYER_1
 10
87.45543840728637
 20
11.86353915845385
 30
0.0
  0
VERTEX
  5
2C4
  8
LAYER_1
 10
87.43844540728638
 20
11.82381115845385
 30
0.0
  0
VERTEX
  5
2C5
  8
LAYER_1
 10
87.42174440728637
 20
11.78374015845385
 30
0.0
  0
VERTEX
  5
2C6
  8
LAYER_1
 10
87.40533740728638
 20
11.74333215845385
 30
0.0
  0
VERTEX
  5
2C7
  8
LAYER_1
 10
87.38922840728638
 20
11.70259015845384
 30
0.0
  0
VERTEX
  5
2C8
  8
LAYER_1
 10
87.37341840728637
 20
11.66151815845384
 30
0.0
  0
VERTEX
  5
2C9
  8
LAYER_1
 10
87.35790940728637
 20
11.62012015845384
 30
0.0
  0
VERTEX
  5
2CA
  8
LAYER_1
 10
87.34270640728637
 20
11.57840015845385
 30
0.0
  0
VERTEX
  5
2CB
  8
LAYER_1
 10
87.32780840728638
 20
11.53636215845385
 30
0.0
  0
VERTEX
  5
2CC
  8
LAYER_1
 10
87.31322140728638
 20
11.49401015845385
 30
0.0
  0
VERTEX
  5
2CD
  8
LAYER_1
 10
87.29894540728638
 20
11.45134815845385
 30
0.0
  0
VERTEX
  5
2CE
  8
LAYER_1
 10
87.28498340728636
 20
11.40837915845385
 30
0.0
  0
VERTEX
  5
2CF
  8
LAYER_1
 10
87.27133840728636
 20
11.36510815845385
 30
0.0
  0
VERTEX
  5
2D0
  8
LAYER_1
 10
87.25801140728636
 20
11.32153815845385
 30
0.0
  0
VERTEX
  5
2D1
  8
LAYER_1
 10
87.24500740728637
 20
11.27767415845385
 30
0.0
  0
VERTEX
  5
2D2
  8
LAYER_1
 10
87.23232640728638
 20
11.23351915845384
 30
0.0
  0
VERTEX
  5
2D3
  8
LAYER_1
 10
87.21997240728636
 20
11.18907715845386
 30
0.0
  0
VERTEX
  5
2D4
  8
LAYER_1
 10
87.20794740728637
 20
11.14435315845385
 30
0.0
  0
VERTEX
  5
2D5
  8
LAYER_1
 10
87.19625340728636
 20
11.09935015845384
 30
0.0
  0
VERTEX
  5
2D6
  8
LAYER_1
 10
87.18489340728637
 20
11.05407215845385
 30
0.0
  0
VERTEX
  5
2D7
  8
LAYER_1
 10
87.17386940728638
 20
11.00852315845385
 30
0.0
  0
VERTEX
  5
2D8
  8
LAYER_1
 10
87.16318440728638
 20
10.96270715845385
 30
0.0
  0
VERTEX
  5
2D9
  8
LAYER_1
 10
87.15284040728638
 20
10.91662815845385
 30
0.0
  0
VERTEX
  5
2DA
  8
LAYER_1
 10
87.14283940728637
 20
10.87028915845386
 30
0.0
  0
VERTEX
  5
2DB
  8
LAYER_1
 10
87.13318540728638
 20
10.82369515845384
 30
0.0
  0
VERTEX
  5
2DC
  8
LAYER_1
 10
87.12387940728637
 20
10.77685015845385
 30
0.0
  0
VERTEX
  5
2DD
  8
LAYER_1
 10
87.11492540728638
 20
10.72975815845385
 30
0.0
  0
VERTEX
  5
2DE
  8
LAYER_1
 10
87.10632340728638
 20
10.68242215845385
 30
0.0
  0
VERTEX
  5
2DF
  8
LAYER_1
 10
87.09807840728637
 20
10.63484615845385
 30
0.0
  0
VERTEX
  5
2E0
  8
LAYER_1
 10
87.09019140728638
 20
10.58703515845384
 30
0.0
  0
VERTEX
  5
2E1
  8
LAYER_1
 10
87.08266540728637
 20
10.53899215845385
 30
0.0
  0
VERTEX
  5
2E2
  8
LAYER_1
 10
87.07550240728638
 20
10.49072115845385
 30
0.0
  0
VERTEX
  5
2E3
  8
LAYER_1
 10
87.06870440728638
 20
10.44222715845385
 30
0.0
  0
VERTEX
  5
2E4
  8
LAYER_1
 10
87.06227540728638
 20
10.39351215845385
 30
0.0
  0
VERTEX
  5
2E5
  8
LAYER_1
 10
87.05621740728638
 20
10.34458215845385
 30
0.0
  0
VERTEX
  5
2E6
  8
LAYER_1
 10
87.05053240728638
 20
10.29543915845385
 30
0.0
  0
VERTEX
  5
2E7
  8
LAYER_1
 10
87.04522240728637
 20
10.24608815845384
 30
0.0
  0
VERTEX
  5
2E8
  8
LAYER_1
 10
87.04029040728638
 20
10.19653315845385
 30
0.0
  0
VERTEX
  5
2E9
  8
LAYER_1
 10
87.03573840728637
 20
10.14677815845386
 30
0.0
  0
VERTEX
  5
2EA
  8
LAYER_1
 10
87.03157040728637
 20
10.09682615845385
 30
0.0
  0
VERTEX
  5
2EB
  8
LAYER_1
 10
87.02778740728637
 20
10.04668215845385
 30
0.0
  0
VERTEX
  5
2EC
  8
LAYER_1
 10
87.02439140728637
 20
9.996349158453853
 30
0.0
  0
VERTEX
  5
2ED
  8
LAYER_1
 10
87.02138640728637
 20
9.945832158453854
 30
0.0
  0
VERTEX
  5
2EE
  8
LAYER_1
 10
87.01877440728637
 20
9.895134158453857
 30
0.0
  0
VERTEX
  5
2EF
  8
LAYER_1
 10
87.01655740728637
 20
9.84426015845385
 30
0.0
  0
VERTEX
  5
2F0
  8
LAYER_1
 10
87.01473740728638
 20
9.793212158453855
 30
0.0
  0
VERTEX
  5
2F1
  8
LAYER_1
 10
87.01331840728638
 20
9.741996158453844
 30
0.0
  0
VERTEX
  5
2F2
  8
LAYER_1
 10
87.01230140728637
 20
9.690614158453855
 30
0.0
  0
VERTEX
  5
2F3
  8
LAYER_1
 10
87.01168940728637
 20
9.639072158453857
 30
0.0
  0
SEQEND
  5
7CB
  8
LAYER_1
  0
POLYLINE
  5
7D
  8
LAYER_1
 66
     1
 10
0.0
 20
0.0
 30
0.0
 70
     1
  0
VERTEX
  5
2F4
  8
LAYER_1
 10
77.22814040728638
 20
16.08856215845385
 30
0.0
  0
VERTEX
  5
2F5
  8
LAYER_1
 10
77.22834540728637
 20
16.03686315845385
 30
0.0
  0
VERTEX
  5
2F6
  8
LAYER_1
 10
77.22895740728637
 20
15.98532115845386
 30
0.0
  0
VERTEX
  5
2F7
  8
LAYER_1
 10
77.22997440728638
 20
15.93393915845385
 30
0.0
  0
VERTEX
  5
2F8
  8
LAYER_1
 10
77.23139340728638
 20
15.88272315845386
 30
0.0
  0
VERTEX
  5
2F9
  8
LAYER_1
 10
77.23321340728637
 20
15.83167515845385
 30
0.0
  0
VERTEX
  5
2FA
  8
LAYER_1
 10
77.23543040728637
 20
15.78080115845385
 30
0.0
  0
VERTEX
  5
2FB
  8
LAYER_1
 10
77.23804340728637
 20
15.73010315845386
 30
0.0
  0
VERTEX
  5
2FC
  8
LAYER_1
 10
77.24104840728637
 20
15.67958615845384
 30
0.0
  0
VERTEX
  5
2FD
  8
LAYER_1
 10
77.24444340728637
 20
15.62925315845385
 30
0.0
  0
VERTEX
  5
2FE
  8
LAYER_1
 10
77.24822640728637
 20
15.57910915845385
 30
0.0
  0
VERTEX
  5
2FF
  8
LAYER_1
 10
77.25239540728637
 20
15.52915715845386
 30
0.0
  0
VERTEX
  5
300
  8
LAYER_1
 10
77.25694640728638
 20
15.47940215845385
 30
0.0
  0
VERTEX
  5
301
  8
LAYER_1
 10
77.26187840728637
 20
15.42984715845385
 30
0.0
  0
VERTEX
  5
302
  8
LAYER_1
 10
77.26718840728637
 20
15.38049615845385
 30
0.0
  0
VERTEX
  5
303
  8
LAYER_1
 10
77.27287340728638
 20
15.33135315845385
 30
0.0
  0
VERTEX
  5
304
  8
LAYER_1
 10
77.27893240728638
 20
15.28242315845385
 30
0.0
  0
VERTEX
  5
305
  8
LAYER_1
 10
77.28536140728637
 20
15.23370815845385
 30
0.0
  0
VERTEX
  5
306
  8
LAYER_1
 10
77.29215840728638
 20
15.18521415845385
 30
0.0
  0
VERTEX
  5
307
  8
LAYER_1
 10
77.29932140728637
 20
15.13694315845385
 30
0.0
  0
VERTEX
  5
308
  8
LAYER_1
 10
77.30684740728637
 20
15.08890015845385
 30
0.0
  0
VERTEX
  5
309
  8
LAYER_1
 10
77.31473440728637
 20
15.04108915845386
 30
0.0
  0
VERTEX
  5
30A
  8
LAYER_1
 10
77.32297940728638
 20
14.99351315845385
 30
0.0
  0
VERTEX
  5
30B
  8
LAYER_1
 10
77.33158140728638
 20
14.94617715845385
 30
0.0
  0
VERTEX
  5
30C
  8
LAYER_1
 10
77.34053540728637
 20
14.89908515845386
 30
0.0
  0
VERTEX
  5
30D
  8
LAYER_1
 10
77.34984140728638
 20
14.85224015845385
 30
0.0
  0
VERTEX
  5
30E
  8
LAYER_1
 10
77.35949540728637
 20
14.80564615845385
 30
0.0
  0
VERTEX
  5
30F
  8
LAYER_1
 10
77.36949640728638
 20
14.75930715845385
 30
0.0
  0
VERTEX
  5
310
  8
LAYER_1
 10
77.37984040728638
 20
14.71322815845384
 30
0.0
  0
VERTEX
  5
311
  8
LAYER_1
 10
77.39052540728638
 20
14.66741215845386
 30
0.0
  0
VERTEX
  5
312
  8
LAYER_1
 10
77.40154940728637
 20
14.62186315845385
 30
0.0
  0
VERTEX
  5
313
  8
LAYER_1
 10
77.41290940728636
 20
14.57658515845385
 30
0.0
  0
VERTEX
  5
314
  8
LAYER_1
 10
77.42460340728637
 20
14.53158215845384
 30
0.0
  0
VERTEX
  5
315
  8
LAYER_1
 10
77.43662840728636
 20
14.48685815845386
 30
0.0
  0
VERTEX
  5
316
  8
LAYER_1
 10
77.44898240728638
 20
14.44241615845385
 30
0.0
  0
VERTEX
  5
317
  8
LAYER_1
 10
77.46166340728637
 20
14.39826115845385
 30
0.0
  0
VERTEX
  5
318
  8
LAYER_1
 10
77.47466840728637
 20
14.35439715845385
 30
0.0
  0
VERTEX
  5
319
  8
LAYER_1
 10
77.48799440728637
 20
14.31082715845385
 30
0.0
  0
VERTEX
  5
31A
  8
LAYER_1
 10
77.50163940728636
 20
14.26755615845386
 30
0.0
  0
VERTEX
  5
31B
  8
LAYER_1
 10
77.51560140728638
 20
14.22458715845386
 30
0.0
  0
VERTEX
  5
31C
  8
LAYER_1
 10
77.52987740728638
 20
14.18192515845385
 30
0.0
  0
VERTEX
  5
31D
  8
LAYER_1
 10
77.54446540728638
 20
14.13957315845386
 30
0.0
  0
VERTEX
  5
31E
  8
LAYER_1
 10
77.55936240728637
 20
14.09753515845385
 30
0.0
  0
VERTEX
  5
31F
  8
LAYER_1
 10
77.57456640728637
 20
14.05581515845385
 30
0.0
  0
VERTEX
  5
320
  8
LAYER_1
 10
77.59007440728637
 20
14.01441715845385
 30
0.0
  0
VERTEX
  5
321
  8
LAYER_1
 10
77.60588440728638
 20
13.97334515845385
 30
0.0
  0
VERTEX
  5
322
  8
LAYER_1
 10
77.62199440728638
 20
13.93260315845384
 30
0.0
  0
VERTEX
  5
323
  8
LAYER_1
 10
77.63840040728637
 20
13.89219515845384
 30
0.0
  0
VERTEX
  5
324
  8
LAYER_1
 10
77.65510140728638
 20
13.85212415845385
 30
0.0
  0
VERTEX
  5
325
  8
LAYER_1
 10
77.67209440728637
 20
13.81239615845385
 30
0.0
  0
VERTEX
  5
326
  8
LAYER_1
 10
77.68937740728637
 20
13.77301215845385
 30
0.0
  0
VERTEX
  5
327
  8
LAYER_1
 10
77.70694740728636
 20
13.73397915845385
 30
0.0
  0
VERTEX
  5
328
  8
LAYER_1
 10
77.72480240728636
 20
13.69529915845385
 30
0.0
  0
VERTEX
  5
329
  8
LAYER_1
 10
77.74293940728637
 20
13.65697615845384
 30
0.0
  0
VERTEX
  5
32A
  8
LAYER_1
 10
77.76135640728637
 20
13.61901415845385
 30
0.0
  0
VERTEX
  5
32B
  8
LAYER_1
 10
77.78005040728637
 20
13.58141815845386
 30
0.0
  0
VERTEX
  5
32C
  8
LAYER_1
 10
77.79901940728637
 20
13.54419115845386
 30
0.0
  0
VERTEX
  5
32D
  8
LAYER_1
 10
77.81826040728637
 20
13.50733715845385
 30
0.0
  0
VERTEX
  5
32E
  8
LAYER_1
 10
77.83777240728638
 20
13.47086015845385
 30
0.0
  0
VERTEX
  5
32F
  8
LAYER_1
 10
77.85755140728638
 20
13.43476415845385
 30
0.0
  0
VERTEX
  5
330
  8
LAYER_1
 10
77.87759540728636
 20
13.39905315845385
 30
0.0
  0
VERTEX
  5
331
  8
LAYER_1
 10
77.89790240728637
 20
13.36373015845385
 30
0.0
  0
VERTEX
  5
332
  8
LAYER_1
 10
77.91846940728637
 20
13.32880115845386
 30
0.0
  0
VERTEX
  5
333
  8
LAYER_1
 10
77.93929440728637
 20
13.29426815845385
 30
0.0
  0
VERTEX
  5
334
  8
LAYER_1
 10
77.96037340728638
 20
13.26013515845385
 30
0.0
  0
VERTEX
  5
335
  8
LAYER_1
 10
77.98170640728638
 20
13.22640715845385
 30
0.0
  0
VERTEX
  5
336
  8
LAYER_1
 10
78.00328940728637
 20
13.19308815845385
 30
0.0
  0
VERTEX
  5
337
  8
LAYER_1
 10
78.02512040728637
 20
13.16018115845385
 30
0.0
  0
VERTEX
  5
338
  8
LAYER_1
 10
78.04719740728636
 20
13.12769015845385
 30
0.0
  0
VERTEX
  5
339
  8
LAYER_1
 10
78.06951640728637
 20
13.09561915845386
 30
0.0
  0
VERTEX
  5
33A
  8
LAYER_1
 10
78.09207640728637
 20
13.06397315845385
 30
0.0
  0
VERTEX
  5
33B
  8
LAYER_1
 10
78.11487540728636
 20
13.03275415845386
 30
0.0
  0
VERTEX
  5
33C
  8
LAYER_1
 10
78.13790840728637
 20
13.00196815845385
 30
0.0
  0
VERTEX
  5
33D
  8
LAYER_1
 10
78.16117540728636
 20
12.97161715845385
 30
0.0
  0
VERTEX
  5
33E
  8
LAYER_1
 10
78.18467340728638
 20
12.94170715845385
 30
0.0
  0
VERTEX
  5
33F
  8
LAYER_1
 10
78.20839940728636
 20
12.91224015845386
 30
0.0
  0
VERTEX
  5
340
  8
LAYER_1
 10
78.23235140728637
 20
12.88322115845385
 30
0.0
  0
VERTEX
  5
341
  8
LAYER_1
 10
78.25652640728637
 20
12.85465315845386
 30
0.0
  0
VERTEX
  5
342
  8
LAYER_1
 10
78.28092240728638
 20
12.82654115845385
 30
0.0
  0
VERTEX
  5
343
  8
LAYER_1
 10
78.30553640728637
 20
12.79888915845385
 30
0.0
  0
VERTEX
  5
344
  8
LAYER_1
 10
78.33036740728637
 20
12.77170015845385
 30
0.0
  0
VERTEX
  5
345
  8
LAYER_1
 10
78.35541140728638
 20
12.74497815845385
 30
0.0
  0
VERTEX
  5
346
  8
LAYER_1
 10
78.38066640728637
 20
12.71872715845385
 30
0.0
  0
VERTEX
  5
347
  8
LAYER_1
 10
78.40613040728637
 20
12.69295215845385
 30
0.0
  0
VERTEX
  5
348
  8
LAYER_1
 10
78.43180040728637
 20
12.66765615845385
 30
0.0
  0
VERTEX
  5
349
  8
LAYER_1
 10
78.45767340728638
 20
12.64284315845386
 30
0.0
  0
VERTEX
  5
34A
  8
LAYER_1
 10
78.48374840728637
 20
12.61851715845386
 30
0.0
  0
VERTEX
  5
34B
  8
LAYER_1
 10
78.51002240728637
 20
12.59468115845385
 30
0.0
  0
VERTEX
  5
34C
  8
LAYER_1
 10
78.53649240728637
 20
12.57134115845385
 30
0.0
  0
VERTEX
  5
34D
  8
LAYER_1
 10
78.56315640728637
 20
12.54849915845385
 30
0.0
  0
VERTEX
  5
34E
  8
LAYER_1
 10
78.59001240728638
 20
12.52616015845385
 30
0.0
  0
VERTEX
  5
34F
  8
LAYER_1
 10
78.61705640728637
 20
12.50432815845384
 30
0.0
  0
VERTEX
  5
350
  8
LAYER_1
 10
78.64428740728637
 20
12.48300615845385
 30
0.0
  0
VERTEX
  5
351
  8
LAYER_1
 10
78.67170240728638
 20
12.46219815845384
 30
0.0
  0
VERTEX
  5
352
  8
LAYER_1
 10
78.69929940728638
 20
12.44190915845385
 30
0.0
  0
VERTEX
  5
353
  8
LAYER_1
 10
78.72707540728636
 20
12.42214315845385
 30
0.0
  0
VERTEX
  5
354
  8
LAYER_1
 10
78.75502840728637
 20
12.40290215845386
 30
0.0
  0
VERTEX
  5
355
  8
LAYER_1
 10
78.78315540728637
 20
12.38419215845386
 30
0.0
  0
VERTEX
  5
356
  8
LAYER_1
 10
78.81145340728638
 20
12.36601615845385
 30
0.0
  0
VERTEX
  5
357
  8
LAYER_1
 10
78.83992240728638
 20
12.34837815845385
 30
0.0
  0
VERTEX
  5
358
  8
LAYER_1
 10
78.86855740728637
 20
12.33128115845385
 30
0.0
  0
VERTEX
  5
359
  8
LAYER_1
 10
78.89735640728638
 20
12.31473115845385
 30
0.0
  0
VERTEX
  5
35A
  8
LAYER_1
 10
78.92631840728637
 20
12.29873015845385
 30
0.0
  0
VERTEX
  5
35B
  8
LAYER_1
 10
78.95543940728636
 20
12.28328415845385
 30
0.0
  0
VERTEX
  5
35C
  8
LAYER_1
 10
78.98471740728637
 20
12.26839415845384
 30
0.0
  0
VERTEX
  5
35D
  8
LAYER_1
 10
79.01415040728638
 20
12.25406715845385
 30
0.0
  0
VERTEX
  5
35E
  8
LAYER_1
 10
79.04373540728638
 20
12.24030515845385
 30
0.0
  0
VERTEX
  5
35F
  8
LAYER_1
 10
79.07346940728637
 20
12.22711215845385
 30
0.0
  0
VERTEX
  5
360
  8
LAYER_1
 10
79.10335140728638
 20
12.21449315845385
 30
0.0
  0
VERTEX
  5
361
  8
LAYER_1
 10
79.13337840728637
 20
12.20245115845385
 30
0.0
  0
VERTEX
  5
362
  8
LAYER_1
 10
79.16354840728637
 20
12.19099015845386
 30
0.0
  0
VERTEX
  5
363
  8
LAYER_1
 10
79.19385740728637
 20
12.18011515845384
 30
0.0
  0
VERTEX
  5
364
  8
LAYER_1
 10
79.22430340728637
 20
12.16982815845385
 30
0.0
  0
VERTEX
  5
365
  8
LAYER_1
 10
79.25488540728638
 20
12.16013515845385
 30
0.0
  0
VERTEX
  5
366
  8
LAYER_1
 10
79.28559940728637
 20
12.15103815845384
 30
0.0
  0
VERTEX
  5
367
  8
LAYER_1
 10
79.31644340728637
 20
12.14254215845385
 30
0.0
  0
VERTEX
  5
368
  8
LAYER_1
 10
79.34741540728636
 20
12.13465115845385
 30
0.0
  0
VERTEX
  5
369
  8
LAYER_1
 10
79.37851240728638
 20
12.12736915845385
 30
0.0
  0
VERTEX
  5
36A
  8
LAYER_1
 10
79.40973240728637
 20
12.12070015845386
 30
0.0
  0
VERTEX
  5
36B
  8
LAYER_1
 10
79.44107240728637
 20
12.11464615845385
 30
0.0
  0
VERTEX
  5
36C
  8
LAYER_1
 10
79.47253040728637
 20
12.10921415845385
 30
0.0
  0
VERTEX
  5
36D
  8
LAYER_1
 10
79.50410340728637
 20
12.10440615845386
 30
0.0
  0
VERTEX
  5
36E
  8
LAYER_1
 10
79.53578940728637
 20
12.10022615845385
 30
0.0
  0
VERTEX
  5
36F
  8
LAYER_1
 10
79.56758640728637
 20
12.09667815845386
 30
0.0
  0
VERTEX
  5
370
  8
LAYER_1
 10
79.59949140728638
 20
12.09376715845386
 30
0.0
  0
VERTEX
  5
371
  8
LAYER_1
 10
79.63150140728636
 20
12.09149615845385
 30
0.0
  0
VERTEX
  5
372
  8
LAYER_1
 10
79.66361440728637
 20
12.08986915845385
 30
0.0
  0
VERTEX
  5
373
  8
LAYER_1
 10
79.69582840728637
 20
12.08889015845385
 30
0.0
  0
VERTEX
  5
374
  8
LAYER_1
 10
79.72814040728638
 20
12.08856215845385
 30
0.0
  0
VERTEX
  5
375
  8
LAYER_1
 10
79.76045340728636
 20
12.08889015845385
 30
0.0
  0
VERTEX
  5
376
  8
LAYER_1
 10
79.79266740728637
 20
12.08986915845385
 30
0.0
  0
VERTEX
  5
377
  8
LAYER_1
 10
79.82478040728638
 20
12.09149615845385
 30
0.0
  0
VERTEX
  5
378
  8
LAYER_1
 10
79.85679040728637
 20
12.09376715845386
 30
0.0
  0
VERTEX
  5
379
  8
LAYER_1
 10
79.88869540728636
 20
12.09667815845386
 30
0.0
  0
VERTEX
  5
37A
  8
LAYER_1
 10
79.92049140728638
 20
12.10022615845385
 30
0.0
  0
VERTEX
  5
37B
  8
LAYER_1
 10
79.95217840728638
 20
12.10440615845386
 30
0.0
  0
VERTEX
  5
37C
  8
LAYER_1
 10
79.98375140728636
 20
12.10921415845385
 30
0.0
  0
VERTEX
  5
37D
  8
LAYER_1
 10
80.01520940728638
 20
12.11464615845385
 30
0.0
  0
VERTEX
  5
37E
  8
LAYER_1
 10
80.04654940728638
 20
12.12070015845386
 30
0.0
  0
VERTEX
  5
37F
  8
LAYER_1
 10
80.07776940728637
 20
12.12736915845385
 30
0.0
  0
VERTEX
  5
380
  8
LAYER_1
 10
80.10886640728637
 20
12.13465115845385
 30
0.0
  0
VERTEX
  5
381
  8
LAYER_1
 10
80.13983840728638
 20
12.14254215845385
 30
0.0
  0
VERTEX
  5
382
  8
LAYER_1
 10
80.17068240728638
 20
12.15103815845384
 30
0.0
  0
VERTEX
  5
383
  8
LAYER_1
 10
80.20139640728637
 20
12.16013515845385
 30
0.0
  0
VERTEX
  5
384
  8
LAYER_1
 10
80.23197840728638
 20
12.16982815845385
 30
0.0
  0
VERTEX
  5
385
  8
LAYER_1
 10
80.26242440728637
 20
12.18011515845384
 30
0.0
  0
VERTEX
  5
386
  8
LAYER_1
 10
80.29273340728638
 20
12.19099015845386
 30
0.0
  0
VERTEX
  5
387
  8
LAYER_1
 10
80.32290340728638
 20
12.20245115845385
 30
0.0
  0
VERTEX
  5
388
  8
LAYER_1
 10
80.35292940728637
 20
12.21449315845385
 30
0.0
  0
VERTEX
  5
389
  8
LAYER_1
 10
80.38281140728638
 20
12.22711215845385
 30
0.0
  0
VERTEX
  5
38A
  8
LAYER_1
 10
80.41254640728637
 20
12.24030515845385
 30
0.0
  0
VERTEX
  5
38B
  8
LAYER_1
 10
80.44213140728637
 20
12.25406715845385
 30
0.0
  0
VERTEX
  5
38C
  8
LAYER_1
 10
80.47156440728638
 20
12.26839415845384
 30
0.0
  0
VERTEX
  5
38D
  8
LAYER_1
 10
80.50084240728637
 20
12.28328415845385
 30
0.0
  0
VERTEX
  5
38E
  8
LAYER_1
 10
80.52996340728637
 20
12.29873015845385
 30
0.0
  0
VERTEX
  5
38F
  8
LAYER_1
 10
80.55892540728637
 20
12.31473115845385
 30
0.0
  0
VERTEX
  5
390
  8
LAYER_1
 10
80.58772440728637
 20
12.33128115845385
 30
0.0
  0
VERTEX
  5
391
  8
LAYER_1
 10
80.61635940728637
 20
12.34837815845385
 30
0.0
  0
VERTEX
  5
392
  8
LAYER_1
 10
80.64482840728637
 20
12.36601615845385
 30
0.0
  0
VERTEX
  5
393
  8
LAYER_1
 10
80.67312640728638
 20
12.38419215845386
 30
0.0
  0
VERTEX
  5
394
  8
LAYER_1
 10
80.70125340728637
 20
12.40290215845386
 30
0.0
  0
VERTEX
  5
395
  8
LAYER_1
 10
80.72920640728637
 20
12.42214315845385
 30
0.0
  0
VERTEX
  5
396
  8
LAYER_1
 10
80.75698240728637
 20
12.44190915845385
 30
0.0
  0
VERTEX
  5
397
  8
LAYER_1
 10
80.78457940728637
 20
12.46219815845384
 30
0.0
  0
VERTEX
  5
398
  8
LAYER_1
 10
80.81199440728638
 20
12.48300615845385
 30
0.0
  0
VERTEX
  5
399
  8
LAYER_1
 10
80.83922540728638
 20
12.50432815845384
 30
0.0
  0
VERTEX
  5
39A
  8
LAYER_1
 10
80.86626940728637
 20
12.52616015845385
 30
0.0
  0
VERTEX
  5
39B
  8
LAYER_1
 10
80.89312540728638
 20
12.54849915845385
 30
0.0
  0
VERTEX
  5
39C
  8
LAYER_1
 10
80.91978940728637
 20
12.57134115845385
 30
0.0
  0
VERTEX
  5
39D
  8
LAYER_1
 10
80.94625940728638
 20
12.59468115845385
 30
0.0
  0
VERTEX
  5
39E
  8
LAYER_1
 10
80.97253340728638
 20
12.61851715845386
 30
0.0
  0
VERTEX
  5
39F
  8
LAYER_1
 10
80.99860840728637
 20
12.64284315845386
 30
0.0
  0
VERTEX
  5
3A0
  8
LAYER_1
 10
81.02448140728637
 20
12.66765615845385
 30
0.0
  0
VERTEX
  5
3A1
  8
LAYER_1
 10
81.05015140728638
 20
12.69295215845385
 30
0.0
  0
VERTEX
  5
3A2
  8
LAYER_1
 10
81.07561540728638
 20
12.71872715845385
 30
0.0
  0
VERTEX
  5
3A3
  8
LAYER_1
 10
81.10087040728637
 20
12.74497815845385
 30
0.0
  0
VERTEX
  5
3A4
  8
LAYER_1
 10
81.12591440728637
 20
12.77170015845385
 30
0.0
  0
VERTEX
  5
3A5
  8
LAYER_1
 10
81.15074540728638
 20
12.79888915845385
 30
0.0
  0
VERTEX
  5
3A6
  8
LAYER_1
 10
81.17535940728636
 20
12.82654115845385
 30
0.0
  0
VERTEX
  5
3A7
  8
LAYER_1
 10
81.19975540728637
 20
12.85465315845386
 30
0.0
  0
VERTEX
  5
3A8
  8
LAYER_1
 10
81.22393040728637
 20
12.88322115845385
 30
0.0
  0
VERTEX
  5
3A9
  8
LAYER_1
 10
81.24788240728638
 20
12.91224015845386
 30
0.0
  0
VERTEX
  5
3AA
  8
LAYER_1
 10
81.27160840728637
 20
12.94170715845385
 30
0.0
  0
VERTEX
  5
3AB
  8
LAYER_1
 10
81.29510640728638
 20
12.97161715845385
 30
0.0
  0
VERTEX
  5
3AC
  8
LAYER_1
 10
81.31837340728637
 20
13.00196815845385
 30
0.0
  0
VERTEX
  5
3AD
  8
LAYER_1
 10
81.34140640728637
 20
13.03275415845386
 30
0.0
  0
VERTEX
  5
3AE
  8
LAYER_1
 10
81.36420440728638
 20
13.06397315845385
 30
0.0
  0
VERTEX
  5
3AF
  8
LAYER_1
 10
81.38676440728638
 20
13.09561915845386
 30
0.0
  0
VERTEX
  5
3B0
  8
LAYER_1
 10
81.40908440728637
 20
13.12769015845385
 30
0.0
  0
VERTEX
  5
3B1
  8
LAYER_1
 10
81.43116040728637
 20
13.16018115845385
 30
0.0
  0
VERTEX
  5
3B2
  8
LAYER_1
 10
81.45299240728637
 20
13.19308815845385
 30
0.0
  0
VERTEX
  5
3B3
  8
LAYER_1
 10
81.47457540728637
 20
13.22640715845385
 30
0.0
  0
VERTEX
  5
3B4
  8
LAYER_1
 10
81.49590740728637
 20
13.26013515845385
 30
0.0
  0
VERTEX
  5
3B5
  8
LAYER_1
 10
81.51698740728638
 20
13.29426815845385
 30
0.0
  0
VERTEX
  5
3B6
  8
LAYER_1
 10
81.53781240728638
 20
13.32880115845386
 30
0.0
  0
VERTEX
  5
3B7
  8
LAYER_1
 10
81.55837940728638
 20
13.36373015845385
 30
0.0
  0
VERTEX
  5
3B8
  8
LAYER_1
 10
81.57868640728637
 20
13.39905315845385
 30
0.0
  0
VERTEX
  5
3B9
  8
LAYER_1
 10
81.59873040728637
 20
13.43476415845385
 30
0.0
  0
VERTEX
  5
3BA
  8
LAYER_1
 10
81.61850940728637
 20
13.47086015845385
 30
0.0
  0
VERTEX
  5
3BB
  8
LAYER_1
 10
81.63802040728636
 20
13.50733715845385
 30
0.0
  0
VERTEX
  5
3BC
  8
LAYER_1
 10
81.65726240728638
 20
13.54419115845386
 30
0.0
  0
VERTEX
  5
3BD
  8
LAYER_1
 10
81.67623140728638
 20
13.58141815845386
 30
0.0
  0
VERTEX
  5
3BE
  8
LAYER_1
 10
81.69492540728636
 20
13.61901415845385
 30
0.0
  0
VERTEX
  5
3BF
  8
LAYER_1
 10
81.71334240728636
 20
13.65697615845384
 30
0.0
  0
VERTEX
  5
3C0
  8
LAYER_1
 10
81.73147940728637
 20
13.69529915845385
 30
0.0
  0
VERTEX
  5
3C1
  8
LAYER_1
 10
81.74933440728637
 20
13.73397915845385
 30
0.0
  0
VERTEX
  5
3C2
  8
LAYER_1
 10
81.76690440728636
 20
13.77301215845385
 30
0.0
  0
VERTEX
  5
3C3
  8
LAYER_1
 10
81.78418740728638
 20
13.81239615845385
 30
0.0
  0
VERTEX
  5
3C4
  8
LAYER_1
 10
81.80118040728637
 20
13.85212415845385
 30
0.0
  0
VERTEX
  5
3C5
  8
LAYER_1
 10
81.81788140728638
 20
13.89219515845384
 30
0.0
  0
VERTEX
  5
3C6
  8
LAYER_1
 10
81.83428740728637
 20
13.93260315845384
 30
0.0
  0
VERTEX
  5
3C7
  8
LAYER_1
 10
81.85039740728637
 20
13.97334515845385
 30
0.0
  0
VERTEX
  5
3C8
  8
LAYER_1
 10
81.86620740728638
 20
14.01441715845385
 30
0.0
  0
VERTEX
  5
3C9
  8
LAYER_1
 10
81.88171540728636
 20
14.05581515845385
 30
0.0
  0
VERTEX
  5
3CA
  8
LAYER_1
 10
81.89691940728638
 20
14.09753515845385
 30
0.0
  0
VERTEX
  5
3CB
  8
LAYER_1
 10
81.91181640728637
 20
14.13957315845386
 30
0.0
  0
VERTEX
  5
3CC
  8
LAYER_1
 10
81.92640440728637
 20
14.18192515845385
 30
0.0
  0
VERTEX
  5
3CD
  8
LAYER_1
 10
81.94068040728637
 20
14.22458715845386
 30
0.0
  0
VERTEX
  5
3CE
  8
LAYER_1
 10
81.95464240728637
 20
14.26755615845386
 30
0.0
  0
VERTEX
  5
3CF
  8
LAYER_1
 10
81.96828740728638
 20
14.31082715845385
 30
0.0
  0
VERTEX
  5
3D0
  8
LAYER_1
 10
81.98161340728637
 20
14.35439715845385
 30
0.0
  0
VERTEX
  5
3D1
  8
LAYER_1
 10
81.99461840728638
 20
14.39826115845385
 30
0.0
  0
VERTEX
  5
3D2
  8
LAYER_1
 10
82.00729940728637
 20
14.44241615845385
 30
0.0
  0
VERTEX
  5
3D3
  8
LAYER_1
 10
82.01965340728637
 20
14.48685815845386
 30
0.0
  0
VERTEX
  5
3D4
  8
LAYER_1
 10
82.03167840728638
 20
14.53158215845384
 30
0.0
  0
VERTEX
  5
3D5
  8
LAYER_1
 10
82.04337240728637
 20
14.57658515845385
 30
0.0
  0
VERTEX
  5
3D6
  8
LAYER_1
 10
82.05473240728638
 20
14.62186315845385
 30
0.0
  0
VERTEX
  5
3D7
  8
LAYER_1
 10
82.06575640728637
 20
14.66741215845386
 30
0.0
  0
VERTEX
  5
3D8
  8
LAYER_1
 10
82.07644140728637
 20
14.71322815845384
 30
0.0
  0
VERTEX
  5
3D9
  8
LAYER_1
 10
82.08678540728637
 20
14.75930715845385
 30
0.0
  0
VERTEX
  5
3DA
  8
LAYER_1
 10
82.09678540728636
 20
14.80564615845385
 30
0.0
  0
VERTEX
  5
3DB
  8
LAYER_1
 10
82.10644040728637
 20
14.85224015845385
 30
0.0
  0
VERTEX
  5
3DC
  8
LAYER_1
 10
82.11574540728638
 20
14.89908515845386
 30
0.0
  0
VERTEX
  5
3DD
  8
LAYER_1
 10
82.12470040728637
 20
14.94617715845385
 30
0.0
  0
VERTEX
  5
3DE
  8
LAYER_1
 10
82.13330140728637
 20
14.99351315845385
 30
0.0
  0
VERTEX
  5
3DF
  8
LAYER_1
 10
82.14154740728638
 20
15.04108915845386
 30
0.0
  0
VERTEX
  5
3E0
  8
LAYER_1
 10
82.14943440728636
 20
15.08890015845385
 30
0.0
  0
VERTEX
  5
3E1
  8
LAYER_1
 10
82.15696040728638
 20
15.13694315845385
 30
0.0
  0
VERTEX
  5
3E2
  8
LAYER_1
 10
82.16412340728637
 20
15.18521415845385
 30
0.0
  0
VERTEX
  5
3E3
  8
LAYER_1
 10
82.17092040728637
 20
15.23370815845385
 30
0.0
  0
VERTEX
  5
3E4
  8
LAYER_1
 10
82.17734940728637
 20
15.28242315845385
 30
0.0
  0
VERTEX
  5
3E5
  8
LAYER_1
 10
82.18340840728636
 20
15.33135315845385
 30
0.0
  0
VERTEX
  5
3E6
  8
LAYER_1
 10
82.18909340728636
 20
15.38049615845385
 30
0.0
  0
VERTEX
  5
3E7
  8
LAYER_1
 10
82.19440340728637
 20
15.42984715845385
 30
0.0
  0
VERTEX
  5
3E8
  8
LAYER_1
 10
82.19933540728637
 20
15.47940215845385
 30
0.0
  0
VERTEX
  5
3E9
  8
LAYER_1
 10
82.20388640728636
 20
15.52915715845386
 30
0.0
  0
VERTEX
  5
3EA
  8
LAYER_1
 10
82.20805540728638
 20
15.57910915845385
 30
0.0
  0
VERTEX
  5
3EB
  8
LAYER_1
 10
82.21183840728638
 20
15.62925315845385
 30
0.0
  0
VERTEX
  5
3EC
  8
LAYER_1
 10
82.21523340728636
 20
15.67958615845384
 30
0.0
  0
VERTEX
  5
3ED
  8
LAYER_1
 10
82.21823840728636
 20
15.73010315845386
 30
0.0
  0
VERTEX
  5
3EE
  8
LAYER_1
 10
82.22085140728636
 20
15.78080115845385
 30
0.0
  0
VERTEX
  5
3EF
  8
LAYER_1
 10
82.22306840728636
 20
15.83167515845385
 30
0.0
  0
VERTEX
  5
3F0
  8
LAYER_1
 10
82.22488740728637
 20
15.88272315845386
 30
0.0
  0
VERTEX
  5
3F1
  8
LAYER_1
 10
82.22630740728637
 20
15.93393915845385
 30
0.0
  0
VERTEX
  5
3F2
  8
LAYER_1
 10
82.22732440728637
 20
15.98532115845386
 30
0.0
  0
VERTEX
  5
3F3
  8
LAYER_1
 10
82.22793640728638
 20
16.03686315845385
 30
0.0
  0
VERTEX
  5
3F4
  8
LAYER_1
 10
82.22814040728638
 20
16.08856215845385
 30
0.0
  0
VERTEX
  5
3F5
  8
LAYER_1
 10
82.22793640728638
 20
16.14026215845385
 30
0.0
  0
VERTEX
  5
3F6
  8
LAYER_1
 10
82.22732440728637
 20
16.19180415845385
 30
0.0
  0
VERTEX
  5
3F7
  8
LAYER_1
 10
82.22630740728637
 20
16.24318615845385
 30
0.0
  0
VERTEX
  5
3F8
  8
LAYER_1
 10
82.22488740728637
 20
16.29440215845385
 30
0.0
  0
VERTEX
  5
3F9
  8
LAYER_1
 10
82.22306840728636
 20
16.34544915845385
 30
0.0
  0
VERTEX
  5
3FA
  8
LAYER_1
 10
82.22085140728636
 20
16.39632415845385
 30
0.0
  0
VERTEX
  5
3FB
  8
LAYER_1
 10
82.21823840728636
 20
16.44702215845385
 30
0.0
  0
VERTEX
  5
3FC
  8
LAYER_1
 10
82.21523340728636
 20
16.49753915845385
 30
0.0
  0
VERTEX
  5
3FD
  8
LAYER_1
 10
82.21183840728638
 20
16.54787215845386
 30
0.0
  0
VERTEX
  5
3FE
  8
LAYER_1
 10
82.20805540728638
 20
16.59801615845385
 30
0.0
  0
VERTEX
  5
3FF
  8
LAYER_1
 10
82.20388640728636
 20
16.64796815845385
 30
0.0
  0
VERTEX
  5
400
  8
LAYER_1
 10
82.19933540728637
 20
16.69772315845385
 30
0.0
  0
VERTEX
  5
401
  8
LAYER_1
 10
82.19440340728637
 20
16.74727815845385
 30
0.0
  0
VERTEX
  5
402
  8
LAYER_1
 10
82.18909340728636
 20
16.79662915845385
 30
0.0
  0
VERTEX
  5
403
  8
LAYER_1
 10
82.18340840728636
 20
16.84577115845386
 30
0.0
  0
VERTEX
  5
404
  8
LAYER_1
 10
82.17734940728637
 20
16.89470215845385
 30
0.0
  0
VERTEX
  5
405
  8
LAYER_1
 10
82.17092040728637
 20
16.94341615845386
 30
0.0
  0
VERTEX
  5
406
  8
LAYER_1
 10
82.16412340728637
 20
16.99191115845385
 30
0.0
  0
VERTEX
  5
407
  8
LAYER_1
 10
82.15696040728638
 20
17.04018215845385
 30
0.0
  0
VERTEX
  5
408
  8
LAYER_1
 10
82.14943440728636
 20
17.08822515845385
 30
0.0
  0
VERTEX
  5
409
  8
LAYER_1
 10
82.14154740728638
 20
17.13603615845385
 30
0.0
  0
VERTEX
  5
40A
  8
LAYER_1
 10
82.13330140728637
 20
17.18361215845385
 30
0.0
  0
VERTEX
  5
40B
  8
LAYER_1
 10
82.12470040728637
 20
17.23094815845386
 30
0.0
  0
VERTEX
  5
40C
  8
LAYER_1
 10
82.11574540728638
 20
17.27804015845385
 30
0.0
  0
VERTEX
  5
40D
  8
LAYER_1
 10
82.10644040728637
 20
17.32488515845385
 30
0.0
  0
VERTEX
  5
40E
  8
LAYER_1
 10
82.09678540728636
 20
17.37147915845385
 30
0.0
  0
VERTEX
  5
40F
  8
LAYER_1
 10
82.08678540728637
 20
17.41781715845386
 30
0.0
  0
VERTEX
  5
410
  8
LAYER_1
 10
82.07644140728637
 20
17.46389715845385
 30
0.0
  0
VERTEX
  5
411
  8
LAYER_1
 10
82.06575640728637
 20
17.50971315845385
 30
0.0
  0
VERTEX
  5
412
  8
LAYER_1
 10
82.05473240728638
 20
17.55526215845386
 30
0.0
  0
VERTEX
  5
413
  8
LAYER_1
 10
82.04337240728637
 20
17.60054015845385
 30
0.0
  0
VERTEX
  5
414
  8
LAYER_1
 10
82.03167840728638
 20
17.64554315845385
 30
0.0
  0
VERTEX
  5
415
  8
LAYER_1
 10
82.01965340728637
 20
17.69026715845385
 30
0.0
  0
VERTEX
  5
416
  8
LAYER_1
 10
82.00729940728637
 20
17.73470915845385
 30
0.0
  0
VERTEX
  5
417
  8
LAYER_1
 10
81.99461840728638
 20
17.77886415845386
 30
0.0
  0
VERTEX
  5
418
  8
LAYER_1
 10
81.98161340728637
 20
17.82272815845386
 30
0.0
  0
VERTEX
  5
419
  8
LAYER_1
 10
81.96828740728638
 20
17.86629715845385
 30
0.0
  0
VERTEX
  5
41A
  8
LAYER_1
 10
81.95464240728637
 20
17.90956915845385
 30
0.0
  0
VERTEX
  5
41B
  8
LAYER_1
 10
81.94068040728637
 20
17.95253715845385
 30
0.0
  0
VERTEX
  5
41C
  8
LAYER_1
 10
81.92640440728637
 20
17.99520015845386
 30
0.0
  0
VERTEX
  5
41D
  8
LAYER_1
 10
81.91181640728637
 20
18.03755215845385
 30
0.0
  0
VERTEX
  5
41E
  8
LAYER_1
 10
81.89691940728638
 20
18.07959015845385
 30
0.0
  0
VERTEX
  5
41F
  8
LAYER_1
 10
81.88171540728636
 20
18.12131015845385
 30
0.0
  0
VERTEX
  5
420
  8
LAYER_1
 10
81.86620740728638
 20
18.16270815845385
 30
0.0
  0
VERTEX
  5
421
  8
LAYER_1
 10
81.85039740728637
 20
18.20378015845385
 30
0.0
  0
VERTEX
  5
422
  8
LAYER_1
 10
81.83428740728637
 20
18.24452215845385
 30
0.0
  0
VERTEX
  5
423
  8
LAYER_1
 10
81.81788140728638
 20
18.28493015845385
 30
0.0
  0
VERTEX
  5
424
  8
LAYER_1
 10
81.80118040728637
 20
18.32500015845385
 30
0.0
  0
VERTEX
  5
425
  8
LAYER_1
 10
81.78418740728638
 20
18.36472915845386
 30
0.0
  0
VERTEX
  5
426
  8
LAYER_1
 10
81.76690440728636
 20
18.40411215845386
 30
0.0
  0
VERTEX
  5
427
  8
LAYER_1
 10
81.74933440728637
 20
18.44314615845386
 30
0.0
  0
VERTEX
  5
428
  8
LAYER_1
 10
81.73147940728637
 20
18.48182615845386
 30
0.0
  0
VERTEX
  5
429
  8
LAYER_1
 10
81.71334240728636
 20
18.52014915845385
 30
0.0
  0
VERTEX
  5
42A
  8
LAYER_1
 10
81.69492540728636
 20
18.55811015845386
 30
0.0
  0
VERTEX
  5
42B
  8
LAYER_1
 10
81.67623140728638
 20
18.59570715845385
 30
0.0
  0
VERTEX
  5
42C
  8
LAYER_1
 10
81.65726240728638
 20
18.63293415845385
 30
0.0
  0
VERTEX
  5
42D
  8
LAYER_1
 10
81.63802040728636
 20
18.66978815845385
 30
0.0
  0
VERTEX
  5
42E
  8
LAYER_1
 10
81.61850940728637
 20
18.70626515845385
 30
0.0
  0
VERTEX
  5
42F
  8
LAYER_1
 10
81.59873040728637
 20
18.74236115845385
 30
0.0
  0
VERTEX
  5
430
  8
LAYER_1
 10
81.57868640728637
 20
18.77807215845385
 30
0.0
  0
VERTEX
  5
431
  8
LAYER_1
 10
81.55837940728638
 20
18.81339415845385
 30
0.0
  0
VERTEX
  5
432
  8
LAYER_1
 10
81.53781240728638
 20
18.84832415845385
 30
0.0
  0
VERTEX
  5
433
  8
LAYER_1
 10
81.51698740728638
 20
18.88285715845385
 30
0.0
  0
VERTEX
  5
434
  8
LAYER_1
 10
81.49590740728637
 20
18.91699015845386
 30
0.0
  0
VERTEX
  5
435
  8
LAYER_1
 10
81.47457540728637
 20
18.95071715845386
 30
0.0
  0
VERTEX
  5
436
  8
LAYER_1
 10
81.45299240728637
 20
18.98403715845384
 30
0.0
  0
VERTEX
  5
437
  8
LAYER_1
 10
81.43116040728637
 20
19.01694415845385
 30
0.0
  0
VERTEX
  5
438
  8
LAYER_1
 10
81.40908440728637
 20
19.04943515845385
 30
0.0
  0
VERTEX
  5
439
  8
LAYER_1
 10
81.38676440728638
 20
19.08150615845385
 30
0.0
  0
VERTEX
  5
43A
  8
LAYER_1
 10
81.36420440728638
 20
19.11315215845386
 30
0.0
  0
VERTEX
  5
43B
  8
LAYER_1
 10
81.34140640728637
 20
19.14437015845385
 30
0.0
  0
VERTEX
  5
43C
  8
LAYER_1
 10
81.31837340728637
 20
19.17515715845386
 30
0.0
  0
VERTEX
  5
43D
  8
LAYER_1
 10
81.29510640728638
 20
19.20550715845386
 30
0.0
  0
VERTEX
  5
43E
  8
LAYER_1
 10
81.27160840728637
 20
19.23541815845385
 30
0.0
  0
VERTEX
  5
43F
  8
LAYER_1
 10
81.24788240728638
 20
19.26488515845385
 30
0.0
  0
VERTEX
  5
440
  8
LAYER_1
 10
81.22393040728637
 20
19.29390415845386
 30
0.0
  0
VERTEX
  5
441
  8
LAYER_1
 10
81.19975540728637
 20
19.32247215845385
 30
0.0
  0
VERTEX
  5
442
  8
LAYER_1
 10
81.17535940728636
 20
19.35058415845386
 30
0.0
  0
VERTEX
  5
443
  8
LAYER_1
 10
81.15074540728638
 20
19.37823615845384
 30
0.0
  0
VERTEX
  5
444
  8
LAYER_1
 10
81.12591440728637
 20
19.40542515845385
 30
0.0
  0
VERTEX
  5
445
  8
LAYER_1
 10
81.10087040728637
 20
19.43214715845384
 30
0.0
  0
VERTEX
  5
446
  8
LAYER_1
 10
81.07561540728638
 20
19.45839715845385
 30
0.0
  0
VERTEX
  5
447
  8
LAYER_1
 10
81.05015140728638
 20
19.48417315845386
 30
0.0
  0
VERTEX
  5
448
  8
LAYER_1
 10
81.02448140728637
 20
19.50946915845385
 30
0.0
  0
VERTEX
  5
449
  8
LAYER_1
 10
80.99860840728637
 20
19.53428215845385
 30
0.0
  0
VERTEX
  5
44A
  8
LAYER_1
 10
80.97253340728638
 20
19.55860815845385
 30
0.0
  0
VERTEX
  5
44B
  8
LAYER_1
 10
80.94625940728638
 20
19.58244415845385
 30
0.0
  0
VERTEX
  5
44C
  8
LAYER_1
 10
80.91978940728637
 20
19.60578415845384
 30
0.0
  0
VERTEX
  5
44D
  8
LAYER_1
 10
80.89312540728638
 20
19.62862615845386
 30
0.0
  0
VERTEX
  5
44E
  8
LAYER_1
 10
80.86626940728637
 20
19.65096515845386
 30
0.0
  0
VERTEX
  5
44F
  8
LAYER_1
 10
80.83922540728638
 20
19.67279715845385
 30
0.0
  0
VERTEX
  5
450
  8
LAYER_1
 10
80.81199440728638
 20
19.69411915845384
 30
0.0
  0
VERTEX
  5
451
  8
LAYER_1
 10
80.78457940728637
 20
19.71492615845385
 30
0.0
  0
VERTEX
  5
452
  8
LAYER_1
 10
80.75698240728637
 20
19.73521515845385
 30
0.0
  0
VERTEX
  5
453
  8
LAYER_1
 10
80.72920640728637
 20
19.75498215845386
 30
0.0
  0
VERTEX
  5
454
  8
LAYER_1
 10
80.70125340728637
 20
19.77422315845385
 30
0.0
  0
VERTEX
  5
455
  8
LAYER_1
 10
80.67312640728638
 20
19.79293315845385
 30
0.0
  0
VERTEX
  5
456
  8
LAYER_1
 10
80.64482840728637
 20
19.81110915845385
 30
0.0
  0
VERTEX
  5
457
  8
LAYER_1
 10
80.61635940728637
 20
19.82874715845385
 30
0.0
  0
VERTEX
  5
458
  8
LAYER_1
 10
80.58772440728637
 20
19.84584315845385
 30
0.0
  0
VERTEX
  5
459
  8
LAYER_1
 10
80.55892540728637
 20
19.86239415845385
 30
0.0
  0
VERTEX
  5
45A
  8
LAYER_1
 10
80.52996340728637
 20
19.87839415845384
 30
0.0
  0
VERTEX
  5
45B
  8
LAYER_1
 10
80.50084240728637
 20
19.89384115845385
 30
0.0
  0
VERTEX
  5
45C
  8
LAYER_1
 10
80.47156440728638
 20
19.90873015845385
 30
0.0
  0
VERTEX
  5
45D
  8
LAYER_1
 10
80.44213140728637
 20
19.92305815845386
 30
0.0
  0
VERTEX
  5
45E
  8
LAYER_1
 10
80.41254640728637
 20
19.93682015845386
 30
0.0
  0
VERTEX
  5
45F
  8
LAYER_1
 10
80.38281140728638
 20
19.95001315845386
 30
0.0
  0
VERTEX
  5
460
  8
LAYER_1
 10
80.35292940728637
 20
19.96263215845386
 30
0.0
  0
VERTEX
  5
461
  8
LAYER_1
 10
80.32290340728638
 20
19.97467415845385
 30
0.0
  0
VERTEX
  5
462
  8
LAYER_1
 10
80.29273340728638
 20
19.98613415845385
 30
0.0
  0
VERTEX
  5
463
  8
LAYER_1
 10
80.26242440728637
 20
19.99701015845385
 30
0.0
  0
VERTEX
  5
464
  8
LAYER_1
 10
80.23197840728638
 20
20.00729715845385
 30
0.0
  0
VERTEX
  5
465
  8
LAYER_1
 10
80.20139640728637
 20
20.01699015845385
 30
0.0
  0
VERTEX
  5
466
  8
LAYER_1
 10
80.17068240728638
 20
20.02608715845385
 30
0.0
  0
VERTEX
  5
467
  8
LAYER_1
 10
80.13983840728638
 20
20.03458215845384
 30
0.0
  0
VERTEX
  5
468
  8
LAYER_1
 10
80.10886640728637
 20
20.04247315845384
 30
0.0
  0
VERTEX
  5
469
  8
LAYER_1
 10
80.07776940728637
 20
20.04975615845385
 30
0.0
  0
VERTEX
  5
46A
  8
LAYER_1
 10
80.04654940728638
 20
20.05642515845385
 30
0.0
  0
VERTEX
  5
46B
  8
LAYER_1
 10
80.01520940728638
 20
20.06247815845386
 30
0.0
  0
VERTEX
  5
46C
  8
LAYER_1
 10
79.98375140728636
 20
20.06791115845385
 30
0.0
  0
VERTEX
  5
46D
  8
LAYER_1
 10
79.95217840728638
 20
20.07271915845385
 30
0.0
  0
VERTEX
  5
46E
  8
LAYER_1
 10
79.92049140728638
 20
20.07689915845386
 30
0.0
  0
VERTEX
  5
46F
  8
LAYER_1
 10
79.88869540728636
 20
20.08044615845385
 30
0.0
  0
VERTEX
  5
470
  8
LAYER_1
 10
79.85679040728637
 20
20.08335815845385
 30
0.0
  0
VERTEX
  5
471
  8
LAYER_1
 10
79.82478040728638
 20
20.08562915845386
 30
0.0
  0
VERTEX
  5
472
  8
LAYER_1
 10
79.79266740728637
 20
20.08725615845385
 30
0.0
  0
VERTEX
  5
473
  8
LAYER_1
 10
79.76045340728636
 20
20.08823515845386
 30
0.0
  0
VERTEX
  5
474
  8
LAYER_1
 10
79.72814040728638
 20
20.08856215845385
 30
0.0
  0
VERTEX
  5
475
  8
LAYER_1
 10
79.69582840728637
 20
20.08823515845386
 30
0.0
  0
VERTEX
  5
476
  8
LAYER_1
 10
79.66361440728637
 20
20.08725615845385
 30
0.0
  0
VERTEX
  5
477
  8
LAYER_1
 10
79.63150140728636
 20
20.08562915845386
 30
0.0
  0
VERTEX
  5
478
  8
LAYER_1
 10
79.59949140728638
 20
20.08335815845385
 30
0.0
  0
VERTEX
  5
479
  8
LAYER_1
 10
79.56758640728637
 20
20.08044615845385
 30
0.0
  0
VERTEX
  5
47A
  8
LAYER_1
 10
79.53578940728637
 20
20.07689915845386
 30
0.0
  0
VERTEX
  5
47B
  8
LAYER_1
 10
79.50410340728637
 20
20.07271915845385
 30
0.0
  0
VERTEX
  5
47C
  8
LAYER_1
 10
79.47253040728637
 20
20.06791115845385
 30
0.0
  0
VERTEX
  5
47D
  8
LAYER_1
 10
79.44107240728637
 20
20.06247815845386
 30
0.0
  0
VERTEX
  5
47E
  8
LAYER_1
 10
79.40973240728637
 20
20.05642515845385
 30
0.0
  0
VERTEX
  5
47F
  8
LAYER_1
 10
79.37851240728638
 20
20.04975615845385
 30
0.0
  0
VERTEX
  5
480
  8
LAYER_1
 10
79.34741540728636
 20
20.04247315845384
 30
0.0
  0
VERTEX
  5
481
  8
LAYER_1
 10
79.31644340728637
 20
20.03458215845384
 30
0.0
  0
VERTEX
  5
482
  8
LAYER_1
 10
79.28559940728637
 20
20.02608715845385
 30
0.0
  0
VERTEX
  5
483
  8
LAYER_1
 10
79.25488540728638
 20
20.01699015845385
 30
0.0
  0
VERTEX
  5
484
  8
LAYER_1
 10
79.22430340728637
 20
20.00729715845385
 30
0.0
  0
VERTEX
  5
485
  8
LAYER_1
 10
79.19385740728637
 20
19.99701015845385
 30
0.0
  0
VERTEX
  5
486
  8
LAYER_1
 10
79.16354840728637
 20
19.98613415845385
 30
0.0
  0
VERTEX
  5
487
  8
LAYER_1
 10
79.13337840728637
 20
19.97467415845385
 30
0.0
  0
VERTEX
  5
488
  8
LAYER_1
 10
79.10335140728638
 20
19.96263215845386
 30
0.0
  0
VERTEX
  5
489
  8
LAYER_1
 10
79.07346940728637
 20
19.95001315845386
 30
0.0
  0
VERTEX
  5
48A
  8
LAYER_1
 10
79.04373540728638
 20
19.93682015845386
 30
0.0
  0
VERTEX
  5
48B
  8
LAYER_1
 10
79.01415040728638
 20
19.92305815845386
 30
0.0
  0
VERTEX
  5
48C
  8
LAYER_1
 10
78.98471740728637
 20
19.90873015845385
 30
0.0
  0
VERTEX
  5
48D
  8
LAYER_1
 10
78.95543940728636
 20
19.89384115845385
 30
0.0
  0
VERTEX
  5
48E
  8
LAYER_1
 10
78.92631840728637
 20
19.87839415845384
 30
0.0
  0
VERTEX
  5
48F
  8
LAYER_1
 10
78.89735640728638
 20
19.86239415845385
 30
0.0
  0
VERTEX
  5
490
  8
LAYER_1
 10
78.86855740728637
 20
19.84584315845385
 30
0.0
  0
VERTEX
  5
491
  8
LAYER_1
 10
78.83992240728638
 20
19.82874715845385
 30
0.0
  0
VERTEX
  5
492
  8
LAYER_1
 10
78.81145340728638
 20
19.81110915845385
 30
0.0
  0
VERTEX
  5
493
  8
LAYER_1
 10
78.78315540728637
 20
19.79293315845385
 30
0.0
  0
VERTEX
  5
494
  8
LAYER_1
 10
78.75502840728637
 20
19.77422315845385
 30
0.0
  0
VERTEX
  5
495
  8
LAYER_1
 10
78.72707540728636
 20
19.75498215845386
 30
0.0
  0
VERTEX
  5
496
  8
LAYER_1
 10
78.69929940728638
 20
19.73521515845385
 30
0.0
  0
VERTEX
  5
497
  8
LAYER_1
 10
78.67170240728638
 20
19.71492615845385
 30
0.0
  0
VERTEX
  5
498
  8
LAYER_1
 10
78.64428740728637
 20
19.69411915845384
 30
0.0
  0
VERTEX
  5
499
  8
LAYER_1
 10
78.61705640728637
 20
19.67279715845385
 30
0.0
  0
VERTEX
  5
49A
  8
LAYER_1
 10
78.59001240728638
 20
19.65096515845386
 30
0.0
  0
VERTEX
  5
49B
  8
LAYER_1
 10
78.56315640728637
 20
19.62862615845386
 30
0.0
  0
VERTEX
  5
49C
  8
LAYER_1
 10
78.53649240728637
 20
19.60578415845384
 30
0.0
  0
VERTEX
  5
49D
  8
LAYER_1
 10
78.51002240728637
 20
19.58244415845385
 30
0.0
  0
VERTEX
  5
49E
  8
LAYER_1
 10
78.48374840728637
 20
19.55860815845385
 30
0.0
  0
VERTEX
  5
49F
  8
LAYER_1
 10
78.45767340728638
 20
19.53428215845385
 30
0.0
  0
VERTEX
  5
4A0
  8
LAYER_1
 10
78.43180040728637
 20
19.50946915845385
 30
0.0
  0
VERTEX
  5
4A1
  8
LAYER_1
 10
78.40613040728637
 20
19.48417315845386
 30
0.0
  0
VERTEX
  5
4A2
  8
LAYER_1
 10
78.38066640728637
 20
19.45839715845385
 30
0.0
  0
VERTEX
  5
4A3
  8
LAYER_1
 10
78.35541140728638
 20
19.43214715845384
 30
0.0
  0
VERTEX
  5
4A4
  8
LAYER_1
 10
78.33036740728637
 20
19.40542515845385
 30
0.0
  0
VERTEX
  5
4A5
  8
LAYER_1
 10
78.30553640728637
 20
19.37823615845384
 30
0.0
  0
VERTEX
  5
4A6
  8
LAYER_1
 10
78.28092240728638
 20
19.35058415845386
 30
0.0
  0
VERTEX
  5
4A7
  8
LAYER_1
 10
78.25652640728637
 20
19.32247215845385
 30
0.0
  0
VERTEX
  5
4A8
  8
LAYER_1
 10
78.23235140728637
 20
19.29390415845386
 30
0.0
  0
VERTEX
  5
4A9
  8
LAYER_1
 10
78.20839940728636
 20
19.26488515845385
 30
0.0
  0
VERTEX
  5
4AA
  8
LAYER_1
 10
78.18467340728638
 20
19.23541815845385
 30
0.0
  0
VERTEX
  5
4AB
  8
LAYER_1
 10
78.16117540728636
 20
19.20550715845386
 30
0.0
  0
VERTEX
  5
4AC
  8
LAYER_1
 10
78.13790840728637
 20
19.17515715845386
 30
0.0
  0
VERTEX
  5
4AD
  8
LAYER_1
 10
78.11487540728636
 20
19.14437015845385
 30
0.0
  0
VERTEX
  5
4AE
  8
LAYER_1
 10
78.09207640728637
 20
19.11315215845386
 30
0.0
  0
VERTEX
  5
4AF
  8
LAYER_1
 10
78.06951640728637
 20
19.08150615845385
 30
0.0
  0
VERTEX
  5
4B0
  8
LAYER_1
 10
78.04719740728636
 20
19.04943515845385
 30
0.0
  0
VERTEX
  5
4B1
  8
LAYER_1
 10
78.02512040728637
 20
19.01694415845385
 30
0.0
  0
VERTEX
  5
4B2
  8
LAYER_1
 10
78.00328940728637
 20
18.98403715845384
 30
0.0
  0
VERTEX
  5
4B3
  8
LAYER_1
 10
77.98170640728638
 20
18.95071715845386
 30
0.0
  0
VERTEX
  5
4B4
  8
LAYER_1
 10
77.96037340728638
 20
18.91699015845386
 30
0.0
  0
VERTEX
  5
4B5
  8
LAYER_1
 10
77.93929440728637
 20
18.88285715845385
 30
0.0
  0
VERTEX
  5
4B6
  8
LAYER_1
 10
77.91846940728637
 20
18.84832415845385
 30
0.0
  0
VERTEX
  5
4B7
  8
LAYER_1
 10
77.89790240728637
 20
18.81339415845385
 30
0.0
  0
VERTEX
  5
4B8
  8
LAYER_1
 10
77.87759540728636
 20
18.77807215845385
 30
0.0
  0
VERTEX
  5
4B9
  8
LAYER_1
 10
77.85755140728638
 20
18.74236115845385
 30
0.0
  0
VERTEX
  5
4BA
  8
LAYER_1
 10
77.83777240728638
 20
18.70626515845385
 30
0.0
  0
VERTEX
  5
4BB
  8
LAYER_1
 10
77.81826040728637
 20
18.66978815845385
 30
0.0
  0
VERTEX
  5
4BC
  8
LAYER_1
 10
77.79901940728637
 20
18.63293415845385
 30
0.0
  0
VERTEX
  5
4BD
  8
LAYER_1
 10
77.78005040728637
 20
18.59570715845385
 30
0.0
  0
VERTEX
  5
4BE
  8
LAYER_1
 10
77.76135640728637
 20
18.55811015845386
 30
0.0
  0
VERTEX
  5
4BF
  8
LAYER_1
 10
77.74293940728637
 20
18.52014915845385
 30
0.0
  0
VERTEX
  5
4C0
  8
LAYER_1
 10
77.72480240728636
 20
18.48182615845386
 30
0.0
  0
VERTEX
  5
4C1
  8
LAYER_1
 10
77.70694740728636
 20
18.44314615845386
 30
0.0
  0
VERTEX
  5
4C2
  8
LAYER_1
 10
77.68937740728637
 20
18.40411215845386
 30
0.0
  0
VERTEX
  5
4C3
  8
LAYER_1
 10
77.67209440728637
 20
18.36472915845386
 30
0.0
  0
VERTEX
  5
4C4
  8
LAYER_1
 10
77.65510140728638
 20
18.32500015845385
 30
0.0
  0
VERTEX
  5
4C5
  8
LAYER_1
 10
77.63840040728637
 20
18.28493015845385
 30
0.0
  0
VERTEX
  5
4C6
  8
LAYER_1
 10
77.62199440728638
 20
18.24452215845385
 30
0.0
  0
VERTEX
  5
4C7
  8
LAYER_1
 10
77.60588440728638
 20
18.20378015845385
 30
0.0
  0
VERTEX
  5
4C8
  8
LAYER_1
 10
77.59007440728637
 20
18.16270815845385
 30
0.0
  0
VERTEX
  5
4C9
  8
LAYER_1
 10
77.57456640728637
 20
18.12131015845385
 30
0.0
  0
VERTEX
  5
4CA
  8
LAYER_1
 10
77.55936240728637
 20
18.07959015845385
 30
0.0
  0
VERTEX
  5
4CB
  8
LAYER_1
 10
77.54446540728638
 20
18.03755215845385
 30
0.0
  0
VERTEX
  5
4CC
  8
LAYER_1
 10
77.52987740728638
 20
17.99520015845386
 30
0.0
  0
VERTEX
  5
4CD
  8
LAYER_1
 10
77.51560140728638
 20
17.95253715845385
 30
0.0
  0
VERTEX
  5
4CE
  8
LAYER_1
 10
77.50163940728636
 20
17.90956915845385
 30
0.0
  0
VERTEX
  5
4CF
  8
LAYER_1
 10
77.48799440728637
 20
17.86629715845385
 30
0.0
  0
VERTEX
  5
4D0
  8
LAYER_1
 10
77.47466840728637
 20
17.82272815845386
 30
0.0
  0
VERTEX
  5
4D1
  8
LAYER_1
 10
77.46166340728637
 20
17.77886415845386
 30
0.0
  0
VERTEX
  5
4D2
  8
LAYER_1
 10
77.44898240728638
 20
17.73470915845385
 30
0.0
  0
VERTEX
  5
4D3
  8
LAYER_1
 10
77.43662840728636
 20
17.69026715845385
 30
0.0
  0
VERTEX
  5
4D4
  8
LAYER_1
 10
77.42460340728637
 20
17.64554315845385
 30
0.0
  0
VERTEX
  5
4D5
  8
LAYER_1
 10
77.41290940728636
 20
17.60054015845385
 30
0.0
  0
VERTEX
  5
4D6
  8
LAYER_1
 10
77.40154940728637
 20
17.55526215845386
 30
0.0
  0
VERTEX
  5
4D7
  8
LAYER_1
 10
77.39052540728638
 20
17.50971315845385
 30
0.0
  0
VERTEX
  5
4D8
  8
LAYER_1
 10
77.37984040728638
 20
17.46389715845385
 30
0.0
  0
VERTEX
  5
4D9
  8
LAYER_1
 10
77.36949640728638
 20
17.41781715845386
 30
0.0
  0
VERTEX
  5
4DA
  8
LAYER_1
 10
77.35949540728637
 20
17.37147915845385
 30
0.0
  0
VERTEX
  5
4DB
  8
LAYER_1
 10
77.34984140728638
 20
17.32488515845385
 30
0.0
  0
VERTEX
  5
4DC
  8
LAYER_1
 10
77.34053540728637
 20
17.27804015845385
 30
0.0
  0
VERTEX
  5
4DD
  8
LAYER_1
 10
77.33158140728638
 20
17.23094815845386
 30
0.0
  0
VERTEX
  5
4DE
  8
LAYER_1
 10
77.32297940728638
 20
17.18361215845385
 30
0.0
  0
VERTEX
  5
4DF
  8
LAYER_1
 10
77.31473440728637
 20
17.13603615845385
 30
0.0
  0
VERTEX
  5
4E0
  8
LAYER_1
 10
77.30684740728637
 20
17.08822515845385
 30
0.0
  0
VERTEX
  5
4E1
  8
LAYER_1
 10
77.29932140728637
 20
17.04018215845385
 30
0.0
  0
VERTEX
  5
4E2
  8
LAYER_1
 10
77.29215840728638
 20
16.99191115845385
 30
0.0
  0
VERTEX
  5
4E3
  8
LAYER_1
 10
77.28536140728637
 20
16.94341615845386
 30
0.0
  0
VERTEX
  5
4E4
  8
LAYER_1
 10
77.27893240728638
 20
16.89470215845385
 30
0.0
  0
VERTEX
  5
4E5
  8
LAYER_1
 10
77.27287340728638
 20
16.84577115845386
 30
0.0
  0
VERTEX
  5
4E6
  8
LAYER_1
 10
77.26718840728637
 20
16.79662915845385
 30
0.0
  0
VERTEX
  5
4E7
  8
LAYER_1
 10
77.26187840728637
 20
16.74727815845385
 30
0.0
  0
VERTEX
  5
4E8
  8
LAYER_1
 10
77.25694640728638
 20
16.69772315845385
 30
0.0
  0
VERTEX
  5
4E9
  8
LAYER_1
 10
77.25239540728637
 20
16.64796815845385
 30
0.0
  0
VERTEX
  5
4EA
  8
LAYER_1
 10
77.24822640728637
 20
16.59801615845385
 30
0.0
  0
VERTEX
  5
4EB
  8
LAYER_1
 10
77.24444340728637
 20
16.54787215845386
 30
0.0
  0
VERTEX
  5
4EC
  8
LAYER_1
 10
77.24104840728637
 20
16.49753915845385
 30
0.0
  0
VERTEX
  5
4ED
  8
LAYER_1
 10
77.23804340728637
 20
16.44702215845385
 30
0.0
  0
VERTEX
  5
4EE
  8
LAYER_1
 10
77.23543040728637
 20
16.39632415845385
 30
0.0
  0
VERTEX
  5
4EF
  8
LAYER_1
 10
77.23321340728637
 20
16.34544915845385
 30
0.0
  0
VERTEX
  5
4F0
  8
LAYER_1
 10
77.23139340728638
 20
16.29440215845385
 30
0.0
  0
VERTEX
  5
4F1
  8
LAYER_1
 10
77.22997440728638
 20
16.24318615845385
 30
0.0
  0
VERTEX
  5
4F2
  8
LAYER_1
 10
77.22895740728637
 20
16.19180415845385
 30
0.0
  0
VERTEX
  5
4F3
  8
LAYER_1
 10
77.22834540728637
 20
16.14026215845385
 30
0.0
  0
SEQEND
  5
7CC
  8
LAYER_1
  0
POLYLINE
  5
7E
  8
LAYER_1
 66
     1
 10
0.0
 20
0.0
 30
0.0
 70
     1
  0
VERTEX
  5
4F4
  8
LAYER_1
 10
75.39978240728637
 20
1.053223158453847
 30
0.0
  0
VERTEX
  5
4F5
  8
LAYER_1
 10
75.77478240728637
 20
1.053223158453847
 30
0.0
  0
VERTEX
  5
4F6
  8
LAYER_1
 10
75.77478240728637
 20
28.05322315845385
 30
0.0
  0
VERTEX
  5
4F7
  8
LAYER_1
 10
75.39978240728637
 20
28.05322315845385
 30
0.0
  0
SEQEND
  5
7CD
  8
LAYER_1
  0
POLYLINE
  5
7F
  8
LAYER_1
 66
     1
 10
0.0
 20
0.0
 30
0.0
 70
     1
  0
VERTEX
  5
4F8
  8
LAYER_1
 10
94.77478240728637
 20
11.24072315845385
 30
0.0
  0
VERTEX
  5
4F9
  8
LAYER_1
 10
95.14978240728637
 20
11.24072315845385
 30
0.0
  0
VERTEX
  5
4FA
  8
LAYER_1
 10
95.14978240728637
 20
28.24072315845385
 30
0.0
  0
VERTEX
  5
4FB
  8
LAYER_1
 10
94.77478240728637
 20
28.24072315845385
 30
0.0
  0
SEQEND
  5
7CE
  8
LAYER_1
  0
POLYLINE
  5
80
  8
LAYER_1
 66
     1
 10
0.0
 20
0.0
 30
0.0
 70
     1
  0
VERTEX
  5
4FC
  8
LAYER_1
 10
94.77478240728637
 20
1.053223158453847
 30
0.0
  0
VERTEX
  5
4FD
  8
LAYER_1
 10
95.14978240728637
 20
1.053223158453847
 30
0.0
  0
VERTEX
  5
4FE
  8
LAYER_1
 10
95.14978240728637
 20
11.55322315845385
 30
0.0
  0
VERTEX
  5
4FF
  8
LAYER_1
 10
94.77478240728637
 20
11.55322315845385
 30
0.0
  0
SEQEND
  5
7CF
  8
LAYER_1
  0
POLYLINE
  5
81
  8
LAYER_1
 66
     1
 10
0.0
 20
0.0
 30
0.0
 70
     1
  0
VERTEX
  5
500
  8
LAYER_1
 10
62.923566682676
 20
9.403314000198392
 30
0.0
  0
VERTEX
  5
501
  8
LAYER_1
 10
62.923361682676
 20
9.351615000198393
 30
0.0
  0
VERTEX
  5
502
  8
LAYER_1
 10
62.922749682676
 20
9.300073000198381
 30
0.0
  0
VERTEX
  5
503
  8
LAYER_1
 10
62.92173268267601
 20
9.248691000198392
 30
0.0
  0
VERTEX
  5
504
  8
LAYER_1
 10
62.92031368267601
 20
9.197475000198395
 30
0.0
  0
VERTEX
  5
505
  8
LAYER_1
 10
62.918493682676
 20
9.146428000198398
 30
0.0
  0
VERTEX
  5
506
  8
LAYER_1
 10
62.916276682676
 20
9.095553000198393
 30
0.0
  0
VERTEX
  5
507
  8
LAYER_1
 10
62.913664682676
 20
9.044855000198396
 30
0.0
  0
VERTEX
  5
508
  8
LAYER_1
 10
62.910659682676
 20
8.994338000198383
 30
0.0
  0
VERTEX
  5
509
  8
LAYER_1
 10
62.907263682676
 20
8.944005000198388
 30
0.0
  0
VERTEX
  5
50A
  8
LAYER_1
 10
62.903480682676
 20
8.893861000198399
 30
0.0
  0
VERTEX
  5
50B
  8
LAYER_1
 10
62.899312682676
 20
8.843909000198394
 30
0.0
  0
VERTEX
  5
50C
  8
LAYER_1
 10
62.89476068267601
 20
8.79415400019839
 30
0.0
  0
VERTEX
  5
50D
  8
LAYER_1
 10
62.889828682676
 20
8.744599000198392
 30
0.0
  0
VERTEX
  5
50E
  8
LAYER_1
 10
62.884519682676
 20
8.69524800019839
 30
0.0
  0
VERTEX
  5
50F
  8
LAYER_1
 10
62.878833682676
 20
8.646106000198387
 30
0.0
  0
VERTEX
  5
510
  8
LAYER_1
 10
62.87277568267601
 20
8.59717500019839
 30
0.0
  0
VERTEX
  5
511
  8
LAYER_1
 10
62.86634668267601
 20
8.54846000019839
 30
0.0
  0
VERTEX
  5
512
  8
LAYER_1
 10
62.85954868267601
 20
8.499966000198384
 30
0.0
  0
VERTEX
  5
513
  8
LAYER_1
 10
62.852385682676
 20
8.451695000198384
 30
0.0
  0
VERTEX
  5
514
  8
LAYER_1
 10
62.844859682676
 20
8.403652000198392
 30
0.0
  0
VERTEX
  5
515
  8
LAYER_1
 10
62.83697268267601
 20
8.355841000198382
 30
0.0
  0
VERTEX
  5
516
  8
LAYER_1
 10
62.828727682676
 20
8.30826500019839
 30
0.0
  0
VERTEX
  5
517
  8
LAYER_1
 10
62.820126682676
 20
8.260929000198388
 30
0.0
  0
VERTEX
  5
518
  8
LAYER_1
 10
62.811171682676
 20
8.213837000198396
 30
0.0
  0
VERTEX
  5
519
  8
LAYER_1
 10
62.80186568267601
 20
8.166992000198391
 30
0.0
  0
VERTEX
  5
51A
  8
LAYER_1
 10
62.792211682676
 20
8.120398000198392
 30
0.0
  0
VERTEX
  5
51B
  8
LAYER_1
 10
62.78221068267601
 20
8.074060000198386
 30
0.0
  0
VERTEX
  5
51C
  8
LAYER_1
 10
62.771867682676
 20
8.027980000198397
 30
0.0
  0
VERTEX
  5
51D
  8
LAYER_1
 10
62.761181682676
 20
7.982164000198395
 30
0.0
  0
VERTEX
  5
51E
  8
LAYER_1
 10
62.750158682676
 20
7.936615000198401
 30
0.0
  0
VERTEX
  5
51F
  8
LAYER_1
 10
62.73879768267601
 20
7.891337000198391
 30
0.0
  0
VERTEX
  5
520
  8
LAYER_1
 10
62.727103682676
 20
7.846334000198397
 30
0.0
  0
VERTEX
  5
521
  8
LAYER_1
 10
62.71507868267601
 20
7.801610000198394
 30
0.0
  0
VERTEX
  5
522
  8
LAYER_1
 10
62.70272468267601
 20
7.757168000198391
 30
0.0
  0
VERTEX
  5
523
  8
LAYER_1
 10
62.69004368267601
 20
7.713013000198401
 30
0.0
  0
VERTEX
  5
524
  8
LAYER_1
 10
62.677039682676
 20
7.669149000198388
 30
0.0
  0
VERTEX
  5
525
  8
LAYER_1
 10
62.663713682676
 20
7.6255790001984
 30
0.0
  0
VERTEX
  5
526
  8
LAYER_1
 10
62.650067682676
 20
7.582308000198395
 30
0.0
  0
VERTEX
  5
527
  8
LAYER_1
 10
62.636105682676
 20
7.539339000198396
 30
0.0
  0
VERTEX
  5
528
  8
LAYER_1
 10
62.62182968267601
 20
7.496677000198389
 30
0.0
  0
VERTEX
  5
529
  8
LAYER_1
 10
62.607242682676
 20
7.454325000198395
 30
0.0
  0
VERTEX
  5
52A
  8
LAYER_1
 10
62.592345682676
 20
7.41228700019839
 30
0.0
  0
VERTEX
  5
52B
  8
LAYER_1
 10
62.577141682676
 20
7.370567000198392
 30
0.0
  0
VERTEX
  5
52C
  8
LAYER_1
 10
62.56163268267601
 20
7.329169000198391
 30
0.0
  0
VERTEX
  5
52D
  8
LAYER_1
 10
62.545822682676
 20
7.288097000198391
 30
0.0
  0
VERTEX
  5
52E
  8
LAYER_1
 10
62.529713682676
 20
7.247355000198382
 30
0.0
  0
VERTEX
  5
52F
  8
LAYER_1
 10
62.513306682676
 20
7.206947000198397
 30
0.0
  0
VERTEX
  5
530
  8
LAYER_1
 10
62.49660568267601
 20
7.166876000198386
 30
0.0
  0
VERTEX
  5
531
  8
LAYER_1
 10
62.47961268267601
 20
7.127148000198389
 30
0.0
  0
VERTEX
  5
532
  8
LAYER_1
 10
62.462329682676
 20
7.087765000198388
 30
0.0
  0
VERTEX
  5
533
  8
LAYER_1
 10
62.44475968267601
 20
7.048731000198387
 30
0.0
  0
VERTEX
  5
534
  8
LAYER_1
 10
62.426904682676
 20
7.010051000198388
 30
0.0
  0
VERTEX
  5
535
  8
LAYER_1
 10
62.408767682676
 20
6.971728000198397
 30
0.0
  0
VERTEX
  5
536
  8
LAYER_1
 10
62.390351682676
 20
6.933766000198389
 30
0.0
  0
VERTEX
  5
537
  8
LAYER_1
 10
62.371656682676
 20
6.896170000198396
 30
0.0
  0
VERTEX
  5
538
  8
LAYER_1
 10
62.35268768267601
 20
6.858943000198394
 30
0.0
  0
VERTEX
  5
539
  8
LAYER_1
 10
62.333446682676
 20
6.822089000198389
 30
0.0
  0
VERTEX
  5
53A
  8
LAYER_1
 10
62.31393468267601
 20
6.785612000198398
 30
0.0
  0
VERTEX
  5
53B
  8
LAYER_1
 10
62.29415568267601
 20
6.749516000198383
 30
0.0
  0
VERTEX
  5
53C
  8
LAYER_1
 10
62.27411168267601
 20
6.713805000198391
 30
0.0
  0
VERTEX
  5
53D
  8
LAYER_1
 10
62.25380468267601
 20
6.678482000198386
 30
0.0
  0
VERTEX
  5
53E
  8
LAYER_1
 10
62.23323768267601
 20
6.643553000198395
 30
0.0
  0
VERTEX
  5
53F
  8
LAYER_1
 10
62.212413682676
 20
6.609020000198399
 30
0.0
  0
VERTEX
  5
540
  8
LAYER_1
 10
62.191333682676
 20
6.574887000198402
 30
0.0
  0
VERTEX
  5
541
  8
LAYER_1
 10
62.170000682676
 20
6.541159000198391
 30
0.0
  0
VERTEX
  5
542
  8
LAYER_1
 10
62.148417682676
 20
6.507840000198399
 30
0.0
  0
VERTEX
  5
543
  8
LAYER_1
 10
62.12658668267601
 20
6.474933000198391
 30
0.0
  0
VERTEX
  5
544
  8
LAYER_1
 10
62.104509682676
 20
6.442442000198383
 30
0.0
  0
VERTEX
  5
545
  8
LAYER_1
 10
62.082190682676
 20
6.410371000198381
 30
0.0
  0
VERTEX
  5
546
  8
LAYER_1
 10
62.059630682676
 20
6.378725000198386
 30
0.0
  0
VERTEX
  5
547
  8
LAYER_1
 10
62.03683268267601
 20
6.347506000198393
 30
0.0
  0
VERTEX
  5
548
  8
LAYER_1
 10
62.013798682676
 20
6.316720000198387
 30
0.0
  0
VERTEX
  5
549
  8
LAYER_1
 10
61.99053168267601
 20
6.286370000198389
 30
0.0
  0
VERTEX
  5
54A
  8
LAYER_1
 10
61.967033682676
 20
6.25645900019839
 30
0.0
  0
VERTEX
  5
54B
  8
LAYER_1
 10
61.94330768267601
 20
6.226992000198393
 30
0.0
  0
VERTEX
  5
54C
  8
LAYER_1
 10
61.919356682676
 20
6.197973000198388
 30
0.0
  0
VERTEX
  5
54D
  8
LAYER_1
 10
61.895181682676
 20
6.169405000198395
 30
0.0
  0
VERTEX
  5
54E
  8
LAYER_1
 10
61.870785682676
 20
6.141293000198388
 30
0.0
  0
VERTEX
  5
54F
  8
LAYER_1
 10
61.846170682676
 20
6.113641000198385
 30
0.0
  0
VERTEX
  5
550
  8
LAYER_1
 10
61.82134068267601
 20
6.086452000198392
 30
0.0
  0
VERTEX
  5
551
  8
LAYER_1
 10
61.796296682676
 20
6.059730000198385
 30
0.0
  0
VERTEX
  5
552
  8
LAYER_1
 10
61.771040682676
 20
6.033479000198383
 30
0.0
  0
VERTEX
  5
553
  8
LAYER_1
 10
61.745577682676
 20
6.007704000198402
 30
0.0
  0
VERTEX
  5
554
  8
LAYER_1
 10
61.71990768267599
 20
5.98240800019839
 30
0.0
  0
VERTEX
  5
555
  8
LAYER_1
 10
61.69403368267601
 20
5.957595000198381
 30
0.0
  0
VERTEX
  5
556
  8
LAYER_1
 10
61.667958682676
 20
5.933269000198393
 30
0.0
  0
VERTEX
  5
557
  8
LAYER_1
 10
61.641684682676
 20
5.909433000198391
 30
0.0
  0
VERTEX
  5
558
  8
LAYER_1
 10
61.615214682676
 20
5.8860930001984
 30
0.0
  0
VERTEX
  5
559
  8
LAYER_1
 10
61.588550682676
 20
5.863251000198389
 30
0.0
  0
VERTEX
  5
55A
  8
LAYER_1
 10
61.561695682676
 20
5.840912000198387
 30
0.0
  0
VERTEX
  5
55B
  8
LAYER_1
 10
61.534650682676
 20
5.819080000198397
 30
0.0
  0
VERTEX
  5
55C
  8
LAYER_1
 10
61.507419682676
 20
5.797758000198399
 30
0.0
  0
VERTEX
  5
55D
  8
LAYER_1
 10
61.480004682676
 20
5.776951000198395
 30
0.0
  0
VERTEX
  5
55E
  8
LAYER_1
 10
61.45240768267601
 20
5.756661000198392
 30
0.0
  0
VERTEX
  5
55F
  8
LAYER_1
 10
61.42463168267601
 20
5.736895000198388
 30
0.0
  0
VERTEX
  5
560
  8
LAYER_1
 10
61.39667968267601
 20
5.717654000198394
 30
0.0
  0
VERTEX
  5
561
  8
LAYER_1
 10
61.36855268267601
 20
5.698944000198395
 30
0.0
  0
VERTEX
  5
562
  8
LAYER_1
 10
61.34025368267601
 20
5.680768000198384
 30
0.0
  0
VERTEX
  5
563
  8
LAYER_1
 10
61.311785682676
 20
5.663130000198393
 30
0.0
  0
VERTEX
  5
564
  8
LAYER_1
 10
61.28315068267601
 20
5.6460330001984
 30
0.0
  0
VERTEX
  5
565
  8
LAYER_1
 10
61.25435068267601
 20
5.629483000198391
 30
0.0
  0
VERTEX
  5
566
  8
LAYER_1
 10
61.22538968267601
 20
5.613483000198386
 30
0.0
  0
VERTEX
  5
567
  8
LAYER_1
 10
61.19626868267601
 20
5.598036000198391
 30
0.0
  0
VERTEX
  5
568
  8
LAYER_1
 10
61.166989682676
 20
5.583147000198394
 30
0.0
  0
VERTEX
  5
569
  8
LAYER_1
 10
61.137557682676
 20
5.568819000198388
 30
0.0
  0
VERTEX
  5
56A
  8
LAYER_1
 10
61.10797268267601
 20
5.555057000198389
 30
0.0
  0
VERTEX
  5
56B
  8
LAYER_1
 10
61.078237682676
 20
5.541864000198387
 30
0.0
  0
VERTEX
  5
56C
  8
LAYER_1
 10
61.048355682676
 20
5.529245000198387
 30
0.0
  0
VERTEX
  5
56D
  8
LAYER_1
 10
61.018328682676
 20
5.517203000198393
 30
0.0
  0
VERTEX
  5
56E
  8
LAYER_1
 10
60.988159682676
 20
5.505742000198381
 30
0.0
  0
VERTEX
  5
56F
  8
LAYER_1
 10
60.957850682676
 20
5.494867000198383
 30
0.0
  0
VERTEX
  5
570
  8
LAYER_1
 10
60.927403682676
 20
5.484580000198392
 30
0.0
  0
VERTEX
  5
571
  8
LAYER_1
 10
60.89682168267601
 20
5.474887000198393
 30
0.0
  0
VERTEX
  5
572
  8
LAYER_1
 10
60.866107682676
 20
5.465790000198382
 30
0.0
  0
VERTEX
  5
573
  8
LAYER_1
 10
60.835263682676
 20
5.457294000198388
 30
0.0
  0
VERTEX
  5
574
  8
LAYER_1
 10
60.80429168267601
 20
5.449403000198402
 30
0.0
  0
VERTEX
  5
575
  8
LAYER_1
 10
60.77319468267601
 20
5.442121000198398
 30
0.0
  0
VERTEX
  5
576
  8
LAYER_1
 10
60.741974682676
 20
5.435452000198381
 30
0.0
  0
VERTEX
  5
577
  8
LAYER_1
 10
60.710634682676
 20
5.429399000198401
 30
0.0
  0
VERTEX
  5
578
  8
LAYER_1
 10
60.679176682676
 20
5.423966000198391
 30
0.0
  0
VERTEX
  5
579
  8
LAYER_1
 10
60.64760368267601
 20
5.419158000198394
 30
0.0
  0
VERTEX
  5
57A
  8
LAYER_1
 10
60.615917682676
 20
5.414978000198388
 30
0.0
  0
VERTEX
  5
57B
  8
LAYER_1
 10
60.584120682676
 20
5.411431000198391
 30
0.0
  0
VERTEX
  5
57C
  8
LAYER_1
 10
60.552216682676
 20
5.408519000198396
 30
0.0
  0
VERTEX
  5
57D
  8
LAYER_1
 10
60.52020568267601
 20
5.406248000198389
 30
0.0
  0
VERTEX
  5
57E
  8
LAYER_1
 10
60.48809268267601
 20
5.404621000198389
 30
0.0
  0
VERTEX
  5
57F
  8
LAYER_1
 10
60.455878682676
 20
5.403642000198388
 30
0.0
  0
VERTEX
  5
580
  8
LAYER_1
 10
60.42356668267601
 20
5.403314000198392
 30
0.0
  0
VERTEX
  5
581
  8
LAYER_1
 10
60.39125468267601
 20
5.403642000198388
 30
0.0
  0
VERTEX
  5
582
  8
LAYER_1
 10
60.35904068267601
 20
5.404621000198389
 30
0.0
  0
VERTEX
  5
583
  8
LAYER_1
 10
60.326926682676
 20
5.406248000198389
 30
0.0
  0
VERTEX
  5
584
  8
LAYER_1
 10
60.294916682676
 20
5.408519000198396
 30
0.0
  0
VERTEX
  5
585
  8
LAYER_1
 10
60.26301268267601
 20
5.411431000198391
 30
0.0
  0
VERTEX
  5
586
  8
LAYER_1
 10
60.23121568267601
 20
5.414978000198388
 30
0.0
  0
VERTEX
  5
587
  8
LAYER_1
 10
60.199529682676
 20
5.419158000198394
 30
0.0
  0
VERTEX
  5
588
  8
LAYER_1
 10
60.16795568267601
 20
5.423966000198391
 30
0.0
  0
VERTEX
  5
589
  8
LAYER_1
 10
60.13649768267601
 20
5.429399000198401
 30
0.0
  0
VERTEX
  5
58A
  8
LAYER_1
 10
60.10515768267601
 20
5.435452000198381
 30
0.0
  0
VERTEX
  5
58B
  8
LAYER_1
 10
60.073938682676
 20
5.442121000198398
 30
0.0
  0
VERTEX
  5
58C
  8
LAYER_1
 10
60.042840682676
 20
5.449403000198402
 30
0.0
  0
VERTEX
  5
58D
  8
LAYER_1
 10
60.01186968267601
 20
5.457294000198388
 30
0.0
  0
VERTEX
  5
58E
  8
LAYER_1
 10
59.98102468267601
 20
5.465790000198382
 30
0.0
  0
VERTEX
  5
58F
  8
LAYER_1
 10
59.950310682676
 20
5.474887000198393
 30
0.0
  0
VERTEX
  5
590
  8
LAYER_1
 10
59.91972968267601
 20
5.484580000198392
 30
0.0
  0
VERTEX
  5
591
  8
LAYER_1
 10
59.889282682676
 20
5.494867000198383
 30
0.0
  0
VERTEX
  5
592
  8
LAYER_1
 10
59.85897368267601
 20
5.505742000198381
 30
0.0
  0
VERTEX
  5
593
  8
LAYER_1
 10
59.82880468267601
 20
5.517203000198393
 30
0.0
  0
VERTEX
  5
594
  8
LAYER_1
 10
59.798777682676
 20
5.529245000198387
 30
0.0
  0
VERTEX
  5
595
  8
LAYER_1
 10
59.768895682676
 20
5.541864000198387
 30
0.0
  0
VERTEX
  5
596
  8
LAYER_1
 10
59.739160682676
 20
5.555057000198389
 30
0.0
  0
VERTEX
  5
597
  8
LAYER_1
 10
59.709575682676
 20
5.568819000198388
 30
0.0
  0
VERTEX
  5
598
  8
LAYER_1
 10
59.68014268267601
 20
5.583147000198394
 30
0.0
  0
VERTEX
  5
599
  8
LAYER_1
 10
59.650864682676
 20
5.598036000198391
 30
0.0
  0
VERTEX
  5
59A
  8
LAYER_1
 10
59.621743682676
 20
5.613483000198386
 30
0.0
  0
VERTEX
  5
59B
  8
LAYER_1
 10
59.592782682676
 20
5.629483000198391
 30
0.0
  0
VERTEX
  5
59C
  8
LAYER_1
 10
59.563982682676
 20
5.6460330001984
 30
0.0
  0
VERTEX
  5
59D
  8
LAYER_1
 10
59.535347682676
 20
5.663130000198393
 30
0.0
  0
VERTEX
  5
59E
  8
LAYER_1
 10
59.506879682676
 20
5.680768000198384
 30
0.0
  0
VERTEX
  5
59F
  8
LAYER_1
 10
59.47858068267601
 20
5.698944000198395
 30
0.0
  0
VERTEX
  5
5A0
  8
LAYER_1
 10
59.450453682676
 20
5.717654000198394
 30
0.0
  0
VERTEX
  5
5A1
  8
LAYER_1
 10
59.422500682676
 20
5.736895000198388
 30
0.0
  0
VERTEX
  5
5A2
  8
LAYER_1
 10
59.394724682676
 20
5.756661000198392
 30
0.0
  0
VERTEX
  5
5A3
  8
LAYER_1
 10
59.367128682676
 20
5.776951000198395
 30
0.0
  0
VERTEX
  5
5A4
  8
LAYER_1
 10
59.33971268267601
 20
5.797758000198399
 30
0.0
  0
VERTEX
  5
5A5
  8
LAYER_1
 10
59.31248168267601
 20
5.819080000198397
 30
0.0
  0
VERTEX
  5
5A6
  8
LAYER_1
 10
59.285437682676
 20
5.840912000198387
 30
0.0
  0
VERTEX
  5
5A7
  8
LAYER_1
 10
59.25858168267601
 20
5.863251000198389
 30
0.0
  0
VERTEX
  5
5A8
  8
LAYER_1
 10
59.231917682676
 20
5.8860930001984
 30
0.0
  0
VERTEX
  5
5A9
  8
LAYER_1
 10
59.20544768267601
 20
5.909433000198391
 30
0.0
  0
VERTEX
  5
5AA
  8
LAYER_1
 10
59.17917468267601
 20
5.933269000198393
 30
0.0
  0
VERTEX
  5
5AB
  8
LAYER_1
 10
59.153099682676
 20
5.957595000198381
 30
0.0
  0
VERTEX
  5
5AC
  8
LAYER_1
 10
59.127225682676
 20
5.98240800019839
 30
0.0
  0
VERTEX
  5
5AD
  8
LAYER_1
 10
59.10155568267601
 20
6.007704000198402
 30
0.0
  0
VERTEX
  5
5AE
  8
LAYER_1
 10
59.07609168267601
 20
6.033479000198383
 30
0.0
  0
VERTEX
  5
5AF
  8
LAYER_1
 10
59.05083668267601
 20
6.059730000198385
 30
0.0
  0
VERTEX
  5
5B0
  8
LAYER_1
 10
59.025792682676
 20
6.086452000198392
 30
0.0
  0
VERTEX
  5
5B1
  8
LAYER_1
 10
59.000962682676
 20
6.113641000198385
 30
0.0
  0
VERTEX
  5
5B2
  8
LAYER_1
 10
58.97634768267601
 20
6.141293000198388
 30
0.0
  0
VERTEX
  5
5B3
  8
LAYER_1
 10
58.951951682676
 20
6.169405000198395
 30
0.0
  0
VERTEX
  5
5B4
  8
LAYER_1
 10
58.92777668267601
 20
6.197973000198388
 30
0.0
  0
VERTEX
  5
5B5
  8
LAYER_1
 10
58.903824682676
 20
6.226992000198393
 30
0.0
  0
VERTEX
  5
5B6
  8
LAYER_1
 10
58.88009868267601
 20
6.25645900019839
 30
0.0
  0
VERTEX
  5
5B7
  8
LAYER_1
 10
58.856601682676
 20
6.286370000198389
 30
0.0
  0
VERTEX
  5
5B8
  8
LAYER_1
 10
58.833334682676
 20
6.316720000198387
 30
0.0
  0
VERTEX
  5
5B9
  8
LAYER_1
 10
58.810300682676
 20
6.347506000198393
 30
0.0
  0
VERTEX
  5
5BA
  8
LAYER_1
 10
58.78750268267601
 20
6.378725000198386
 30
0.0
  0
VERTEX
  5
5BB
  8
LAYER_1
 10
58.76494268267601
 20
6.410371000198381
 30
0.0
  0
VERTEX
  5
5BC
  8
LAYER_1
 10
58.742622682676
 20
6.442442000198383
 30
0.0
  0
VERTEX
  5
5BD
  8
LAYER_1
 10
58.720546682676
 20
6.474933000198391
 30
0.0
  0
VERTEX
  5
5BE
  8
LAYER_1
 10
58.69871568267601
 20
6.507840000198399
 30
0.0
  0
VERTEX
  5
5BF
  8
LAYER_1
 10
58.677132682676
 20
6.541159000198391
 30
0.0
  0
VERTEX
  5
5C0
  8
LAYER_1
 10
58.655799682676
 20
6.574887000198402
 30
0.0
  0
VERTEX
  5
5C1
  8
LAYER_1
 10
58.63471968267601
 20
6.609020000198399
 30
0.0
  0
VERTEX
  5
5C2
  8
LAYER_1
 10
58.613894682676
 20
6.643553000198395
 30
0.0
  0
VERTEX
  5
5C3
  8
LAYER_1
 10
58.593327682676
 20
6.678482000198386
 30
0.0
  0
VERTEX
  5
5C4
  8
LAYER_1
 10
58.573021682676
 20
6.713805000198391
 30
0.0
  0
VERTEX
  5
5C5
  8
LAYER_1
 10
58.552976682676
 20
6.749516000198383
 30
0.0
  0
VERTEX
  5
5C6
  8
LAYER_1
 10
58.533197682676
 20
6.785612000198398
 30
0.0
  0
VERTEX
  5
5C7
  8
LAYER_1
 10
58.513686682676
 20
6.822089000198389
 30
0.0
  0
VERTEX
  5
5C8
  8
LAYER_1
 10
58.494444682676
 20
6.858943000198394
 30
0.0
  0
VERTEX
  5
5C9
  8
LAYER_1
 10
58.47547568267601
 20
6.896170000198396
 30
0.0
  0
VERTEX
  5
5CA
  8
LAYER_1
 10
58.45678168267601
 20
6.933766000198389
 30
0.0
  0
VERTEX
  5
5CB
  8
LAYER_1
 10
58.438364682676
 20
6.971728000198397
 30
0.0
  0
VERTEX
  5
5CC
  8
LAYER_1
 10
58.420227682676
 20
7.010051000198388
 30
0.0
  0
VERTEX
  5
5CD
  8
LAYER_1
 10
58.402373682676
 20
7.048731000198387
 30
0.0
  0
VERTEX
  5
5CE
  8
LAYER_1
 10
58.38480368267601
 20
7.087765000198388
 30
0.0
  0
VERTEX
  5
5CF
  8
LAYER_1
 10
58.367520682676
 20
7.127148000198389
 30
0.0
  0
VERTEX
  5
5D0
  8
LAYER_1
 10
58.350527682676
 20
7.166876000198386
 30
0.0
  0
VERTEX
  5
5D1
  8
LAYER_1
 10
58.33382568267601
 20
7.206947000198397
 30
0.0
  0
VERTEX
  5
5D2
  8
LAYER_1
 10
58.317419682676
 20
7.247355000198382
 30
0.0
  0
VERTEX
  5
5D3
  8
LAYER_1
 10
58.30130968267601
 20
7.288097000198391
 30
0.0
  0
VERTEX
  5
5D4
  8
LAYER_1
 10
58.285499682676
 20
7.329169000198391
 30
0.0
  0
VERTEX
  5
5D5
  8
LAYER_1
 10
58.26999168267601
 20
7.370567000198392
 30
0.0
  0
VERTEX
  5
5D6
  8
LAYER_1
 10
58.25478768267601
 20
7.41228700019839
 30
0.0
  0
VERTEX
  5
5D7
  8
LAYER_1
 10
58.23989068267601
 20
7.454325000198395
 30
0.0
  0
VERTEX
  5
5D8
  8
LAYER_1
 10
58.225302682676
 20
7.496677000198389
 30
0.0
  0
VERTEX
  5
5D9
  8
LAYER_1
 10
58.21102668267601
 20
7.539339000198396
 30
0.0
  0
VERTEX
  5
5DA
  8
LAYER_1
 10
58.197064682676
 20
7.582308000198395
 30
0.0
  0
VERTEX
  5
5DB
  8
LAYER_1
 10
58.183419682676
 20
7.6255790001984
 30
0.0
  0
VERTEX
  5
5DC
  8
LAYER_1
 10
58.170093682676
 20
7.669149000198388
 30
0.0
  0
VERTEX
  5
5DD
  8
LAYER_1
 10
58.157088682676
 20
7.713013000198401
 30
0.0
  0
VERTEX
  5
5DE
  8
LAYER_1
 10
58.144408682676
 20
7.757168000198391
 30
0.0
  0
VERTEX
  5
5DF
  8
LAYER_1
 10
58.132054682676
 20
7.801610000198394
 30
0.0
  0
VERTEX
  5
5E0
  8
LAYER_1
 10
58.12002868267601
 20
7.846334000198397
 30
0.0
  0
VERTEX
  5
5E1
  8
LAYER_1
 10
58.108334682676
 20
7.891337000198391
 30
0.0
  0
VERTEX
  5
5E2
  8
LAYER_1
 10
58.09697468267601
 20
7.936615000198401
 30
0.0
  0
VERTEX
  5
5E3
  8
LAYER_1
 10
58.085950682676
 20
7.982164000198395
 30
0.0
  0
VERTEX
  5
5E4
  8
LAYER_1
 10
58.075265682676
 20
8.027980000198397
 30
0.0
  0
VERTEX
  5
5E5
  8
LAYER_1
 10
58.064921682676
 20
8.074060000198386
 30
0.0
  0
VERTEX
  5
5E6
  8
LAYER_1
 10
58.054921682676
 20
8.120398000198392
 30
0.0
  0
VERTEX
  5
5E7
  8
LAYER_1
 10
58.045267682676
 20
8.166992000198391
 30
0.0
  0
VERTEX
  5
5E8
  8
LAYER_1
 10
58.035961682676
 20
8.213837000198396
 30
0.0
  0
VERTEX
  5
5E9
  8
LAYER_1
 10
58.027006682676
 20
8.260929000198388
 30
0.0
  0
VERTEX
  5
5EA
  8
LAYER_1
 10
58.018405682676
 20
8.30826500019839
 30
0.0
  0
VERTEX
  5
5EB
  8
LAYER_1
 10
58.010159682676
 20
8.355841000198382
 30
0.0
  0
VERTEX
  5
5EC
  8
LAYER_1
 10
58.00227268267601
 20
8.403652000198392
 30
0.0
  0
VERTEX
  5
5ED
  8
LAYER_1
 10
57.99474668267601
 20
8.451695000198384
 30
0.0
  0
VERTEX
  5
5EE
  8
LAYER_1
 10
57.987583682676
 20
8.499966000198384
 30
0.0
  0
VERTEX
  5
5EF
  8
LAYER_1
 10
57.98078668267601
 20
8.54846000019839
 30
0.0
  0
VERTEX
  5
5F0
  8
LAYER_1
 10
57.974357682676
 20
8.59717500019839
 30
0.0
  0
VERTEX
  5
5F1
  8
LAYER_1
 10
57.968299682676
 20
8.646106000198387
 30
0.0
  0
VERTEX
  5
5F2
  8
LAYER_1
 10
57.96261368267601
 20
8.69524800019839
 30
0.0
  0
VERTEX
  5
5F3
  8
LAYER_1
 10
57.957303682676
 20
8.744599000198392
 30
0.0
  0
VERTEX
  5
5F4
  8
LAYER_1
 10
57.952371682676
 20
8.79415400019839
 30
0.0
  0
VERTEX
  5
5F5
  8
LAYER_1
 10
57.947820682676
 20
8.843909000198394
 30
0.0
  0
VERTEX
  5
5F6
  8
LAYER_1
 10
57.943652682676
 20
8.893861000198399
 30
0.0
  0
VERTEX
  5
5F7
  8
LAYER_1
 10
57.93986868267601
 20
8.944005000198388
 30
0.0
  0
VERTEX
  5
5F8
  8
LAYER_1
 10
57.93647368267601
 20
8.994338000198383
 30
0.0
  0
VERTEX
  5
5F9
  8
LAYER_1
 10
57.93346868267601
 20
9.044855000198396
 30
0.0
  0
VERTEX
  5
5FA
  8
LAYER_1
 10
57.93085668267601
 20
9.095553000198393
 30
0.0
  0
VERTEX
  5
5FB
  8
LAYER_1
 10
57.92863868267601
 20
9.146428000198398
 30
0.0
  0
VERTEX
  5
5FC
  8
LAYER_1
 10
57.92681968267601
 20
9.197475000198395
 30
0.0
  0
VERTEX
  5
5FD
  8
LAYER_1
 10
57.925399682676
 20
9.248691000198392
 30
0.0
  0
VERTEX
  5
5FE
  8
LAYER_1
 10
57.924382682676
 20
9.300073000198381
 30
0.0
  0
VERTEX
  5
5FF
  8
LAYER_1
 10
57.92377068267601
 20
9.351615000198393
 30
0.0
  0
VERTEX
  5
600
  8
LAYER_1
 10
57.92356668267601
 20
9.403314000198392
 30
0.0
  0
VERTEX
  5
601
  8
LAYER_1
 10
57.92377068267601
 20
9.45501400019839
 30
0.0
  0
VERTEX
  5
602
  8
LAYER_1
 10
57.924382682676
 20
9.506556000198401
 30
0.0
  0
VERTEX
  5
603
  8
LAYER_1
 10
57.925399682676
 20
9.55793800019839
 30
0.0
  0
VERTEX
  5
604
  8
LAYER_1
 10
57.92681968267601
 20
9.609154000198401
 30
0.0
  0
VERTEX
  5
605
  8
LAYER_1
 10
57.92863868267601
 20
9.660201000198384
 30
0.0
  0
VERTEX
  5
606
  8
LAYER_1
 10
57.93085668267601
 20
9.71107600019839
 30
0.0
  0
VERTEX
  5
607
  8
LAYER_1
 10
57.93346868267601
 20
9.761774000198386
 30
0.0
  0
VERTEX
  5
608
  8
LAYER_1
 10
57.93647368267601
 20
9.8122910001984
 30
0.0
  0
VERTEX
  5
609
  8
LAYER_1
 10
57.93986868267601
 20
9.862624000198394
 30
0.0
  0
VERTEX
  5
60A
  8
LAYER_1
 10
57.943652682676
 20
9.912768000198383
 30
0.0
  0
VERTEX
  5
60B
  8
LAYER_1
 10
57.947820682676
 20
9.962720000198388
 30
0.0
  0
VERTEX
  5
60C
  8
LAYER_1
 10
57.952371682676
 20
10.01247500019839
 30
0.0
  0
VERTEX
  5
60D
  8
LAYER_1
 10
57.957303682676
 20
10.06203000019839
 30
0.0
  0
VERTEX
  5
60E
  8
LAYER_1
 10
57.96261368267601
 20
10.11138100019839
 30
0.0
  0
VERTEX
  5
60F
  8
LAYER_1
 10
57.968299682676
 20
10.1605230001984
 30
0.0
  0
VERTEX
  5
610
  8
LAYER_1
 10
57.974357682676
 20
10.20945400019839
 30
0.0
  0
VERTEX
  5
611
  8
LAYER_1
 10
57.98078668267601
 20
10.25816900019839
 30
0.0
  0
VERTEX
  5
612
  8
LAYER_1
 10
57.987583682676
 20
10.3066630001984
 30
0.0
  0
VERTEX
  5
613
  8
LAYER_1
 10
57.99474668267601
 20
10.3549340001984
 30
0.0
  0
VERTEX
  5
614
  8
LAYER_1
 10
58.00227268267601
 20
10.40297700019839
 30
0.0
  0
VERTEX
  5
615
  8
LAYER_1
 10
58.010159682676
 20
10.4507880001984
 30
0.0
  0
VERTEX
  5
616
  8
LAYER_1
 10
58.018405682676
 20
10.49836400019839
 30
0.0
  0
VERTEX
  5
617
  8
LAYER_1
 10
58.027006682676
 20
10.54570000019839
 30
0.0
  0
VERTEX
  5
618
  8
LAYER_1
 10
58.035961682676
 20
10.59279200019839
 30
0.0
  0
VERTEX
  5
619
  8
LAYER_1
 10
58.045267682676
 20
10.63963700019839
 30
0.0
  0
VERTEX
  5
61A
  8
LAYER_1
 10
58.054921682676
 20
10.68623100019839
 30
0.0
  0
VERTEX
  5
61B
  8
LAYER_1
 10
58.064921682676
 20
10.7325690001984
 30
0.0
  0
VERTEX
  5
61C
  8
LAYER_1
 10
58.075265682676
 20
10.77864900019839
 30
0.0
  0
VERTEX
  5
61D
  8
LAYER_1
 10
58.085950682676
 20
10.82446500019839
 30
0.0
  0
VERTEX
  5
61E
  8
LAYER_1
 10
58.09697468267601
 20
10.87001400019838
 30
0.0
  0
VERTEX
  5
61F
  8
LAYER_1
 10
58.108334682676
 20
10.91529200019839
 30
0.0
  0
VERTEX
  5
620
  8
LAYER_1
 10
58.12002868267601
 20
10.96029500019839
 30
0.0
  0
VERTEX
  5
621
  8
LAYER_1
 10
58.132054682676
 20
11.00501900019839
 30
0.0
  0
VERTEX
  5
622
  8
LAYER_1
 10
58.144408682676
 20
11.04946100019839
 30
0.0
  0
VERTEX
  5
623
  8
LAYER_1
 10
58.157088682676
 20
11.09361600019839
 30
0.0
  0
VERTEX
  5
624
  8
LAYER_1
 10
58.170093682676
 20
11.13748000019839
 30
0.0
  0
VERTEX
  5
625
  8
LAYER_1
 10
58.183419682676
 20
11.18105000019838
 30
0.0
  0
VERTEX
  5
626
  8
LAYER_1
 10
58.197064682676
 20
11.22432100019839
 30
0.0
  0
VERTEX
  5
627
  8
LAYER_1
 10
58.21102668267601
 20
11.26729000019839
 30
0.0
  0
VERTEX
  5
628
  8
LAYER_1
 10
58.225302682676
 20
11.30995200019839
 30
0.0
  0
VERTEX
  5
629
  8
LAYER_1
 10
58.23989068267601
 20
11.35230400019839
 30
0.0
  0
VERTEX
  5
62A
  8
LAYER_1
 10
58.25478768267601
 20
11.39434200019839
 30
0.0
  0
VERTEX
  5
62B
  8
LAYER_1
 10
58.26999168267601
 20
11.43606200019839
 30
0.0
  0
VERTEX
  5
62C
  8
LAYER_1
 10
58.285499682676
 20
11.47746000019839
 30
0.0
  0
VERTEX
  5
62D
  8
LAYER_1
 10
58.30130968267601
 20
11.51853200019839
 30
0.0
  0
VERTEX
  5
62E
  8
LAYER_1
 10
58.317419682676
 20
11.5592740001984
 30
0.0
  0
VERTEX
  5
62F
  8
LAYER_1
 10
58.33382568267601
 20
11.59968200019838
 30
0.0
  0
VERTEX
  5
630
  8
LAYER_1
 10
58.350527682676
 20
11.6397530001984
 30
0.0
  0
VERTEX
  5
631
  8
LAYER_1
 10
58.367520682676
 20
11.67948100019839
 30
0.0
  0
VERTEX
  5
632
  8
LAYER_1
 10
58.38480368267601
 20
11.71886400019839
 30
0.0
  0
VERTEX
  5
633
  8
LAYER_1
 10
58.402373682676
 20
11.7578980001984
 30
0.0
  0
VERTEX
  5
634
  8
LAYER_1
 10
58.420227682676
 20
11.79657800019839
 30
0.0
  0
VERTEX
  5
635
  8
LAYER_1
 10
58.438364682676
 20
11.83490100019839
 30
0.0
  0
VERTEX
  5
636
  8
LAYER_1
 10
58.45678168267601
 20
11.87286300019839
 30
0.0
  0
VERTEX
  5
637
  8
LAYER_1
 10
58.47547568267601
 20
11.91045900019839
 30
0.0
  0
VERTEX
  5
638
  8
LAYER_1
 10
58.494444682676
 20
11.94768600019839
 30
0.0
  0
VERTEX
  5
639
  8
LAYER_1
 10
58.513686682676
 20
11.98454000019839
 30
0.0
  0
VERTEX
  5
63A
  8
LAYER_1
 10
58.533197682676
 20
12.02101700019838
 30
0.0
  0
VERTEX
  5
63B
  8
LAYER_1
 10
58.552976682676
 20
12.0571130001984
 30
0.0
  0
VERTEX
  5
63C
  8
LAYER_1
 10
58.573021682676
 20
12.09282400019839
 30
0.0
  0
VERTEX
  5
63D
  8
LAYER_1
 10
58.593327682676
 20
12.1281470001984
 30
0.0
  0
VERTEX
  5
63E
  8
LAYER_1
 10
58.613894682676
 20
12.1630760001984
 30
0.0
  0
VERTEX
  5
63F
  8
LAYER_1
 10
58.63471968267601
 20
12.19760900019838
 30
0.0
  0
VERTEX
  5
640
  8
LAYER_1
 10
58.655799682676
 20
12.23174200019839
 30
0.0
  0
VERTEX
  5
641
  8
LAYER_1
 10
58.677132682676
 20
12.26547000019839
 30
0.0
  0
VERTEX
  5
642
  8
LAYER_1
 10
58.69871568267601
 20
12.29878900019838
 30
0.0
  0
VERTEX
  5
643
  8
LAYER_1
 10
58.720546682676
 20
12.33169600019839
 30
0.0
  0
VERTEX
  5
644
  8
LAYER_1
 10
58.742622682676
 20
12.3641870001984
 30
0.0
  0
VERTEX
  5
645
  8
LAYER_1
 10
58.76494268267601
 20
12.3962580001984
 30
0.0
  0
VERTEX
  5
646
  8
LAYER_1
 10
58.78750268267601
 20
12.4279040001984
 30
0.0
  0
VERTEX
  5
647
  8
LAYER_1
 10
58.810300682676
 20
12.45912300019839
 30
0.0
  0
VERTEX
  5
648
  8
LAYER_1
 10
58.833334682676
 20
12.4899090001984
 30
0.0
  0
VERTEX
  5
649
  8
LAYER_1
 10
58.856601682676
 20
12.52025900019839
 30
0.0
  0
VERTEX
  5
64A
  8
LAYER_1
 10
58.88009868267601
 20
12.55017000019839
 30
0.0
  0
VERTEX
  5
64B
  8
LAYER_1
 10
58.903824682676
 20
12.57963700019839
 30
0.0
  0
VERTEX
  5
64C
  8
LAYER_1
 10
58.92777668267601
 20
12.60865600019839
 30
0.0
  0
VERTEX
  5
64D
  8
LAYER_1
 10
58.951951682676
 20
12.63722400019839
 30
0.0
  0
VERTEX
  5
64E
  8
LAYER_1
 10
58.97634768267601
 20
12.66533600019839
 30
0.0
  0
VERTEX
  5
64F
  8
LAYER_1
 10
59.000962682676
 20
12.6929880001984
 30
0.0
  0
VERTEX
  5
650
  8
LAYER_1
 10
59.025792682676
 20
12.72017700019839
 30
0.0
  0
VERTEX
  5
651
  8
LAYER_1
 10
59.05083668267601
 20
12.7468990001984
 30
0.0
  0
VERTEX
  5
652
  8
LAYER_1
 10
59.07609168267601
 20
12.7731500001984
 30
0.0
  0
VERTEX
  5
653
  8
LAYER_1
 10
59.10155568267601
 20
12.79892500019839
 30
0.0
  0
VERTEX
  5
654
  8
LAYER_1
 10
59.127225682676
 20
12.82422100019839
 30
0.0
  0
VERTEX
  5
655
  8
LAYER_1
 10
59.153099682676
 20
12.8490340001984
 30
0.0
  0
VERTEX
  5
656
  8
LAYER_1
 10
59.17917468267601
 20
12.87336000019839
 30
0.0
  0
VERTEX
  5
657
  8
LAYER_1
 10
59.20544768267601
 20
12.89719600019839
 30
0.0
  0
VERTEX
  5
658
  8
LAYER_1
 10
59.231917682676
 20
12.92053600019838
 30
0.0
  0
VERTEX
  5
659
  8
LAYER_1
 10
59.25858168267601
 20
12.94337800019839
 30
0.0
  0
VERTEX
  5
65A
  8
LAYER_1
 10
59.285437682676
 20
12.9657170001984
 30
0.0
  0
VERTEX
  5
65B
  8
LAYER_1
 10
59.31248168267601
 20
12.98754900019838
 30
0.0
  0
VERTEX
  5
65C
  8
LAYER_1
 10
59.33971268267601
 20
13.00887100019838
 30
0.0
  0
VERTEX
  5
65D
  8
LAYER_1
 10
59.367128682676
 20
13.0296780001984
 30
0.0
  0
VERTEX
  5
65E
  8
LAYER_1
 10
59.394724682676
 20
13.04996700019839
 30
0.0
  0
VERTEX
  5
65F
  8
LAYER_1
 10
59.422500682676
 20
13.06973400019839
 30
0.0
  0
VERTEX
  5
660
  8
LAYER_1
 10
59.450453682676
 20
13.08897500019839
 30
0.0
  0
VERTEX
  5
661
  8
LAYER_1
 10
59.47858068267601
 20
13.10768500019839
 30
0.0
  0
VERTEX
  5
662
  8
LAYER_1
 10
59.506879682676
 20
13.1258610001984
 30
0.0
  0
VERTEX
  5
663
  8
LAYER_1
 10
59.535347682676
 20
13.14349900019839
 30
0.0
  0
VERTEX
  5
664
  8
LAYER_1
 10
59.563982682676
 20
13.16059600019838
 30
0.0
  0
VERTEX
  5
665
  8
LAYER_1
 10
59.592782682676
 20
13.17714600019839
 30
0.0
  0
VERTEX
  5
666
  8
LAYER_1
 10
59.621743682676
 20
13.1931460001984
 30
0.0
  0
VERTEX
  5
667
  8
LAYER_1
 10
59.650864682676
 20
13.20859300019839
 30
0.0
  0
VERTEX
  5
668
  8
LAYER_1
 10
59.68014268267601
 20
13.2234820001984
 30
0.0
  0
VERTEX
  5
669
  8
LAYER_1
 10
59.709575682676
 20
13.23781000019839
 30
0.0
  0
VERTEX
  5
66A
  8
LAYER_1
 10
59.739160682676
 20
13.25157200019839
 30
0.0
  0
VERTEX
  5
66B
  8
LAYER_1
 10
59.768895682676
 20
13.26476500019839
 30
0.0
  0
VERTEX
  5
66C
  8
LAYER_1
 10
59.798777682676
 20
13.2773840001984
 30
0.0
  0
VERTEX
  5
66D
  8
LAYER_1
 10
59.82880468267601
 20
13.28942600019839
 30
0.0
  0
VERTEX
  5
66E
  8
LAYER_1
 10
59.85897368267601
 20
13.3008870001984
 30
0.0
  0
VERTEX
  5
66F
  8
LAYER_1
 10
59.889282682676
 20
13.3117620001984
 30
0.0
  0
VERTEX
  5
670
  8
LAYER_1
 10
59.91972968267601
 20
13.32204900019839
 30
0.0
  0
VERTEX
  5
671
  8
LAYER_1
 10
59.950310682676
 20
13.33174200019839
 30
0.0
  0
VERTEX
  5
672
  8
LAYER_1
 10
59.98102468267601
 20
13.3408390001984
 30
0.0
  0
VERTEX
  5
673
  8
LAYER_1
 10
60.01186968267601
 20
13.34933500019839
 30
0.0
  0
VERTEX
  5
674
  8
LAYER_1
 10
60.042840682676
 20
13.35722500019838
 30
0.0
  0
VERTEX
  5
675
  8
LAYER_1
 10
60.073938682676
 20
13.36450800019838
 30
0.0
  0
VERTEX
  5
676
  8
LAYER_1
 10
60.10515768267601
 20
13.3711770001984
 30
0.0
  0
VERTEX
  5
677
  8
LAYER_1
 10
60.13649768267601
 20
13.3772300001984
 30
0.0
  0
VERTEX
  5
678
  8
LAYER_1
 10
60.16795568267601
 20
13.38266300019839
 30
0.0
  0
VERTEX
  5
679
  8
LAYER_1
 10
60.199529682676
 20
13.38747100019839
 30
0.0
  0
VERTEX
  5
67A
  8
LAYER_1
 10
60.23121568267601
 20
13.39165100019839
 30
0.0
  0
VERTEX
  5
67B
  8
LAYER_1
 10
60.26301268267601
 20
13.39519800019839
 30
0.0
  0
VERTEX
  5
67C
  8
LAYER_1
 10
60.294916682676
 20
13.39811000019839
 30
0.0
  0
VERTEX
  5
67D
  8
LAYER_1
 10
60.326926682676
 20
13.40038100019839
 30
0.0
  0
VERTEX
  5
67E
  8
LAYER_1
 10
60.35904068267601
 20
13.40200800019839
 30
0.0
  0
VERTEX
  5
67F
  8
LAYER_1
 10
60.39125468267601
 20
13.40298700019839
 30
0.0
  0
VERTEX
  5
680
  8
LAYER_1
 10
60.42356668267601
 20
13.40331400019839
 30
0.0
  0
VERTEX
  5
681
  8
LAYER_1
 10
60.455878682676
 20
13.40298700019839
 30
0.0
  0
VERTEX
  5
682
  8
LAYER_1
 10
60.48809268267601
 20
13.40200800019839
 30
0.0
  0
VERTEX
  5
683
  8
LAYER_1
 10
60.52020568267601
 20
13.40038100019839
 30
0.0
  0
VERTEX
  5
684
  8
LAYER_1
 10
60.552216682676
 20
13.39811000019839
 30
0.0
  0
VERTEX
  5
685
  8
LAYER_1
 10
60.584120682676
 20
13.39519800019839
 30
0.0
  0
VERTEX
  5
686
  8
LAYER_1
 10
60.615917682676
 20
13.39165100019839
 30
0.0
  0
VERTEX
  5
687
  8
LAYER_1
 10
60.64760368267601
 20
13.38747100019839
 30
0.0
  0
VERTEX
  5
688
  8
LAYER_1
 10
60.679176682676
 20
13.38266300019839
 30
0.0
  0
VERTEX
  5
689
  8
LAYER_1
 10
60.710634682676
 20
13.3772300001984
 30
0.0
  0
VERTEX
  5
68A
  8
LAYER_1
 10
60.741974682676
 20
13.3711770001984
 30
0.0
  0
VERTEX
  5
68B
  8
LAYER_1
 10
60.77319468267601
 20
13.36450800019838
 30
0.0
  0
VERTEX
  5
68C
  8
LAYER_1
 10
60.80429168267601
 20
13.35722500019838
 30
0.0
  0
VERTEX
  5
68D
  8
LAYER_1
 10
60.835263682676
 20
13.34933500019839
 30
0.0
  0
VERTEX
  5
68E
  8
LAYER_1
 10
60.866107682676
 20
13.3408390001984
 30
0.0
  0
VERTEX
  5
68F
  8
LAYER_1
 10
60.89682168267601
 20
13.33174200019839
 30
0.0
  0
VERTEX
  5
690
  8
LAYER_1
 10
60.927403682676
 20
13.32204900019839
 30
0.0
  0
VERTEX
  5
691
  8
LAYER_1
 10
60.957850682676
 20
13.3117620001984
 30
0.0
  0
VERTEX
  5
692
  8
LAYER_1
 10
60.988159682676
 20
13.3008870001984
 30
0.0
  0
VERTEX
  5
693
  8
LAYER_1
 10
61.018328682676
 20
13.28942600019839
 30
0.0
  0
VERTEX
  5
694
  8
LAYER_1
 10
61.048355682676
 20
13.2773840001984
 30
0.0
  0
VERTEX
  5
695
  8
LAYER_1
 10
61.078237682676
 20
13.26476500019839
 30
0.0
  0
VERTEX
  5
696
  8
LAYER_1
 10
61.10797268267601
 20
13.25157200019839
 30
0.0
  0
VERTEX
  5
697
  8
LAYER_1
 10
61.137557682676
 20
13.23781000019839
 30
0.0
  0
VERTEX
  5
698
  8
LAYER_1
 10
61.166989682676
 20
13.2234820001984
 30
0.0
  0
VERTEX
  5
699
  8
LAYER_1
 10
61.19626868267601
 20
13.20859300019839
 30
0.0
  0
VERTEX
  5
69A
  8
LAYER_1
 10
61.22538968267601
 20
13.1931460001984
 30
0.0
  0
VERTEX
  5
69B
  8
LAYER_1
 10
61.25435068267601
 20
13.17714600019839
 30
0.0
  0
VERTEX
  5
69C
  8
LAYER_1
 10
61.28315068267601
 20
13.16059600019838
 30
0.0
  0
VERTEX
  5
69D
  8
LAYER_1
 10
61.311785682676
 20
13.14349900019839
 30
0.0
  0
VERTEX
  5
69E
  8
LAYER_1
 10
61.34025368267601
 20
13.1258610001984
 30
0.0
  0
VERTEX
  5
69F
  8
LAYER_1
 10
61.36855268267601
 20
13.10768500019839
 30
0.0
  0
VERTEX
  5
6A0
  8
LAYER_1
 10
61.39667968267601
 20
13.08897500019839
 30
0.0
  0
VERTEX
  5
6A1
  8
LAYER_1
 10
61.42463168267601
 20
13.06973400019839
 30
0.0
  0
VERTEX
  5
6A2
  8
LAYER_1
 10
61.45240768267601
 20
13.04996700019839
 30
0.0
  0
VERTEX
  5
6A3
  8
LAYER_1
 10
61.480004682676
 20
13.0296780001984
 30
0.0
  0
VERTEX
  5
6A4
  8
LAYER_1
 10
61.507419682676
 20
13.00887100019838
 30
0.0
  0
VERTEX
  5
6A5
  8
LAYER_1
 10
61.534650682676
 20
12.98754900019838
 30
0.0
  0
VERTEX
  5
6A6
  8
LAYER_1
 10
61.561695682676
 20
12.9657170001984
 30
0.0
  0
VERTEX
  5
6A7
  8
LAYER_1
 10
61.588550682676
 20
12.94337800019839
 30
0.0
  0
VERTEX
  5
6A8
  8
LAYER_1
 10
61.615214682676
 20
12.92053600019838
 30
0.0
  0
VERTEX
  5
6A9
  8
LAYER_1
 10
61.641684682676
 20
12.89719600019839
 30
0.0
  0
VERTEX
  5
6AA
  8
LAYER_1
 10
61.667958682676
 20
12.87336000019839
 30
0.0
  0
VERTEX
  5
6AB
  8
LAYER_1
 10
61.69403368267601
 20
12.8490340001984
 30
0.0
  0
VERTEX
  5
6AC
  8
LAYER_1
 10
61.71990768267601
 20
12.82422100019839
 30
0.0
  0
VERTEX
  5
6AD
  8
LAYER_1
 10
61.745577682676
 20
12.79892500019839
 30
0.0
  0
VERTEX
  5
6AE
  8
LAYER_1
 10
61.771040682676
 20
12.7731500001984
 30
0.0
  0
VERTEX
  5
6AF
  8
LAYER_1
 10
61.796296682676
 20
12.7468990001984
 30
0.0
  0
VERTEX
  5
6B0
  8
LAYER_1
 10
61.82134068267601
 20
12.72017700019839
 30
0.0
  0
VERTEX
  5
6B1
  8
LAYER_1
 10
61.846170682676
 20
12.6929880001984
 30
0.0
  0
VERTEX
  5
6B2
  8
LAYER_1
 10
61.870785682676
 20
12.66533600019839
 30
0.0
  0
VERTEX
  5
6B3
  8
LAYER_1
 10
61.895181682676
 20
12.63722400019839
 30
0.0
  0
VERTEX
  5
6B4
  8
LAYER_1
 10
61.91935668267601
 20
12.60865600019839
 30
0.0
  0
VERTEX
  5
6B5
  8
LAYER_1
 10
61.94330768267601
 20
12.57963700019839
 30
0.0
  0
VERTEX
  5
6B6
  8
LAYER_1
 10
61.967033682676
 20
12.55017000019839
 30
0.0
  0
VERTEX
  5
6B7
  8
LAYER_1
 10
61.99053168267601
 20
12.52025900019839
 30
0.0
  0
VERTEX
  5
6B8
  8
LAYER_1
 10
62.013798682676
 20
12.4899090001984
 30
0.0
  0
VERTEX
  5
6B9
  8
LAYER_1
 10
62.03683268267601
 20
12.45912300019839
 30
0.0
  0
VERTEX
  5
6BA
  8
LAYER_1
 10
62.059630682676
 20
12.4279040001984
 30
0.0
  0
VERTEX
  5
6BB
  8
LAYER_1
 10
62.082190682676
 20
12.3962580001984
 30
0.0
  0
VERTEX
  5
6BC
  8
LAYER_1
 10
62.104509682676
 20
12.3641870001984
 30
0.0
  0
VERTEX
  5
6BD
  8
LAYER_1
 10
62.12658668267601
 20
12.33169600019839
 30
0.0
  0
VERTEX
  5
6BE
  8
LAYER_1
 10
62.148417682676
 20
12.29878900019838
 30
0.0
  0
VERTEX
  5
6BF
  8
LAYER_1
 10
62.170000682676
 20
12.26547000019839
 30
0.0
  0
VERTEX
  5
6C0
  8
LAYER_1
 10
62.191333682676
 20
12.23174200019839
 30
0.0
  0
VERTEX
  5
6C1
  8
LAYER_1
 10
62.212413682676
 20
12.19760900019838
 30
0.0
  0
VERTEX
  5
6C2
  8
LAYER_1
 10
62.23323768267601
 20
12.1630760001984
 30
0.0
  0
VERTEX
  5
6C3
  8
LAYER_1
 10
62.25380468267601
 20
12.1281470001984
 30
0.0
  0
VERTEX
  5
6C4
  8
LAYER_1
 10
62.27411168267601
 20
12.09282400019839
 30
0.0
  0
VERTEX
  5
6C5
  8
LAYER_1
 10
62.29415568267601
 20
12.0571130001984
 30
0.0
  0
VERTEX
  5
6C6
  8
LAYER_1
 10
62.31393468267601
 20
12.02101700019838
 30
0.0
  0
VERTEX
  5
6C7
  8
LAYER_1
 10
62.333446682676
 20
11.98454000019839
 30
0.0
  0
VERTEX
  5
6C8
  8
LAYER_1
 10
62.35268768267601
 20
11.94768600019839
 30
0.0
  0
VERTEX
  5
6C9
  8
LAYER_1
 10
62.371656682676
 20
11.91045900019839
 30
0.0
  0
VERTEX
  5
6CA
  8
LAYER_1
 10
62.390351682676
 20
11.87286300019839
 30
0.0
  0
VERTEX
  5
6CB
  8
LAYER_1
 10
62.408767682676
 20
11.83490100019839
 30
0.0
  0
VERTEX
  5
6CC
  8
LAYER_1
 10
62.426904682676
 20
11.79657800019839
 30
0.0
  0
VERTEX
  5
6CD
  8
LAYER_1
 10
62.44475968267601
 20
11.7578980001984
 30
0.0
  0
VERTEX
  5
6CE
  8
LAYER_1
 10
62.462329682676
 20
11.71886400019839
 30
0.0
  0
VERTEX
  5
6CF
  8
LAYER_1
 10
62.47961268267601
 20
11.67948100019839
 30
0.0
  0
VERTEX
  5
6D0
  8
LAYER_1
 10
62.49660568267601
 20
11.6397530001984
 30
0.0
  0
VERTEX
  5
6D1
  8
LAYER_1
 10
62.513306682676
 20
11.59968200019838
 30
0.0
  0
VERTEX
  5
6D2
  8
LAYER_1
 10
62.529713682676
 20
11.5592740001984
 30
0.0
  0
VERTEX
  5
6D3
  8
LAYER_1
 10
62.545822682676
 20
11.51853200019839
 30
0.0
  0
VERTEX
  5
6D4
  8
LAYER_1
 10
62.56163268267601
 20
11.47746000019839
 30
0.0
  0
VERTEX
  5
6D5
  8
LAYER_1
 10
62.577141682676
 20
11.43606200019839
 30
0.0
  0
VERTEX
  5
6D6
  8
LAYER_1
 10
62.592345682676
 20
11.39434200019839
 30
0.0
  0
VERTEX
  5
6D7
  8
LAYER_1
 10
62.607242682676
 20
11.35230400019839
 30
0.0
  0
VERTEX
  5
6D8
  8
LAYER_1
 10
62.62182968267601
 20
11.30995200019839
 30
0.0
  0
VERTEX
  5
6D9
  8
LAYER_1
 10
62.636105682676
 20
11.26729000019839
 30
0.0
  0
VERTEX
  5
6DA
  8
LAYER_1
 10
62.650067682676
 20
11.22432100019839
 30
0.0
  0
VERTEX
  5
6DB
  8
LAYER_1
 10
62.663713682676
 20
11.18105000019838
 30
0.0
  0
VERTEX
  5
6DC
  8
LAYER_1
 10
62.677039682676
 20
11.13748000019839
 30
0.0
  0
VERTEX
  5
6DD
  8
LAYER_1
 10
62.69004368267601
 20
11.09361600019839
 30
0.0
  0
VERTEX
  5
6DE
  8
LAYER_1
 10
62.70272468267601
 20
11.04946100019839
 30
0.0
  0
VERTEX
  5
6DF
  8
LAYER_1
 10
62.71507868267601
 20
11.00501900019839
 30
0.0
  0
VERTEX
  5
6E0
  8
LAYER_1
 10
62.727103682676
 20
10.96029500019839
 30
0.0
  0
VERTEX
  5
6E1
  8
LAYER_1
 10
62.73879768267601
 20
10.91529200019839
 30
0.0
  0
VERTEX
  5
6E2
  8
LAYER_1
 10
62.750158682676
 20
10.87001400019838
 30
0.0
  0
VERTEX
  5
6E3
  8
LAYER_1
 10
62.761181682676
 20
10.82446500019839
 30
0.0
  0
VERTEX
  5
6E4
  8
LAYER_1
 10
62.771867682676
 20
10.77864900019839
 30
0.0
  0
VERTEX
  5
6E5
  8
LAYER_1
 10
62.78221068267601
 20
10.7325690001984
 30
0.0
  0
VERTEX
  5
6E6
  8
LAYER_1
 10
62.792211682676
 20
10.68623100019839
 30
0.0
  0
VERTEX
  5
6E7
  8
LAYER_1
 10
62.80186568267601
 20
10.63963700019839
 30
0.0
  0
VERTEX
  5
6E8
  8
LAYER_1
 10
62.811171682676
 20
10.59279200019839
 30
0.0
  0
VERTEX
  5
6E9
  8
LAYER_1
 10
62.820126682676
 20
10.54570000019839
 30
0.0
  0
VERTEX
  5
6EA
  8
LAYER_1
 10
62.828727682676
 20
10.49836400019839
 30
0.0
  0
VERTEX
  5
6EB
  8
LAYER_1
 10
62.83697268267601
 20
10.4507880001984
 30
0.0
  0
VERTEX
  5
6EC
  8
LAYER_1
 10
62.844859682676
 20
10.40297700019839
 30
0.0
  0
VERTEX
  5
6ED
  8
LAYER_1
 10
62.852385682676
 20
10.3549340001984
 30
0.0
  0
VERTEX
  5
6EE
  8
LAYER_1
 10
62.85954868267601
 20
10.3066630001984
 30
0.0
  0
VERTEX
  5
6EF
  8
LAYER_1
 10
62.86634668267601
 20
10.25816900019839
 30
0.0
  0
VERTEX
  5
6F0
  8
LAYER_1
 10
62.87277568267601
 20
10.20945400019839
 30
0.0
  0
VERTEX
  5
6F1
  8
LAYER_1
 10
62.878833682676
 20
10.1605230001984
 30
0.0
  0
VERTEX
  5
6F2
  8
LAYER_1
 10
62.884519682676
 20
10.11138100019839
 30
0.0
  0
VERTEX
  5
6F3
  8
LAYER_1
 10
62.889828682676
 20
10.06203000019839
 30
0.0
  0
VERTEX
  5
6F4
  8
LAYER_1
 10
62.89476068267601
 20
10.01247500019839
 30
0.0
  0
VERTEX
  5
6F5
  8
LAYER_1
 10
62.899312682676
 20
9.962720000198388
 30
0.0
  0
VERTEX
  5
6F6
  8
LAYER_1
 10
62.903480682676
 20
9.912768000198383
 30
0.0
  0
VERTEX
  5
6F7
  8
LAYER_1
 10
62.907263682676
 20
9.862624000198394
 30
0.0
  0
VERTEX
  5
6F8
  8
LAYER_1
 10
62.910659682676
 20
9.8122910001984
 30
0.0
  0
VERTEX
  5
6F9
  8
LAYER_1
 10
62.913664682676
 20
9.761774000198386
 30
0.0
  0
VERTEX
  5
6FA
  8
LAYER_1
 10
62.916276682676
 20
9.71107600019839
 30
0.0
  0
VERTEX
  5
6FB
  8
LAYER_1
 10
62.918493682676
 20
9.660201000198384
 30
0.0
  0
VERTEX
  5
6FC
  8
LAYER_1
 10
62.92031368267601
 20
9.609154000198401
 30
0.0
  0
VERTEX
  5
6FD
  8
LAYER_1
 10
62.92173268267601
 20
9.55793800019839
 30
0.0
  0
VERTEX
  5
6FE
  8
LAYER_1
 10
62.922749682676
 20
9.506556000198401
 30
0.0
  0
VERTEX
  5
6FF
  8
LAYER_1
 10
62.923361682676
 20
9.45501400019839
 30
0.0
  0
SEQEND
  5
7D0
  8
LAYER_1
  0
POLYLINE
  5
82
  8
LAYER_1
 66
     1
 10
0.0
 20
0.0
 30
0.0
 70
     1
  0
VERTEX
  5
700
  8
LAYER_1
 10
74.535268682676
 20
0.869165000198393
 30
0.0
  0
VERTEX
  5
701
  8
LAYER_1
 10
74.160268682676
 20
0.869165000198393
 30
0.0
  0
VERTEX
  5
702
  8
LAYER_1
 10
74.160268682676
 20
27.86916500019839
 30
0.0
  0
VERTEX
  5
703
  8
LAYER_1
 10
74.535268682676
 20
27.86916500019839
 30
0.0
  0
SEQEND
  5
7D1
  8
LAYER_1
  0
POLYLINE
  5
83
  8
LAYER_1
 66
     1
 10
0.0
 20
0.0
 30
0.0
 70
     1
  0
VERTEX
  5
704
  8
LAYER_1
 10
55.160268682676
 20
11.05666500019839
 30
0.0
  0
VERTEX
  5
705
  8
LAYER_1
 10
54.785268682676
 20
11.05666500019839
 30
0.0
  0
VERTEX
  5
706
  8
LAYER_1
 10
54.785268682676
 20
28.05666500019839
 30
0.0
  0
VERTEX
  5
707
  8
LAYER_1
 10
55.160268682676
 20
28.05666500019839
 30
0.0
  0
SEQEND
  5
7D2
  8
LAYER_1
  0
POLYLINE
  5
84
  8
LAYER_1
 66
     1
 10
0.0
 20
0.0
 30
0.0
 70
     1
  0
VERTEX
  5
708
  8
LAYER_1
 10
55.160268682676
 20
0.869165000198393
 30
0.0
  0
VERTEX
  5
709
  8
LAYER_1
 10
54.785268682676
 20
0.869165000198393
 30
0.0
  0
VERTEX
  5
70A
  8
LAYER_1
 10
54.785268682676
 20
11.36916500019839
 30
0.0
  0
VERTEX
  5
70B
  8
LAYER_1
 10
55.160268682676
 20
11.36916500019839
 30
0.0
  0
SEQEND
  5
7D3
  8
LAYER_1
  0
POLYLINE
  5
85
  8
LAYER_1
 66
     1
 10
0.0
 20
0.0
 30
0.0
 70
     1
  0
VERTEX
  5
70C
  8
LAYER_1
 10
80.02453640728636
 20
21.61570415845385
 30
0.0
  0
VERTEX
  5
70D
  8
LAYER_1
 10
80.02478240728637
 20
27.72354915845385
 30
0.0
  0
VERTEX
  5
70E
  8
LAYER_1
 10
80.02428740728637
 20
27.74072315845385
 30
0.0
  0
VERTEX
  5
70F
  8
LAYER_1
 10
75.52478240728637
 20
27.74072315845385
 30
0.0
  0
VERTEX
  5
710
  8
LAYER_1
 10
75.52478240728637
 20
1.240723158453847
 30
0.0
  0
VERTEX
  5
711
  8
LAYER_1
 10
95.02478240728637
 20
1.240723158453847
 30
0.0
  0
VERTEX
  5
712
  8
LAYER_1
 10
95.02478240728637
 20
27.74072315845385
 30
0.0
  0
VERTEX
  5
713
  8
LAYER_1
 10
90.52487340728636
 20
27.74072315845385
 30
0.0
  0
VERTEX
  5
714
  8
LAYER_1
 10
90.52478240728637
 20
27.72354915845385
 30
0.0
  0
VERTEX
  5
715
  8
LAYER_1
 10
90.52503640728638
 20
21.61570415845385
 30
0.0
  0
SEQEND
  5
7D4
  8
LAYER_1
  0
POLYLINE
  5
86
  8
LAYER_1
 66
     1
 10
0.0
 20
0.0
 30
0.0
 70
     1
  0
VERTEX
  5
716
  8
LAYER_1
 10
59.409769682676
 20
21.43170100019839
 30
0.0
  0
VERTEX
  5
717
  8
LAYER_1
 10
69.910518682676
 20
21.43168300019839
 30
0.0
  0
VERTEX
  5
718
  8
LAYER_1
 10
69.910268682676
 20
27.46302600019838
 30
0.0
  0
VERTEX
  5
719
  8
LAYER_1
 10
69.91020368267601
 20
27.55666500019839
 30
0.0
  0
VERTEX
  5
71A
  8
LAYER_1
 10
74.410268682676
 20
27.55666500019839
 30
0.0
  0
VERTEX
  5
71B
  8
LAYER_1
 10
74.410268682676
 20
1.056665000198393
 30
0.0
  0
VERTEX
  5
71C
  8
LAYER_1
 10
54.910268682676
 20
1.056665000198393
 30
0.0
  0
VERTEX
  5
71D
  8
LAYER_1
 10
54.910268682676
 20
27.55666500019839
 30
0.0
  0
VERTEX
  5
71E
  8
LAYER_1
 10
59.41027368267601
 20
27.55666500019839
 30
0.0
  0
VERTEX
  5
71F
  8
LAYER_1
 10
59.410268682676
 20
27.53675200019839
 30
0.0
  0
VERTEX
  5
720
  8
LAYER_1
 10
59.410268682676
 20
21.43166500019839
 30
0.0
  0
SEQEND
  5
7D5
  8
LAYER_1
  0
POLYLINE
  5
87
  8
LAYER_1
 66
     1
 10
0.0
 20
0.0
 30
0.0
 70
     1
  0
VERTEX
  5
721
  8
LAYER_1
 10
77.8829572714536
 20
37.75278302874921
 30
0.0
  0
VERTEX
  5
722
  8
LAYER_1
 10
87.6954572714536
 20
37.75278302874921
 30
0.0
  0
VERTEX
  5
723
  8
LAYER_1
 10
87.6954572714536
 20
46.62778302874921
 30
0.0
  0
VERTEX
  5
724
  8
LAYER_1
 10
77.8829572714536
 20
46.62778302874921
 30
0.0
  0
SEQEND
  5
7D6
  8
LAYER_1
  0
POLYLINE
  5
88
  8
LAYER_1
 66
     1
 10
0.0
 20
0.0
 30
0.0
  0
VERTEX
  5
725
  8
LAYER_1
 10
78.5079572714536
 20
37.75278302874922
 30
0.0
  0
VERTEX
  5
726
  8
LAYER_1
 10
78.5079572714536
 20
46.53025555622172
 30
0.0
  0
VERTEX
  5
727
  8
LAYER_1
 10
78.5079572714536
 20
46.62778302874919
 30
0.0
  0
SEQEND
  5
7D7
  8
LAYER_1
  0
POLYLINE
  5
89
  8
LAYER_1
 66
     1
 10
0.0
 20
0.0
 30
0.0
  0
VERTEX
  5
728
  8
LAYER_1
 10
87.0704572714536
 20
37.75278302874922
 30
0.0
  0
VERTEX
  5
729
  8
LAYER_1
 10
87.0703402714536
 20
46.6277830287492
 30
0.0
  0
SEQEND
  5
7D8
  8
LAYER_1
  0
POLYLINE
  5
8A
  8
LAYER_1
 66
     1
 10
0.0
 20
0.0
 30
0.0
 70
     1
  0
VERTEX
  5
72A
  8
LAYER_1
 10
89.84943202741427
 20
33.81656166403032
 30
0.0
 42
-0.37001
  0
VERTEX
  5
72B
  8
LAYER_1
 10
90.96323302741428
 20
32.86309466403031
 30
0.0
  0
VERTEX
  5
72C
  8
LAYER_1
 10
91.47243602741428
 20
29.44181466403031
 30
0.0
 42
0.03207
  0
VERTEX
  5
72D
  8
LAYER_1
 10
91.48200202741428
 20
29.37787866403031
 30
0.0
 42
0.377134
  0
VERTEX
  5
72E
  8
LAYER_1
 10
91.97243602741428
 20
28.94181466403031
 30
0.0
  0
VERTEX
  5
72F
  8
LAYER_1
 10
94.66035802741428
 20
29.18782266403031
 30
0.0
 42
0.414214
  0
VERTEX
  5
730
  8
LAYER_1
 10
95.09764702741428
 20
29.62731866403031
 30
0.0
  0
VERTEX
  5
731
  8
LAYER_1
 10
95.09743602741428
 20
35.06681466403031
 30
0.0
  0
VERTEX
  5
732
  8
LAYER_1
 10
88.97243602741428
 20
35.06681466403031
 30
0.0
  0
VERTEX
  5
733
  8
LAYER_1
 10
88.97243602741428
 20
33.81681466403031
 30
0.0
  0
SEQEND
  5
7D9
  8
LAYER_1
  0
POLYLINE
  5
8B
  8
LAYER_1
 66
     1
 10
0.0
 20
0.0
 30
0.0
 70
     1
  0
VERTEX
  5
734
  8
LAYER_1
 10
95.81926185490305
 20
35.19181466403031
 30
0.0
  0
VERTEX
  5
735
  8
LAYER_1
 10
95.81926185490305
 20
34.31681466403031
 30
0.0
  0
VERTEX
  5
736
  8
LAYER_1
 10
88.171677773625
 20
34.31681466403031
 30
0.0
  0
VERTEX
  5
737
  8
LAYER_1
 10
88.171677773625
 20
35.19181466403031
 30
0.0
  0
SEQEND
  5
7DA
  8
LAYER_1
  0
POLYLINE
  5
8C
  8
LAYER_1
 66
     1
 10
0.0
 20
0.0
 30
0.0
 70
     1
  0
VERTEX
  5
738
  8
LAYER_1
 10
89.83736959195485
 20
37.1378827103984
 30
0.0
 42
0.37001
  0
VERTEX
  5
739
  8
LAYER_1
 10
90.95117059195486
 20
38.0913497103984
 30
0.0
  0
VERTEX
  5
73A
  8
LAYER_1
 10
91.46037359195486
 20
41.5126297103984
 30
0.0
 42
-0.03207
  0
VERTEX
  5
73B
  8
LAYER_1
 10
91.46993959195487
 20
41.5765657103984
 30
0.0
 42
-0.377134
  0
VERTEX
  5
73C
  8
LAYER_1
 10
91.96037359195486
 20
42.0126297103984
 30
0.0
  0
VERTEX
  5
73D
  8
LAYER_1
 10
94.64829559195486
 20
41.7666217103984
 30
0.0
 42
-0.414214
  0
VERTEX
  5
73E
  8
LAYER_1
 10
95.08558459195487
 20
41.32712571039841
 30
0.0
  0
VERTEX
  5
73F
  8
LAYER_1
 10
95.08537359195486
 20
35.8876297103984
 30
0.0
  0
VERTEX
  5
740
  8
LAYER_1
 10
88.96037359195486
 20
35.8876297103984
 30
0.0
  0
VERTEX
  5
741
  8
LAYER_1
 10
88.96037359195486
 20
37.1376297103984
 30
0.0
  0
SEQEND
  5
7DB
  8
LAYER_1
  0
POLYLINE
  5
8D
  8
LAYER_1
 66
     1
 10
0.0
 20
0.0
 30
0.0
 70
     1
  0
VERTEX
  5
742
  8
LAYER_1
 10
95.80719941944363
 20
35.7626297103984
 30
0.0
  0
VERTEX
  5
743
  8
LAYER_1
 10
95.80719941944363
 20
36.6376297103984
 30
0.0
  0
VERTEX
  5
744
  8
LAYER_1
 10
88.1596153381656
 20
36.6376297103984
 30
0.0
  0
VERTEX
  5
745
  8
LAYER_1
 10
88.1596153381656
 20
35.7626297103984
 30
0.0
  0
SEQEND
  5
7DC
  8
LAYER_1
  0
POLYLINE
  5
8E
  8
LAYER_1
 66
     1
 10
0.0
 20
0.0
 30
0.0
 70
     1
  0
VERTEX
  5
746
  8
LAYER_1
 10
62.75427119236512
 20
41.53251649551039
 30
0.0
  0
VERTEX
  5
747
  8
LAYER_1
 10
62.75427119236512
 20
46.65751649551039
 30
0.0
  0
VERTEX
  5
748
  8
LAYER_1
 10
54.12927119236512
 20
46.65751649551039
 30
0.0
  0
VERTEX
  5
749
  8
LAYER_1
 10
54.12927119236512
 20
41.53251649551039
 30
0.0
  0
SEQEND
  5
7DD
  8
LAYER_1
  0
POLYLINE
  5
8F
  8
LAYER_1
 66
     1
 10
0.0
 20
0.0
 30
0.0
 70
     1
  0
VERTEX
  5
74A
  8
LAYER_1
 10
63.40124421286634
 20
41.40751649551039
 30
0.0
  0
VERTEX
  5
74B
  8
LAYER_1
 10
63.40124421286634
 20
41.78251649551039
 30
0.0
  0
VERTEX
  5
74C
  8
LAYER_1
 10
53.6807846821145
 20
41.78251649551039
 30
0.0
  0
VERTEX
  5
74D
  8
LAYER_1
 10
53.6807846821145
 20
41.40751649551039
 30
0.0
  0
SEQEND
  5
7DE
  8
LAYER_1
  0
POLYLINE
  5
90
  8
LAYER_1
 66
     1
 10
0.0
 20
0.0
 30
0.0
 70
     1
  0
VERTEX
  5
74E
  8
LAYER_1
 10
63.40124421286634
 20
46.40751649551039
 30
0.0
  0
VERTEX
  5
74F
  8
LAYER_1
 10
63.40124421286634
 20
46.78251649551039
 30
0.0
  0
VERTEX
  5
750
  8
LAYER_1
 10
53.6807846821145
 20
46.78251649551039
 30
0.0
  0
VERTEX
  5
751
  8
LAYER_1
 10
53.6807846821145
 20
46.40751649551039
 30
0.0
  0
SEQEND
  5
7DF
  8
LAYER_1
  0
POLYLINE
  5
91
  8
LAYER_1
 66
     1
 10
0.0
 20
0.0
 30
0.0
 70
     1
  0
VERTEX
  5
752
  8
LAYER_1
 10
76.87938644399537
 20
39.99215547507188
 30
0.0
  0
VERTEX
  5
753
  8
LAYER_1
 10
55.37938644399537
 20
39.99215547507188
 30
0.0
  0
VERTEX
  5
754
  8
LAYER_1
 10
55.37938644399537
 20
28.74215547507188
 30
0.0
  0
VERTEX
  5
755
  8
LAYER_1
 10
76.87938644399537
 20
28.74215547507188
 30
0.0
  0
SEQEND
  5
7E0
  8
LAYER_1
  0
POLYLINE
  5
92
  8
LAYER_1
 66
     1
 10
0.0
 20
0.0
 30
0.0
 70
     1
  0
VERTEX
  5
756
  8
LAYER_1
 10
52.78121888688294
 20
45.49215800587475
 30
0.0
  0
VERTEX
  5
757
  8
LAYER_1
 10
36.42195912565629
 20
45.49215800587475
 30
0.0
  0
VERTEX
  5
758
  8
LAYER_1
 10
36.42195912565629
 20
23.99215800587475
 30
0.0
  0
VERTEX
  5
759
  8
LAYER_1
 10
52.77954979306221
 20
23.99215800587475
 30
0.0
  0
VERTEX
  5
75A
  8
LAYER_1
 10
52.77965339703318
 20
23.9923127561329
 30
0.0
  0
VERTEX
  5
75B
  8
LAYER_1
 10
52.77965339703318
 20
24.73955945971782
 30
0.0
  0
VERTEX
  5
75C
  8
LAYER_1
 10
52.77937296125493
 20
24.74215422597723
 30
0.0
  0
VERTEX
  5
75D
  8
LAYER_1
 10
52.73445912565629
 20
24.74215800587475
 30
0.0
  0
VERTEX
  5
75E
  8
LAYER_1
 10
52.73445912565629
 20
44.74215800587475
 30
0.0
  0
VERTEX
  5
75F
  8
LAYER_1
 10
52.78107276128195
 20
44.74215828879876
 30
0.0
  0
VERTEX
  5
760
  8
LAYER_1
 10
52.78135696367986
 20
44.74215829052374
 30
0.0
  0
VERTEX
  5
761
  8
LAYER_1
 10
52.78135696367986
 20
45.48215829052374
 30
0.0
  0
SEQEND
  5
7E1
  8
LAYER_1
  0
POLYLINE
  5
93
  8
LAYER_1
 66
     1
 10
0.0
 20
0.0
 30
0.0
 70
     1
  0
VERTEX
  5
762
  8
LAYER_1
 10
80.36170592948987
 20
29.02438499596923
 30
0.0
 42
-0.37001
  0
VERTEX
  5
763
  8
LAYER_1
 10
81.47550692948988
 20
28.07091799596922
 30
0.0
  0
VERTEX
  5
764
  8
LAYER_1
 10
81.98470992948988
 20
24.64963799596922
 30
0.0
 42
0.03207
  0
VERTEX
  5
765
  8
LAYER_1
 10
81.99427592948989
 20
24.58570199596922
 30
0.0
 42
0.377134
  0
VERTEX
  5
766
  8
LAYER_1
 10
82.48470992948988
 20
24.14963799596922
 30
0.0
  0
VERTEX
  5
767
  8
LAYER_1
 10
85.17263192948988
 20
24.39564599596923
 30
0.0
 42
0.414214
  0
VERTEX
  5
768
  8
LAYER_1
 10
85.60992092948989
 20
24.83514199596922
 30
0.0
  0
VERTEX
  5
769
  8
LAYER_1
 10
85.60970992948988
 20
30.27463799596922
 30
0.0
  0
VERTEX
  5
76A
  8
LAYER_1
 10
79.48470992948988
 20
30.27463799596922
 30
0.0
  0
VERTEX
  5
76B
  8
LAYER_1
 10
79.48470992948988
 20
29.02463799596922
 30
0.0
  0
SEQEND
  5
7E2
  8
LAYER_1
  0
POLYLINE
  5
94
  8
LAYER_1
 66
     1
 10
0.0
 20
0.0
 30
0.0
 70
     1
  0
VERTEX
  5
76C
  8
LAYER_1
 10
86.33153575697865
 20
30.39963799596922
 30
0.0
  0
VERTEX
  5
76D
  8
LAYER_1
 10
86.33153575697865
 20
29.52463799596922
 30
0.0
  0
VERTEX
  5
76E
  8
LAYER_1
 10
78.68395167570061
 20
29.52463799596922
 30
0.0
  0
VERTEX
  5
76F
  8
LAYER_1
 10
78.68395167570061
 20
30.39963799596922
 30
0.0
  0
SEQEND
  5
7E3
  8
LAYER_1
  0
POLYLINE
  5
95
  8
LAYER_1
 66
     1
 10
0.0
 20
0.0
 30
0.0
 70
     1
  0
VERTEX
  5
770
  8
LAYER_1
 10
80.34964349403046
 20
32.34570604233731
 30
0.0
 42
0.37001
  0
VERTEX
  5
771
  8
LAYER_1
 10
81.46344449403047
 20
33.29917304233731
 30
0.0
  0
VERTEX
  5
772
  8
LAYER_1
 10
81.97264749403047
 20
36.72045304233731
 30
0.0
 42
-0.03207
  0
VERTEX
  5
773
  8
LAYER_1
 10
81.98221349403047
 20
36.78438904233731
 30
0.0
 42
-0.377134
  0
VERTEX
  5
774
  8
LAYER_1
 10
82.47264749403047
 20
37.22045304233731
 30
0.0
  0
VERTEX
  5
775
  8
LAYER_1
 10
85.16056949403047
 20
36.97444504233731
 30
0.0
 42
-0.414214
  0
VERTEX
  5
776
  8
LAYER_1
 10
85.59785849403048
 20
36.53494904233731
 30
0.0
  0
VERTEX
  5
777
  8
LAYER_1
 10
85.59764749403047
 20
31.09545304233731
 30
0.0
  0
VERTEX
  5
778
  8
LAYER_1
 10
79.47264749403047
 20
31.09545304233731
 30
0.0
  0
VERTEX
  5
779
  8
LAYER_1
 10
79.47264749403047
 20
32.34545304233731
 30
0.0
  0
SEQEND
  5
7E4
  8
LAYER_1
  0
POLYLINE
  5
96
  8
LAYER_1
 66
     1
 10
0.0
 20
0.0
 30
0.0
 70
     1
  0
VERTEX
  5
77A
  8
LAYER_1
 10
86.31947332151924
 20
30.97045304233731
 30
0.0
  0
VERTEX
  5
77B
  8
LAYER_1
 10
86.31947332151924
 20
31.84545304233731
 30
0.0
  0
VERTEX
  5
77C
  8
LAYER_1
 10
78.6718892402412
 20
31.84545304233731
 30
0.0
  0
VERTEX
  5
77D
  8
LAYER_1
 10
78.6718892402412
 20
30.97045304233731
 30
0.0
  0
SEQEND
  5
7E5
  8
LAYER_1
  0
POLYLINE
  5
97
  8
LAYER_1
 66
     1
 10
0.0
 20
0.0
 30
0.0
 70
     1
  0
VERTEX
  5
77E
  8
LAYER_1
 10
74.45465622790405
 20
41.44258516387944
 30
0.0
  0
VERTEX
  5
77F
  8
LAYER_1
 10
74.45465622790405
 20
46.56758516387944
 30
0.0
  0
VERTEX
  5
780
  8
LAYER_1
 10
65.82965622790405
 20
46.56758516387944
 30
0.0
  0
VERTEX
  5
781
  8
LAYER_1
 10
65.82965622790405
 20
41.44258516387944
 30
0.0
  0
SEQEND
  5
7E6
  8
LAYER_1
  0
POLYLINE
  5
98
  8
LAYER_1
 66
     1
 10
0.0
 20
0.0
 30
0.0
 70
     1
  0
VERTEX
  5
782
  8
LAYER_1
 10
75.10162924840526
 20
41.31758516387944
 30
0.0
  0
VERTEX
  5
783
  8
LAYER_1
 10
75.10162924840526
 20
41.69258516387944
 30
0.0
  0
VERTEX
  5
784
  8
LAYER_1
 10
65.38116971765342
 20
41.69258516387944
 30
0.0
  0
VERTEX
  5
785
  8
LAYER_1
 10
65.38116971765342
 20
41.31758516387944
 30
0.0
  0
SEQEND
  5
7E7
  8
LAYER_1
  0
POLYLINE
  5
99
  8
LAYER_1
 66
     1
 10
0.0
 20
0.0
 30
0.0
 70
     1
  0
VERTEX
  5
786
  8
LAYER_1
 10
75.10162924840526
 20
46.31758516387944
 30
0.0
  0
VERTEX
  5
787
  8
LAYER_1
 10
75.10162924840526
 20
46.69258516387944
 30
0.0
  0
VERTEX
  5
788
  8
LAYER_1
 10
65.38116971765342
 20
46.69258516387944
 30
0.0
  0
VERTEX
  5
789
  8
LAYER_1
 10
65.38116971765342
 20
46.31758516387944
 30
0.0
  0
SEQEND
  5
7E8
  8
LAYER_1
  0
POLYLINE
  5
9A
  8
LAYER_1
 66
     1
 10
0.0
 20
0.0
 30
0.0
 70
     1
  0
VERTEX
  5
78A
  8
LAYER_1
 10
29.76113992271229
 20
24.62167732729254
 30
0.0
  0
VERTEX
  5
78B
  8
LAYER_1
 10
29.76113992271229
 20
46.12167732729254
 30
0.0
  0
VERTEX
  5
78C
  8
LAYER_1
 10
2.011139922712289
 20
46.12167732729254
 30
0.0
  0
VERTEX
  5
78D
  8
LAYER_1
 10
2.011139922712289
 20
24.62167732729254
 30
0.0
  0
SEQEND
  5
7E9
  8
LAYER_1
  0
POLYLINE
  5
9B
  8
LAYER_1
 66
     1
 10
0.0
 20
0.0
 30
0.0
 70
     1
  0
VERTEX
  5
78E
  8
LAYER_1
 10
20.12621792271229
 20
35.36383132729254
 30
0.0
 42
0.414214
  0
VERTEX
  5
78F
  8
LAYER_1
 10
20.26681792271228
 20
35.22323132729254
 30
0.0
 42
0.414214
  0
VERTEX
  5
790
  8
LAYER_1
 10
20.40741792271228
 20
35.36383132729254
 30
0.0
 42
0.414214
  0
VERTEX
  5
791
  8
LAYER_1
 10
20.26681792271228
 20
35.50443132729254
 30
0.0
 42
0.414214
  0
SEQEND
  5
7EA
  8
LAYER_1
  0
POLYLINE
  5
9C
  8
LAYER_1
 66
     1
 10
0.0
 20
0.0
 30
0.0
 70
     1
  0
VERTEX
  5
792
  8
LAYER_1
 10
14.75121792271229
 20
28.70758132729254
 30
0.0
 42
0.414214
  0
VERTEX
  5
793
  8
LAYER_1
 10
14.89181792271228
 20
28.56698132729254
 30
0.0
 42
0.414214
  0
VERTEX
  5
794
  8
LAYER_1
 10
15.03241792271228
 20
28.70758132729254
 30
0.0
 42
0.414214
  0
VERTEX
  5
795
  8
LAYER_1
 10
14.89181792271228
 20
28.84818132729254
 30
0.0
 42
0.414214
  0
SEQEND
  5
7EB
  8
LAYER_1
  0
POLYLINE
  5
9D
  8
LAYER_1
 66
     1
 10
0.0
 20
0.0
 30
0.0
 70
     1
  0
VERTEX
  5
796
  8
LAYER_1
 10
14.75121792271229
 20
42.02008132729254
 30
0.0
 42
0.414214
  0
VERTEX
  5
797
  8
LAYER_1
 10
14.89181792271228
 20
41.87948132729254
 30
0.0
 42
0.414214
  0
VERTEX
  5
798
  8
LAYER_1
 10
15.03241792271228
 20
42.02008132729254
 30
0.0
 42
0.414214
  0
VERTEX
  5
799
  8
LAYER_1
 10
14.89181792271228
 20
42.16068132729254
 30
0.0
 42
0.414214
  0
SEQEND
  5
7EC
  8
LAYER_1
  0
POLYLINE
  5
9E
  8
LAYER_1
 66
     1
 10
0.0
 20
0.0
 30
0.0
 70
     1
  0
VERTEX
  5
79A
  8
LAYER_1
 10
9.376217922712286
 20
35.36383132729254
 30
0.0
 42
0.414214
  0
VERTEX
  5
79B
  8
LAYER_1
 10
9.516817922712278
 20
35.22323132729254
 30
0.0
 42
0.414214
  0
VERTEX
  5
79C
  8
LAYER_1
 10
9.657417922712284
 20
35.36383132729254
 30
0.0
 42
0.414214
  0
VERTEX
  5
79D
  8
LAYER_1
 10
9.516817922712278
 20
35.50443132729254
 30
0.0
 42
0.414214
  0
SEQEND
  5
7ED
  8
LAYER_1
  0
POLYLINE
  5
9F
  8
LAYER_1
 66
     1
 10
0.0
 20
0.0
 30
0.0
  0
VERTEX
  5
79E
  8
LAYER_1
 10
27.88603192271228
 20
25.49667732729254
 30
0.0
  0
VERTEX
  5
79F
  8
LAYER_1
 10
2.011139922712289
 20
25.49667732729254
 30
0.0
  0
SEQEND
  5
7EE
  8
LAYER_1
  0
POLYLINE
  5
A0
  8
LAYER_1
 66
     1
 10
0.0
 20
0.0
 30
0.0
  0
VERTEX
  5
7A0
  8
LAYER_1
 10
27.8869663340244
 20
45.24668032729254
 30
0.0
  0
VERTEX
  5
7A1
  8
LAYER_1
 10
2.011139922712287
 20
45.24668032729254
 30
0.0
  0
SEQEND
  5
7EF
  8
LAYER_1
  0
POLYLINE
  5
A1
  8
LAYER_1
 66
     1
 10
0.0
 20
0.0
 30
0.0
  0
VERTEX
  5
7A2
  8
LAYER_1
 10
27.88613992271229
 20
30.30917732729254
 30
0.0
  0
VERTEX
  5
7A3
  8
LAYER_1
 10
19.88613992271229
 20
30.30917732729254
 30
0.0
  0
VERTEX
  5
7A4
  8
LAYER_1
 10
19.78613992271228
 20
30.30917732729254
 30
0.0
  0
SEQEND
  5
7F0
  8
LAYER_1
  0
POLYLINE
  5
A2
  8
LAYER_1
 66
     1
 10
0.0
 20
0.0
 30
0.0
  0
VERTEX
  5
7A5
  8
LAYER_1
 10
27.88613992271229
 20
38.87167732729254
 30
0.0
  0
VERTEX
  5
7A6
  8
LAYER_1
 10
19.88613992271229
 20
38.87167732729254
 30
0.0
  0
VERTEX
  5
7A7
  8
LAYER_1
 10
19.78613992271228
 20
38.87167732729254
 30
0.0
  0
SEQEND
  5
7F1
  8
LAYER_1
  0
POLYLINE
  5
A3
  8
LAYER_1
 66
     1
 10
0.0
 20
0.0
 30
0.0
 70
     1
  0
VERTEX
  5
7A8
  8
LAYER_1
 10
19.07931792271228
 20
41.70758132729254
 30
0.0
 42
-0.305546818601964
  0
VERTEX
  5
7A9
  8
LAYER_1
 10
19.31089565101566
 20
41.55132687884763
 30
0.0
  0
VERTEX
  5
7AA
  8
LAYER_1
 10
19.64181792271228
 20
41.55133132729254
 30
0.0
 42
-0.414214
  0
VERTEX
  5
7AB
  8
LAYER_1
 10
19.89181792271228
 20
41.30133132729254
 30
0.0
  0
VERTEX
  5
7AC
  8
LAYER_1
 10
19.89181792271228
 20
29.42633132729254
 30
0.0
 42
-0.414214
  0
VERTEX
  5
7AD
  8
LAYER_1
 10
19.64181792271228
 20
29.17633132729254
 30
0.0
  0
VERTEX
  5
7AE
  8
LAYER_1
 10
10.14181792271228
 20
29.17633132729254
 30
0.0
 42
-0.414214
  0
VERTEX
  5
7AF
  8
LAYER_1
 10
9.891817922712278
 20
29.42633132729254
 30
0.0
  0
VERTEX
  5
7B0
  8
LAYER_1
 10
9.891817922712278
 20
41.30133132729254
 30
0.0
 42
-0.414214
  0
VERTEX
  5
7B1
  8
LAYER_1
 10
10.14181792271228
 20
41.55133132729254
 30
0.0
  0
VERTEX
  5
7B2
  8
LAYER_1
 10
10.47266006656569
 20
41.55133132729254
 30
0.0
 42
-0.305575514229746
  0
VERTEX
  5
7B3
  8
LAYER_1
 10
10.70431792271228
 20
41.70758132729254
 30
0.0
 42
-0.30311130736549
  0
VERTEX
  5
7B4
  8
LAYER_1
 10
10.93520517282411
 20
41.55345158549397
 30
0.0
  0
VERTEX
  5
7B5
  8
LAYER_1
 10
10.93513552618855
 20
41.55121428712835
 30
0.0
  0
VERTEX
  5
7B6
  8
LAYER_1
 10
14.66073345141587
 20
41.55126436872924
 30
0.0
  0
VERTEX
  5
7B7
  8
LAYER_1
 10
14.66100873237772
 20
41.55126437242972
 30
0.0
 42
-0.3000141936884541
  0
VERTEX
  5
7B8
  8
LAYER_1
 10
14.89181792271228
 20
41.70758132729254
 30
0.0
 42
-0.3005364316964492
  0
VERTEX
  5
7B9
  8
LAYER_1
 10
15.12271633181918
 20
41.5512705789652
 30
0.0
  0
VERTEX
  5
7BA
  8
LAYER_1
 10
18.84776993771743
 20
41.55132065324905
 30
0.0
 42
-0.3055403077164001
  0
SEQEND
  5
7F2
  8
LAYER_1
  0
POLYLINE
  5
A4
  8
LAYER_1
 66
     1
 10
0.0
 20
0.0
 30
0.0
  0
VERTEX
  5
7BB
  8
LAYER_1
 10
27.88640192271228
 20
45.24666432729254
 30
0.0
  0
VERTEX
  5
7BC
  8
LAYER_1
 10
27.88603192271228
 20
25.49667832729254
 30
0.0
  0
SEQEND
  5
7F3
  8
LAYER_1
  0
ENDSEC
  0
EOF
