  0
SECTION
  2
HEADER
  9
$ACADVER
  1
AC1009
  9
$DWGCODEPAGE
  3
ansi_1252
  9
$INSBASE
 10
0.0
 20
0.0
 30
0.0
  9
$EXTMIN
 10
0.9999999999999822
 20
-34.72146677115629
 30
0.0
  9
$EXTMAX
 10
145.659191073971
 20
47.69524493328856
 30
0.0
  9
$LIMMIN
 10
0.0
 20
0.0
  9
$LIMMAX
 10
12.0
 20
9.0
  9
$ORTHOMODE
 70
     0
  9
$REGENMODE
 70
     1
  9
$FILLMODE
 70
     1
  9
$QTEXTMODE
 70
     0
  9
$MIRRTEXT
 70
     1
  9
$DRAGMODE
 70
     2
  9
$LTSCALE
 40
1.0
  9
$OSMODE
 70
    37
  9
$ATTMODE
 70
     1
  9
$TEXTSIZE
 40
0.2
  9
$TRACEWID
 40
0.05
  9
$TEXTSTYLE
  7
STANDARD
  9
$CLAYER
  8
0
  9
$CELTYPE
  6
BYLAYER
  9
$CECOLOR
 62
   256
  9
$DIMSCALE
 40
1.0
  9
$DIMASZ
 40
0.18
  9
$DIMEXO
 40
0.0625
  9
$DIMDLI
 40
0.38
  9
$DIMRND
 40
0.0
  9
$DIMDLE
 40
0.0
  9
$DIMEXE
 40
0.18
  9
$DIMTP
 40
0.0
  9
$DIMTM
 40
0.0
  9
$DIMTXT
 40
0.18
  9
$DIMCEN
 40
0.09
  9
$DIMTSZ
 40
0.0
  9
$DIMTOL
 70
     0
  9
$DIMLIM
 70
     0
  9
$DIMTIH
 70
     1
  9
$DIMTOH
 70
     1
  9
$DIMSE1
 70
     0
  9
$DIMSE2
 70
     0
  9
$DIMTAD
 70
     0
  9
$DIMZIN
 70
     0
  9
$DIMBLK
  1

  9
$DIMASO
 70
     1
  9
$DIMSHO
 70
     1
  9
$DIMPOST
  1

  9
$DIMAPOST
  1

  9
$DIMALT
 70
     0
  9
$DIMALTD
 70
     2
  9
$DIMALTF
 40
25.4
  9
$DIMLFAC
 40
1.0
  9
$DIMTOFL
 70
     0
  9
$DIMTVP
 40
0.0
  9
$DIMTIX
 70
     0
  9
$DIMSOXD
 70
     0
  9
$DIMSAH
 70
     0
  9
$DIMBLK1
  1

  9
$DIMBLK2
  1

  9
$DIMSTYLE
  2
STANDARD
  9
$DIMCLRD
 70
     0
  9
$DIMCLRE
 70
     0
  9
$DIMCLRT
 70
     0
  9
$DIMTFAC
 40
1.0
  9
$DIMGAP
 40
0.09
  9
$LUNITS
 70
     2
  9
$LUPREC
 70
     4
  9
$SKETCHINC
 40
0.1
  9
$FILLETRAD
 40
0.5
  9
$AUNITS
 70
     0
  9
$AUPREC
 70
     0
  9
$MENU
  1
.
  9
$ELEVATION
 40
0.0
  9
$PELEVATION
 40
0.0
  9
$THICKNESS
 40
0.0
  9
$LIMCHECK
 70
     0
  9
$CHAMFERA
 40
0.0
  9
$CHAMFERB
 40
0.0
  9
$SKPOLY
 70
     0
  9
$TDCREATE
 40
2454910.5
  9
$TDUPDATE
 40
2457526.884256401
  9
$TDINDWG
 40
0.0000000116
  9
$TDUSRTIMER
 40
0.0000000116
  9
$USRTIMER
 70
     1
  9
$ANGBASE
 50
0.0
  9
$ANGDIR
 70
     0
  9
$PDMODE
 70
     0
  9
$PDSIZE
 40
0.0
  9
$PLINEWID
 40
0.0
  9
$COORDS
 70
     1
  9
$SPLFRAME
 70
     0
  9
$SPLINETYPE
 70
     6
  9
$SPLINESEGS
 70
     8
  9
$ATTDIA
 70
     0
  9
$ATTREQ
 70
     1
  9
$HANDLING
 70
     1
  9
$HANDSEED
  5
B21
  9
$SURFTAB1
 70
     6
  9
$SURFTAB2
 70
     6
  9
$SURFTYPE
 70
     6
  9
$SURFU
 70
     6
  9
$SURFV
 70
     6
  9
$UCSNAME
  2

  9
$UCSORG
 10
0.0
 20
0.0
 30
0.0
  9
$UCSXDIR
 10
1.0
 20
0.0
 30
0.0
  9
$UCSYDIR
 10
0.0
 20
1.0
 30
0.0
  9
$PUCSNAME
  2

  9
$PUCSORG
 10
0.0
 20
0.0
 30
0.0
  9
$PUCSXDIR
 10
1.0
 20
0.0
 30
0.0
  9
$PUCSYDIR
 10
0.0
 20
1.0
 30
0.0
  9
$USERI1
 70
     0
  9
$USERI2
 70
     0
  9
$USERI3
 70
     0
  9
$USERI4
 70
     0
  9
$USERI5
 70
     0
  9
$USERR1
 40
0.0
  9
$USERR2
 40
0.0
  9
$USERR3
 40
0.0
  9
$USERR4
 40
0.0
  9
$USERR5
 40
0.0
  9
$WORLDVIEW
 70
     1
  9
$SHADEDGE
 70
     3
  9
$SHADEDIF
 70
    70
  9
$TILEMODE
 70
     1
  9
$MAXACTVP
 70
    64
  9
$PLIMCHECK
 70
     0
  9
$PEXTMIN
 10
1.000000000000000E+20
 20
1.000000000000000E+20
 30
1.000000000000000E+20
  9
$PEXTMAX
 10
-1.000000000000000E+20
 20
-1.000000000000000E+20
 30
-1.000000000000000E+20
  9
$PLIMMIN
 10
0.0
 20
0.0
  9
$PLIMMAX
 10
12.0
 20
9.0
  9
$UNITMODE
 70
     0
  9
$VISRETAIN
 70
     1
  9
$PLINEGEN
 70
     0
  9
$PSLTSCALE
 70
     1
  0
ENDSEC
  0
SECTION
  2
TABLES
  0
TABLE
  2
VPORT
 70
     1
  0
VPORT
  2
*ACTIVE
 70
     0
 10
0.0
 20
0.0
 11
1.0
 21
1.0
 12
10.42990654205607
 22
4.5
 13
0.0
 23
0.0
 14
0.5
 24
0.5
 15
0.5
 25
0.5
 16
0.0
 26
0.0
 36
1.0
 17
0.0
 27
0.0
 37
0.0
 40
9.0
 41
1.972972972850329
 42
50.0
 43
0.0
 44
0.0
 50
0.0
 51
0.0
 71
     0
 72
   100
 73
     1
 74
     3
 75
     0
 76
     0
 77
     0
 78
     0
  0
ENDTAB
  0
TABLE
  2
LTYPE
 70
     2
  0
LTYPE
  2
CONTINUOUS
 70
     0
  3
Solid line
 72
    65
 73
     0
 40
0.0
  0
LTYPE
  2
CONTINUOUS2
 70
     0
  3
Solid Line
 72
    65
 73
     0
 40
0.0
  0
ENDTAB
  0
TABLE
  2
LAYER
 70
     2
  0
LAYER
  2
0
 70
     0
 62
     7
  6
CONTINUOUS
  0
LAYER
  2
LAYER_1
 70
     0
 62
    18
  6
CONTINUOUS
  0
ENDTAB
  0
TABLE
  2
STYLE
 70
     1
  0
STYLE
  2
STANDARD
 70
     0
 40
0.0
 41
1.0
 50
0.0
 71
     0
 42
0.2
  3
txt
  4

  0
ENDTAB
  0
TABLE
  2
VIEW
 70
     0
  0
ENDTAB
  0
TABLE
  2
UCS
 70
     0
  0
ENDTAB
  0
TABLE
  2
APPID
 70
     1
  0
APPID
  2
ACAD
 70
     0
  0
ENDTAB
  0
TABLE
  2
DIMSTYLE
 70
     1
  0
DIMSTYLE
  2
STANDARD
 70
     0
  3

  4

  5

  6

  7

 40
1.0
 41
0.18
 42
0.0625
 43
0.38
 44
0.18
 45
0.0
 46
0.0
 47
0.0
 48
0.0
140
0.18
141
0.09
142
0.0
143
25.4
144
1.0
145
0.0
146
1.0
147
0.09
 71
     0
 72
     0
 73
     1
 74
     1
 75
     0
 76
     0
 77
     0
 78
     0
170
     0
171
     2
172
     0
173
     0
174
     0
175
     0
176
     0
177
     0
178
     0
  0
ENDTAB
  0
ENDSEC
  0
SECTION
  2
BLOCKS
  0
BLOCK
  8
0
  2
$MODEL_SPACE
 70
     0
 10
0.0
 20
0.0
 30
0.0
  3
$MODEL_SPACE
  1

  0
ENDBLK
  5
21
  8
0
  0
BLOCK
 67
     1
  8
0
  2
$PAPER_SPACE
 70
     0
 10
0.0
 20
0.0
 30
0.0
  3
$PAPER_SPACE
  1

  0
ENDBLK
  5
1D
 67
     1
  8
0
  0
ENDSEC
  0
SECTION
  2
ENTITIES
  0
POLYLINE
  5
6C
  8
LAYER_1
 66
     1
 10
0.0
 20
0.0
 30
0.0
 70
     1
  0
VERTEX
  5
E8
  8
LAYER_1
 10
35.09400130461178
 20
-1.53396677115629
 30
0.0
 42
0.4142135623730951
  0
VERTEX
  5
E9
  8
LAYER_1
 10
34.90650130461178
 20
-1.72146677115629
 30
0.0
 42
0.4142135623730951
  0
VERTEX
  5
EA
  8
LAYER_1
 10
35.09400130461178
 20
-1.90896677115629
 30
0.0
 42
0.4142135623730951
  0
VERTEX
  5
EB
  8
LAYER_1
 10
35.28150130461178
 20
-1.72146677115629
 30
0.0
 42
0.4142135623730951
  0
SEQEND
  5
AAC
  8
LAYER_1
  0
POLYLINE
  5
6D
  8
LAYER_1
 66
     1
 10
0.0
 20
0.0
 30
0.0
 70
     1
  0
VERTEX
  5
EC
  8
LAYER_1
 10
38.15650130461178
 20
-12.90896677115629
 30
0.0
 42
0.4142135623730951
  0
VERTEX
  5
ED
  8
LAYER_1
 10
37.96900130461178
 20
-13.09646677115629
 30
0.0
 42
0.4142135623730951
  0
VERTEX
  5
EE
  8
LAYER_1
 10
38.15650130461178
 20
-13.28396677115629
 30
0.0
 42
0.4142135623730951
  0
VERTEX
  5
EF
  8
LAYER_1
 10
38.34400130461178
 20
-13.09646677115629
 30
0.0
 42
0.4142135623730951
  0
SEQEND
  5
AAD
  8
LAYER_1
  0
POLYLINE
  5
6E
  8
LAYER_1
 66
     1
 10
0.0
 20
0.0
 30
0.0
 70
     1
  0
VERTEX
  5
F0
  8
LAYER_1
 10
42.78150130461178
 20
-27.09646677115629
 30
0.0
 42
0.4142135623730951
  0
VERTEX
  5
F1
  8
LAYER_1
 10
42.59400130461178
 20
-27.28396677115629
 30
0.0
 42
0.4142135623730951
  0
VERTEX
  5
F2
  8
LAYER_1
 10
42.78150130461178
 20
-27.47146677115629
 30
0.0
 42
0.4142135623730951
  0
VERTEX
  5
F3
  8
LAYER_1
 10
42.96900130461178
 20
-27.28396677115629
 30
0.0
 42
0.4142135623730951
  0
SEQEND
  5
AAE
  8
LAYER_1
  0
POLYLINE
  5
6F
  8
LAYER_1
 66
     1
 10
0.0
 20
0.0
 30
0.0
 70
     1
  0
VERTEX
  5
F4
  8
LAYER_1
 10
1.061445715889438
 20
-1.78396677115629
 30
0.0
  0
VERTEX
  5
F5
  8
LAYER_1
 10
34.21900130461178
 20
-1.78396677115629
 30
0.0
 42
-0.4142135623730951
  0
VERTEX
  5
F6
  8
LAYER_1
 10
34.40650130461178
 20
-1.97146677115629
 30
0.0
 42
-0.4142135623730951
  0
VERTEX
  5
F7
  8
LAYER_1
 10
34.21900130461178
 20
-2.15896677115629
 30
0.0
  0
VERTEX
  5
F8
  8
LAYER_1
 10
2.156671092539241
 20
-2.15896677115629
 30
0.0
  0
VERTEX
  5
F9
  8
LAYER_1
 10
2.15650130461178
 20
-2.15987099587424
 30
0.0
  0
VERTEX
  5
FA
  8
LAYER_1
 10
2.15650130461178
 20
-2.78396677115629
 30
0.0
  0
VERTEX
  5
FB
  8
LAYER_1
 10
2.15650130461178
 20
-33.906096710987
 30
0.0
  0
VERTEX
  5
FC
  8
LAYER_1
 10
2.157481942702722
 20
-33.90896677115629
 30
0.0
  0
VERTEX
  5
FD
  8
LAYER_1
 10
13.03150130461178
 20
-33.90896677115629
 30
0.0
 42
-0.4142135623730951
  0
VERTEX
  5
FE
  8
LAYER_1
 10
13.21900130461178
 20
-34.09646677115629
 30
0.0
 42
-0.4142135623730951
  0
VERTEX
  5
FF
  8
LAYER_1
 10
13.03150130461178
 20
-34.28396677115629
 30
0.0
  0
VERTEX
  5
100
  8
LAYER_1
 10
1.03150130461178
 20
-34.28396677115629
 30
0.0
  0
VERTEX
  5
101
  8
LAYER_1
 10
1.03150130461178
 20
-33.90896677115629
 30
0.0
  0
VERTEX
  5
102
  8
LAYER_1
 10
1.781482835579549
 20
-33.90896677115629
 30
0.0
  0
VERTEX
  5
103
  8
LAYER_1
 10
1.78150130461178
 20
-33.90534471277276
 30
0.0
  0
VERTEX
  5
104
  8
LAYER_1
 10
1.78150130461178
 20
-2.78396677115629
 30
0.0
  0
VERTEX
  5
105
  8
LAYER_1
 10
1.78150130461178
 20
-2.15987099587424
 30
0.0
  0
VERTEX
  5
106
  8
LAYER_1
 10
1.781487993641401
 20
-2.15896677115629
 30
0.0
  0
VERTEX
  5
107
  8
LAYER_1
 10
1.056671092539241
 20
-2.15896677115629
 30
0.0
  0
VERTEX
  5
108
  8
LAYER_1
 10
1.056671092539241
 20
-1.784161412492491
 30
0.0
  0
SEQEND
  5
AAF
  8
LAYER_1
  0
POLYLINE
  5
70
  8
LAYER_1
 66
     1
 10
0.0
 20
0.0
 30
0.0
 70
     1
  0
VERTEX
  5
109
  8
LAYER_1
 10
26.53939189203894
 20
-13.10471989527311
 30
0.0
  0
VERTEX
  5
10A
  8
LAYER_1
 10
23.34978078510643
 20
-14.10523559097857
 30
0.0
  0
VERTEX
  5
10B
  8
LAYER_1
 10
23.33824457154843
 20
-14.109332099938
 30
0.0
 42
0.3088429427739422
  0
VERTEX
  5
10C
  8
LAYER_1
 10
23.21900130461178
 20
-14.28396677115629
 30
0.0
 42
0.4142135623730951
  0
VERTEX
  5
10D
  8
LAYER_1
 10
23.40650130461178
 20
-14.47146677115629
 30
0.0
 42
0.0309510186128478
  0
VERTEX
  5
10E
  8
LAYER_1
 10
23.42964796241914
 20
-14.47003257196974
 30
0.0
  0
VERTEX
  5
10F
  8
LAYER_1
 10
23.43896078390198
 20
-14.46909460606101
 30
0.0
  0
VERTEX
  5
110
  8
LAYER_1
 10
23.44357899261909
 20
-14.46843497607171
 30
0.0
  0
VERTEX
  5
111
  8
LAYER_1
 10
23.44809558303144
 20
-14.46733699771416
 30
0.0
  0
VERTEX
  5
112
  8
LAYER_1
 10
26.65045919767568
 20
-13.46273995257102
 30
0.0
  0
VERTEX
  5
113
  8
LAYER_1
 10
26.65474739719672
 20
-13.46135381193341
 30
0.0
 42
0.3205656402297684
  0
VERTEX
  5
114
  8
LAYER_1
 10
26.78150130461178
 20
-13.28396677115629
 30
0.0
 42
0.4142135623730951
  0
VERTEX
  5
115
  8
LAYER_1
 10
26.59400130461178
 20
-13.09646677115629
 30
0.0
 42
0.0623083546219381
  0
VERTEX
  5
116
  8
LAYER_1
 10
26.54781081464656
 20
-13.10224531222319
 30
0.0
  0
SEQEND
  5
AB0
  8
LAYER_1
  0
POLYLINE
  5
71
  8
LAYER_1
 66
     1
 10
0.0
 20
0.0
 30
0.0
 70
     1
  0
VERTEX
  5
117
  8
LAYER_1
 10
61.96770385914598
 20
-5.367549460606501
 30
0.0
  0
VERTEX
  5
118
  8
LAYER_1
 10
59.7804567118936
 20
-23.89499645732798
 30
0.0
  0
VERTEX
  5
119
  8
LAYER_1
 10
59.77901381356882
 20
-23.90693955272474
 30
0.0
  0
VERTEX
  5
11A
  8
LAYER_1
 10
59.77696108424907
 20
-23.91877858695459
 30
0.0
 42
-0.3510062465719246
  0
VERTEX
  5
11B
  8
LAYER_1
 10
59.59400130461178
 20
-24.06526677115629
 30
0.0
 42
-0.4142135623730951
  0
VERTEX
  5
11C
  8
LAYER_1
 10
59.40650130461178
 20
-23.87776677115629
 30
0.0
  0
VERTEX
  5
11D
  8
LAYER_1
 10
59.40680862299434
 20
-23.86695547797576
 30
0.0
  0
VERTEX
  5
11E
  8
LAYER_1
 10
59.40774975926516
 20
-23.85618147717676
 30
0.0
  0
VERTEX
  5
11F
  8
LAYER_1
 10
59.48498685768996
 20
-23.2020963912694
 30
0.0
  0
VERTEX
  5
120
  8
LAYER_1
 10
59.0539645478203
 20
-23.39064181662112
 30
0.0
  0
VERTEX
  5
121
  8
LAYER_1
 10
47.84206052976819
 20
-27.87379623854546
 30
0.0
  0
VERTEX
  5
122
  8
LAYER_1
 10
47.84178376749481
 20
-27.87521844846384
 30
0.0
 42
-0.3698087220812284
  0
VERTEX
  5
123
  8
LAYER_1
 10
47.65650130461178
 20
-28.03396677115629
 30
0.0
 42
-0.2738994997735355
  0
VERTEX
  5
124
  8
LAYER_1
 10
47.4920828502928
 20
-27.93659347019357
 30
0.0
  0
VERTEX
  5
125
  8
LAYER_1
 10
47.48804061109472
 20
-27.92880019861337
 30
0.0
  0
VERTEX
  5
126
  8
LAYER_1
 10
47.48436041956575
 20
-27.92081797401755
 30
0.0
  0
VERTEX
  5
127
  8
LAYER_1
 10
47.48106469437747
 20
-27.91267053923372
 30
0.0
  0
VERTEX
  5
128
  8
LAYER_1
 10
47.47817585420143
 20
-27.9043816370895
 30
0.0
  0
VERTEX
  5
129
  8
LAYER_1
 10
41.30683626835869
 20
-8.65764618010595
 30
0.0
  0
VERTEX
  5
12A
  8
LAYER_1
 10
41.29486860718937
 20
-8.655782750498513
 30
0.0
  0
VERTEX
  5
12B
  8
LAYER_1
 10
38.09703256772721
 20
-9.772701984162019
 30
0.0
  0
VERTEX
  5
12C
  8
LAYER_1
 10
38.08613566852308
 20
-9.77583046949017
 30
0.0
 42
-0.0740530573129654
  0
VERTEX
  5
12D
  8
LAYER_1
 10
38.03150130461178
 20
-9.78396677115629
 30
0.0
 42
-0.4142135623730951
  0
VERTEX
  5
12E
  8
LAYER_1
 10
37.84400130461178
 20
-9.59646677115629
 30
0.0
 42
-0.2739760724453257
  0
VERTEX
  5
12F
  8
LAYER_1
 10
37.94142145376355
 20
-9.432022645474767
 30
0.0
  0
VERTEX
  5
130
  8
LAYER_1
 10
37.95802281437975
 20
-9.422883729693098
 30
0.0
  0
VERTEX
  5
131
  8
LAYER_1
 10
41.18655215561276
 20
-8.29618459075487
 30
0.0
  0
VERTEX
  5
132
  8
LAYER_1
 10
41.19011486216304
 20
-8.29362375094512
 30
0.0
  0
VERTEX
  5
133
  8
LAYER_1
 10
41.16308217421305
 20
-8.209316124306302
 30
0.0
  0
VERTEX
  5
134
  8
LAYER_1
 10
41.16131576946664
 20
-8.203219781975676
 30
0.0
  0
VERTEX
  5
135
  8
LAYER_1
 10
41.15987388116618
 20
-8.19703007065198
 30
0.0
  0
VERTEX
  5
136
  8
LAYER_1
 10
41.15785393303759
 20
-8.184444520832594
 30
0.0
  0
VERTEX
  5
137
  8
LAYER_1
 10
41.15680288809642
 20
-8.171707434462558
 30
0.0
  0
VERTEX
  5
138
  8
LAYER_1
 10
41.15650130461178
 20
-8.15896677115629
 30
0.0
 42
-0.4142135623730951
  0
VERTEX
  5
139
  8
LAYER_1
 10
41.34400130461178
 20
-7.97146677115629
 30
0.0
 42
-0.279741778574133
  0
VERTEX
  5
13A
  8
LAYER_1
 10
41.51033714375513
 20
-8.072429850616693
 30
0.0
  0
VERTEX
  5
13B
  8
LAYER_1
 10
41.51412754276917
 20
-8.079743156446671
 30
0.0
  0
VERTEX
  5
13C
  8
LAYER_1
 10
41.51584210584954
 20
-8.083479868189965
 30
0.0
  0
VERTEX
  5
13D
  8
LAYER_1
 10
41.51727633653145
 20
-8.08732395410766
 30
0.0
  0
VERTEX
  5
13E
  8
LAYER_1
 10
47.74456505209977
 20
-27.50911841627154
 30
0.0
  0
VERTEX
  5
13F
  8
LAYER_1
 10
47.74470015390281
 20
-27.50913752022685
 30
0.0
  0
VERTEX
  5
140
  8
LAYER_1
 10
58.92143172846522
 20
-23.04048821445874
 30
0.0
  0
VERTEX
  5
141
  8
LAYER_1
 10
59.53305764057621
 20
-22.79518843202591
 30
0.0
  0
VERTEX
  5
142
  8
LAYER_1
 10
61.59883177811827
 20
-5.304121317188503
 30
0.0
  0
VERTEX
  5
143
  8
LAYER_1
 10
61.59886982499288
 20
-5.304016887149235
 30
0.0
 42
-0.3487986918821386
  0
VERTEX
  5
144
  8
LAYER_1
 10
61.78150130461178
 20
-5.15896677115629
 30
0.0
 42
-0.4142135623730951
  0
VERTEX
  5
145
  8
LAYER_1
 10
61.96900130461178
 20
-5.34646677115629
 30
0.0
  0
VERTEX
  5
146
  8
LAYER_1
 10
61.9686621029794
 20
-5.357026322832172
 30
0.0
  0
SEQEND
  5
AB1
  8
LAYER_1
  0
POLYLINE
  5
72
  8
LAYER_1
 66
     1
 10
0.0
 20
0.0
 30
0.0
 70
     1
  0
VERTEX
  5
147
  8
LAYER_1
 10
35.78150130461178
 20
-5.65896677115629
 30
0.0
 42
0.4142135623730951
  0
VERTEX
  5
148
  8
LAYER_1
 10
35.59400130461178
 20
-5.84646677115629
 30
0.0
 42
0.4142135623730951
  0
VERTEX
  5
149
  8
LAYER_1
 10
35.78150130461178
 20
-6.03396677115629
 30
0.0
 42
0.4142135623730951
  0
VERTEX
  5
14A
  8
LAYER_1
 10
35.96900130461178
 20
-5.84646677115629
 30
0.0
 42
0.4142135623730951
  0
SEQEND
  5
AB2
  8
LAYER_1
  0
POLYLINE
  5
73
  8
LAYER_1
 66
     1
 10
0.0
 20
0.0
 30
0.0
 70
     1
  0
VERTEX
  5
14B
  8
LAYER_1
 10
38.06307171692512
 20
-6.630475005914189
 30
0.0
  0
VERTEX
  5
14C
  8
LAYER_1
 10
34.80054682826425
 20
-7.226670822089943
 30
0.0
  0
VERTEX
  5
14D
  8
LAYER_1
 10
34.79518574021626
 20
-7.227932822205418
 30
0.0
 42
0.339012418814509
  0
VERTEX
  5
14E
  8
LAYER_1
 10
34.65650130461178
 20
-7.40896677115629
 30
0.0
 42
0.4142135623730951
  0
VERTEX
  5
14F
  8
LAYER_1
 10
34.84400130461178
 20
-7.59646677115629
 30
0.0
 42
0.0242859268569588
  0
VERTEX
  5
150
  8
LAYER_1
 10
34.86218355241905
 20
-7.595583104483989
 30
0.0
  0
VERTEX
  5
151
  8
LAYER_1
 10
34.87926685716169
 20
-7.593253712852921
 30
0.0
  0
VERTEX
  5
152
  8
LAYER_1
 10
34.8962504815998
 20
-7.590211269835279
 30
0.0
  0
VERTEX
  5
153
  8
LAYER_1
 10
38.12703356776314
 20
-7.000093410241995
 30
0.0
  0
VERTEX
  5
154
  8
LAYER_1
 10
38.13996113741996
 20
-6.997046703404724
 30
0.0
 42
0.3434060536082221
  0
VERTEX
  5
155
  8
LAYER_1
 10
38.28150130461178
 20
-6.815266771156292
 30
0.0
 42
0.4142135623730951
  0
VERTEX
  5
156
  8
LAYER_1
 10
38.09400130461178
 20
-6.627766771156292
 30
0.0
 42
0.022036777784062
  0
VERTEX
  5
157
  8
LAYER_1
 10
38.07749778012414
 20
-6.628494493557376
 30
0.0
  0
VERTEX
  5
158
  8
LAYER_1
 10
38.0702621642658
 20
-6.629317774836489
 30
0.0
  0
SEQEND
  5
AB3
  8
LAYER_1
  0
POLYLINE
  5
74
  8
LAYER_1
 66
     1
 10
0.0
 20
0.0
 30
0.0
 70
     1
  0
VERTEX
  5
159
  8
LAYER_1
 10
65.7618361824561
 20
-26.79829208516542
 30
0.0
  0
VERTEX
  5
15A
  8
LAYER_1
 10
56.45591439050031
 20
-34.28395775773339
 30
0.0
  0
VERTEX
  5
15B
  8
LAYER_1
 10
56.45575330635723
 20
-34.28396677115629
 30
0.0
  0
VERTEX
  5
15C
  8
LAYER_1
 10
50.53150130461178
 20
-34.28396677115629
 30
0.0
 42
-0.4142135623730951
  0
VERTEX
  5
15D
  8
LAYER_1
 10
50.34400130461178
 20
-34.09646677115629
 30
0.0
 42
-0.4142135623730951
  0
VERTEX
  5
15E
  8
LAYER_1
 10
50.53150130461178
 20
-33.90896677115629
 30
0.0
  0
VERTEX
  5
15F
  8
LAYER_1
 10
56.32288776967288
 20
-33.90896677115629
 30
0.0
  0
VERTEX
  5
160
  8
LAYER_1
 10
56.3231721368611
 20
-33.90891047210209
 30
0.0
  0
VERTEX
  5
161
  8
LAYER_1
 10
65.3278412732905
 20
-26.66818100657698
 30
0.0
  0
VERTEX
  5
162
  8
LAYER_1
 10
65.32841497124316
 20
-26.66775272499012
 30
0.0
  0
VERTEX
  5
163
  8
LAYER_1
 10
68.53733648803717
 20
-6.611744985408354
 30
0.0
  0
VERTEX
  5
164
  8
LAYER_1
 10
68.53820894392082
 20
-6.608553531283563
 30
0.0
  0
VERTEX
  5
165
  8
LAYER_1
 10
68.53931154830651
 20
-6.605414539840016
 30
0.0
 42
-0.3317089144572701
  0
VERTEX
  5
166
  8
LAYER_1
 10
68.71900130461178
 20
-6.47146677115629
 30
0.0
 42
-0.4142135623730951
  0
VERTEX
  5
167
  8
LAYER_1
 10
68.90650130461178
 20
-6.65896677115629
 30
0.0
  0
VERTEX
  5
168
  8
LAYER_1
 10
68.90621880005446
 20
-6.667933463167005
 30
0.0
  0
VERTEX
  5
169
  8
LAYER_1
 10
68.90545554444338
 20
-6.676882673552076
 30
0.0
  0
VERTEX
  5
16A
  8
LAYER_1
 10
68.90299232842531
 20
-6.694685897233892
 30
0.0
  0
VERTEX
  5
16B
  8
LAYER_1
 10
65.73360036834184
 20
-26.50359217275622
 30
0.0
  0
VERTEX
  5
16C
  8
LAYER_1
 10
65.73387016162607
 20
-26.50367280703328
 30
0.0
 42
-0.2546152462040965
  0
VERTEX
  5
16D
  8
LAYER_1
 10
65.81963324596825
 20
-26.66117153716287
 30
0.0
 42
-0.1703584761553992
  0
VERTEX
  5
16E
  8
LAYER_1
 10
65.77852116841234
 20
-26.77833307591387
 30
0.0
  0
VERTEX
  5
16F
  8
LAYER_1
 10
65.77068048526294
 20
-26.78881315604081
 30
0.0
  0
VERTEX
  5
170
  8
LAYER_1
 10
65.7665315407672
 20
-26.79383272830253
 30
0.0
  0
SEQEND
  5
AB4
  8
LAYER_1
  0
POLYLINE
  5
75
  8
LAYER_1
 66
     1
 10
0.0
 20
0.0
 30
0.0
 70
     1
  0
VERTEX
  5
171
  8
LAYER_1
 10
70.1565013044511
 20
-5.783966771223227
 30
0.0
  0
VERTEX
  5
172
  8
LAYER_1
 10
66.93770130450858
 20
-26.40896677116923
 30
0.0
  0
VERTEX
  5
173
  8
LAYER_1
 10
56.59400130461056
 20
-34.72146677115629
 30
0.0
  0
VERTEX
  5
174
  8
LAYER_1
 10
1.28150130461178
 20
-34.72146677115629
 30
0.0
  0
VERTEX
  5
175
  8
LAYER_1
 10
1.281501304611781
 20
-1.408966771155495
 30
0.0
  0
VERTEX
  5
176
  8
LAYER_1
 10
1.281699014319236
 20
-1.398251809354834
 30
0.0
  0
VERTEX
  5
177
  8
LAYER_1
 10
1.282287340940336
 20
-1.38752524865907
 30
0.0
  0
VERTEX
  5
178
  8
LAYER_1
 10
1.283259080723179
 20
-1.37679286001981
 30
0.0
  0
VERTEX
  5
179
  8
LAYER_1
 10
1.284607029915865
 20
-1.366060414388663
 30
0.0
  0
VERTEX
  5
17A
  8
LAYER_1
 10
1.286323984766493
 20
-1.355333682717234
 30
0.0
  0
VERTEX
  5
17B
  8
LAYER_1
 10
1.288402741523164
 20
-1.344618435957132
 30
0.0
  0
VERTEX
  5
17C
  8
LAYER_1
 10
1.290836096433976
 20
-1.333920445059964
 30
0.0
  0
VERTEX
  5
17D
  8
LAYER_1
 10
1.293616845747028
 20
-1.323245480977337
 30
0.0
  0
VERTEX
  5
17E
  8
LAYER_1
 10
1.296737785710421
 20
-1.312599314660859
 30
0.0
  0
VERTEX
  5
17F
  8
LAYER_1
 10
1.300191712572254
 20
-1.301987717062138
 30
0.0
  0
VERTEX
  5
180
  8
LAYER_1
 10
1.303971422580627
 20
-1.291416459132781
 30
0.0
  0
VERTEX
  5
181
  8
LAYER_1
 10
1.308069711983637
 20
-1.280891311824395
 30
0.0
  0
VERTEX
  5
182
  8
LAYER_1
 10
1.312479377029386
 20
-1.270418046088588
 30
0.0
  0
VERTEX
  5
183
  8
LAYER_1
 10
1.317193213965973
 20
-1.260002432876967
 30
0.0
  0
VERTEX
  5
184
  8
LAYER_1
 10
1.327504588504058
 20
-1.239367247832713
 30
0.0
  0
VERTEX
  5
185
  8
LAYER_1
 10
1.338946205582687
 20
-1.219031924304494
 30
0.0
  0
VERTEX
  5
186
  8
LAYER_1
 10
1.351460435186657
 20
-1.199042629905168
 30
0.0
  0
VERTEX
  5
187
  8
LAYER_1
 10
1.364989647300762
 20
-1.179445532247597
 30
0.0
  0
VERTEX
  5
188
  8
LAYER_1
 10
1.3794762119098
 20
-1.160286798944638
 30
0.0
  0
VERTEX
  5
189
  8
LAYER_1
 10
1.394862498998565
 20
-1.141612597609152
 30
0.0
  0
VERTEX
  5
18A
  8
LAYER_1
 10
1.411090878551854
 20
-1.123469095853999
 30
0.0
  0
VERTEX
  5
18B
  8
LAYER_1
 10
1.428103720554462
 20
-1.105902461292038
 30
0.0
  0
VERTEX
  5
18C
  8
LAYER_1
 10
1.445843394991185
 20
-1.088958861536129
 30
0.0
  0
VERTEX
  5
18D
  8
LAYER_1
 10
1.464252271846818
 20
-1.07268446419913
 30
0.0
  0
VERTEX
  5
18E
  8
LAYER_1
 10
1.483272721106159
 20
-1.057125436893903
 30
0.0
  0
VERTEX
  5
18F
  8
LAYER_1
 10
1.502847112754002
 20
-1.042327947233307
 30
0.0
  0
VERTEX
  5
190
  8
LAYER_1
 10
1.522917816775143
 20
-1.0283381628302
 30
0.0
  0
VERTEX
  5
191
  8
LAYER_1
 10
1.543427203154378
 20
-1.015202251297444
 30
0.0
  0
VERTEX
  5
192
  8
LAYER_1
 10
1.564317641876502
 20
-1.002966380247896
 30
0.0
  0
VERTEX
  5
193
  8
LAYER_1
 10
1.585531502926313
 20
-0.9916767172944182
 30
0.0
  0
VERTEX
  5
194
  8
LAYER_1
 10
1.607011156288604
 20
-0.9813794300498687
 30
0.0
  0
VERTEX
  5
195
  8
LAYER_1
 10
1.628698971948173
 20
-0.9721206861271077
 30
0.0
  0
VERTEX
  5
196
  8
LAYER_1
 10
1.650537319889814
 20
-0.9639466531389944
 30
0.0
  0
VERTEX
  5
197
  8
LAYER_1
 10
1.672468570098325
 20
-0.9569034986983889
 30
0.0
  0
VERTEX
  5
198
  8
LAYER_1
 10
1.694435092558499
 20
-0.9510373904181504
 30
0.0
  0
VERTEX
  5
199
  8
LAYER_1
 10
1.70541357150321
 20
-0.9485601559671875
 30
0.0
  0
VERTEX
  5
19A
  8
LAYER_1
 10
1.716379257255134
 20
-0.9463944959111389
 30
0.0
  0
VERTEX
  5
19B
  8
LAYER_1
 10
1.727324946062373
 20
-0.9445461812016118
 30
0.0
  0
VERTEX
  5
19C
  8
LAYER_1
 10
1.738243434173026
 20
-0.9430209827902137
 30
0.0
  0
VERTEX
  5
19D
  8
LAYER_1
 10
1.749127517835191
 20
-0.9418246716285522
 30
0.0
  0
VERTEX
  5
19E
  8
LAYER_1
 10
1.759969993296968
 20
-0.9409630186682346
 30
0.0
  0
VERTEX
  5
19F
  8
LAYER_1
 10
1.770763656806458
 20
-0.9404417948608684
 30
0.0
  0
VERTEX
  5
1A0
  8
LAYER_1
 10
1.781501304611759
 20
-0.9402667711580612
 30
0.0
  0
VERTEX
  5
1A1
  8
LAYER_1
 10
32.2815013045889
 20
-0.9402667711810331
 30
0.0
  0
VERTEX
  5
1A2
  8
LAYER_1
 10
37.1565013046139
 20
-0.0964667711552671
 30
0.0
  0
VERTEX
  5
1A3
  8
LAYER_1
 10
37.18838955613296
 20
-0.0913291297982795
 30
0.0
  0
VERTEX
  5
1A4
  8
LAYER_1
 10
37.22157175147751
 20
-0.0867958431294677
 30
0.0
  0
VERTEX
  5
1A5
  8
LAYER_1
 10
37.25586398835578
 20
-0.0829958034687607
 30
0.0
  0
VERTEX
  5
1A6
  8
LAYER_1
 10
37.291082364476
 20
-0.0800579031360873
 30
0.0
  0
VERTEX
  5
1A7
  8
LAYER_1
 10
37.32704297754638
 20
-0.0781110344513763
 30
0.0
  0
VERTEX
  5
1A8
  8
LAYER_1
 10
37.34524415347171
 20
-0.0775495158269844
 30
0.0
  0
VERTEX
  5
1A9
  8
LAYER_1
 10
37.36356192527517
 20
-0.0772840897345564
 30
0.0
  0
VERTEX
  5
1AA
  8
LAYER_1
 10
37.38197330517028
 20
-0.0773308677140834
 30
0.0
  0
VERTEX
  5
1AB
  8
LAYER_1
 10
37.40045530537058
 20
-0.0777059613055566
 30
0.0
  0
VERTEX
  5
1AC
  8
LAYER_1
 10
37.41898493808959
 20
-0.0784254820489669
 30
0.0
  0
VERTEX
  5
1AD
  8
LAYER_1
 10
37.43753921554083
 20
-0.0795055414843056
 30
0.0
  0
VERTEX
  5
1AE
  8
LAYER_1
 10
37.45609514993784
 20
-0.0809622511515636
 30
0.0
  0
VERTEX
  5
1AF
  8
LAYER_1
 10
37.47462975349416
 20
-0.0828117225907322
 30
0.0
  0
VERTEX
  5
1B0
  8
LAYER_1
 10
37.49312003842329
 20
-0.0850700673418023
 30
0.0
  0
VERTEX
  5
1B1
  8
LAYER_1
 10
37.51154301693878
 20
-0.0877533969447652
 30
0.0
  0
VERTEX
  5
1B2
  8
LAYER_1
 10
37.52987570125416
 20
-0.0908778229396119
 30
0.0
  0
VERTEX
  5
1B3
  8
LAYER_1
 10
37.54809510358292
 20
-0.0944594568663335
 30
0.0
  0
VERTEX
  5
1B4
  8
LAYER_1
 10
37.56617823613864
 20
-0.0985144102649211
 30
0.0
  0
VERTEX
  5
1B5
  8
LAYER_1
 10
37.58410211113481
 20
-0.1030587946753658
 30
0.0
  0
VERTEX
  5
1B6
  8
LAYER_1
 10
37.60184374078499
 20
-0.1081087216376588
 30
0.0
  0
VERTEX
  5
1B7
  8
LAYER_1
 10
37.61938013730268
 20
-0.1136803026917911
 30
0.0
  0
VERTEX
  5
1B8
  8
LAYER_1
 10
37.63668831290142
 20
-0.1197896493777537
 30
0.0
  0
VERTEX
  5
1B9
  8
LAYER_1
 10
37.65374527979473
 20
-0.1264528732355379
 30
0.0
  0
VERTEX
  5
1BA
  8
LAYER_1
 10
37.67052805019615
 20
-0.1336860858051348
 30
0.0
  0
VERTEX
  5
1BB
  8
LAYER_1
 10
37.68701363631921
 20
-0.1415053986265353
 30
0.0
  0
VERTEX
  5
1BC
  8
LAYER_1
 10
37.70317905037744
 20
-0.1499269232397307
 30
0.0
  0
VERTEX
  5
1BD
  8
LAYER_1
 10
37.71900130458434
 20
-0.158966771184712
 30
0.0
  0
VERTEX
  5
1BE
  8
LAYER_1
 10
37.73530001325319
 20
-0.1691576820151749
 30
0.0
  0
VERTEX
  5
1BF
  8
LAYER_1
 10
37.75120821303639
 20
-0.1799860425255104
 30
0.0
  0
VERTEX
  5
1C0
  8
LAYER_1
 10
37.76672280589558
 20
-0.1914231663875717
 30
0.0
  0
VERTEX
  5
1C1
  8
LAYER_1
 10
37.78184069379238
 20
-0.203440367273212
 30
0.0
  0
VERTEX
  5
1C2
  8
LAYER_1
 10
37.79655877868841
 20
-0.2160089588542847
 30
0.0
  0
VERTEX
  5
1C3
  8
LAYER_1
 10
37.81087396254533
 20
-0.2291002548026429
 30
0.0
  0
VERTEX
  5
1C4
  8
LAYER_1
 10
37.82478314732474
 20
-0.2426855687901399
 30
0.0
  0
VERTEX
  5
1C5
  8
LAYER_1
 10
37.83828323498827
 20
-0.2567362144886288
 30
0.0
  0
VERTEX
  5
1C6
  8
LAYER_1
 10
37.85137112749756
 20
-0.2712235055699631
 30
0.0
  0
VERTEX
  5
1C7
  8
LAYER_1
 10
37.86404372681423
 20
-0.2861187557059958
 30
0.0
  0
VERTEX
  5
1C8
  8
LAYER_1
 10
37.87629793489992
 20
-0.3013932785685802
 30
0.0
  0
VERTEX
  5
1C9
  8
LAYER_1
 10
37.88813065371625
 20
-0.3170183878295696
 30
0.0
  0
VERTEX
  5
1CA
  8
LAYER_1
 10
37.89953878522483
 20
-0.3329653971608172
 30
0.0
  0
VERTEX
  5
1CB
  8
LAYER_1
 10
37.91051923138733
 20
-0.3492056202341763
 30
0.0
  0
VERTEX
  5
1CC
  8
LAYER_1
 10
37.92106889416536
 20
-0.3657103707215
 30
0.0
  0
VERTEX
  5
1CD
  8
LAYER_1
 10
37.93118467552053
 20
-0.3824509622946417
 30
0.0
  0
VERTEX
  5
1CE
  8
LAYER_1
 10
37.94086347741448
 20
-0.3993987086254545
 30
0.0
  0
VERTEX
  5
1CF
  8
LAYER_1
 10
37.95010220180886
 20
-0.4165249233857917
 30
0.0
  0
VERTEX
  5
1D0
  8
LAYER_1
 10
37.95889775066527
 20
-0.4338009202475066
 30
0.0
  0
VERTEX
  5
1D1
  8
LAYER_1
 10
37.96724702594535
 20
-0.4511980128824523
 30
0.0
  0
VERTEX
  5
1D2
  8
LAYER_1
 10
37.97514692961073
 20
-0.4686875149624821
 30
0.0
  0
VERTEX
  5
1D3
  8
LAYER_1
 10
37.98259436362304
 20
-0.4862407401594493
 30
0.0
  0
VERTEX
  5
1D4
  8
LAYER_1
 10
37.9895862299439
 20
-0.503829002145207
 30
0.0
  0
VERTEX
  5
1D5
  8
LAYER_1
 10
37.99611943053495
 20
-0.5214236145916086
 30
0.0
  0
VERTEX
  5
1D6
  8
LAYER_1
 10
38.0021908673578
 20
-0.5389958911705073
 30
0.0
  0
VERTEX
  5
1D7
  8
LAYER_1
 10
38.0077974423741
 20
-0.5565171455537562
 30
0.0
  0
VERTEX
  5
1D8
  8
LAYER_1
 10
38.01293605754547
 20
-0.5739586914132087
 30
0.0
  0
VERTEX
  5
1D9
  8
LAYER_1
 10
38.01760361483355
 20
-0.5912918424207179
 30
0.0
  0
VERTEX
  5
1DA
  8
LAYER_1
 10
38.02179701619994
 20
-0.6084879122481371
 30
0.0
  0
VERTEX
  5
1DB
  8
LAYER_1
 10
38.02551316360629
 20
-0.6255182145673196
 30
0.0
  0
VERTEX
  5
1DC
  8
LAYER_1
 10
38.02874895901422
 20
-0.6423540630501186
 30
0.0
  0
VERTEX
  5
1DD
  8
LAYER_1
 10
38.03150130438537
 20
-0.6589667713683873
 30
0.0
  0
VERTEX
  5
1DE
  8
LAYER_1
 10
38.46900130466868
 20
-3.533966771106936
 30
0.0
  0
VERTEX
  5
1DF
  8
LAYER_1
 10
38.47488771957606
 20
-3.570834818064026
 30
0.0
  0
VERTEX
  5
1E0
  8
LAYER_1
 10
38.4813486733839
 20
-3.607833812624248
 30
0.0
  0
VERTEX
  5
1E1
  8
LAYER_1
 10
38.48838529971525
 20
-3.644946638060286
 30
0.0
  0
VERTEX
  5
1E2
  8
LAYER_1
 10
38.49599873219314
 20
-3.682156177644826
 30
0.0
  0
VERTEX
  5
1E3
  8
LAYER_1
 10
38.50419010444061
 20
-3.719445314650549
 30
0.0
  0
VERTEX
  5
1E4
  8
LAYER_1
 10
38.51296055008071
 20
-3.756796932350139
 30
0.0
  0
VERTEX
  5
1E5
  8
LAYER_1
 10
38.52231120273646
 20
-3.794193914016282
 30
0.0
  0
VERTEX
  5
1E6
  8
LAYER_1
 10
38.5322431960309
 20
-3.83161914292166
 30
0.0
  0
VERTEX
  5
1E7
  8
LAYER_1
 10
38.54275766358709
 20
-3.869055502338957
 30
0.0
  0
VERTEX
  5
1E8
  8
LAYER_1
 10
38.55385573902804
 20
-3.906485875540857
 30
0.0
  0
VERTEX
  5
1E9
  8
LAYER_1
 10
38.56553855597681
 20
-3.943893145800044
 30
0.0
  0
VERTEX
  5
1EA
  8
LAYER_1
 10
38.57780724805643
 20
-3.981260196389202
 30
0.0
  0
VERTEX
  5
1EB
  8
LAYER_1
 10
38.59066294888994
 20
-4.018569910581015
 30
0.0
  0
VERTEX
  5
1EC
  8
LAYER_1
 10
38.60410679210037
 20
-4.055805171648165
 30
0.0
  0
VERTEX
  5
1ED
  8
LAYER_1
 10
38.61813991131076
 20
-4.092948862863338
 30
0.0
  0
VERTEX
  5
1EE
  8
LAYER_1
 10
38.63276344014417
 20
-4.129983867499217
 30
0.0
  0
VERTEX
  5
1EF
  8
LAYER_1
 10
38.64880224679896
 20
-4.168847332511286
 30
0.0
  0
VERTEX
  5
1F0
  8
LAYER_1
 10
38.66549835043192
 20
-4.207551303885805
 30
0.0
  0
VERTEX
  5
1F1
  8
LAYER_1
 10
38.68285307482984
 20
-4.246075793587003
 30
0.0
  0
VERTEX
  5
1F2
  8
LAYER_1
 10
38.70086774377953
 20
-4.28440081357911
 30
0.0
  0
VERTEX
  5
1F3
  8
LAYER_1
 10
38.71954368106781
 20
-4.322506375826356
 30
0.0
  0
VERTEX
  5
1F4
  8
LAYER_1
 10
38.73888221048149
 20
-4.360372492292975
 30
0.0
  0
VERTEX
  5
1F5
  8
LAYER_1
 10
38.75888465580737
 20
-4.397979174943195
 30
0.0
  0
VERTEX
  5
1F6
  8
LAYER_1
 10
38.77955234083226
 20
-4.435306435741246
 30
0.0
  0
VERTEX
  5
1F7
  8
LAYER_1
 10
38.80088658934297
 20
-4.47233428665136
 30
0.0
  0
VERTEX
  5
1F8
  8
LAYER_1
 10
38.82288872512632
 20
-4.509042739637765
 30
0.0
  0
VERTEX
  5
1F9
  8
LAYER_1
 10
38.84556007196911
 20
-4.545411806664696
 30
0.0
  0
VERTEX
  5
1FA
  8
LAYER_1
 10
38.86890195365815
 20
-4.581421499696379
 30
0.0
  0
VERTEX
  5
1FB
  8
LAYER_1
 10
38.89291569398024
 20
-4.617051830697046
 30
0.0
  0
VERTEX
  5
1FC
  8
LAYER_1
 10
38.91760261672221
 20
-4.652282811630929
 30
0.0
  0
VERTEX
  5
1FD
  8
LAYER_1
 10
38.94296404567086
 20
-4.687094454462256
 30
0.0
  0
VERTEX
  5
1FE
  8
LAYER_1
 10
38.96900130461299
 20
-4.72146677115526
 30
0.0
  0
VERTEX
  5
1FF
  8
LAYER_1
 10
38.98390636257238
 20
-4.74050662026135
 30
0.0
  0
VERTEX
  5
200
  8
LAYER_1
 10
38.99901364427242
 20
-4.759299971079628
 30
0.0
  0
VERTEX
  5
201
  8
LAYER_1
 10
39.01432017293285
 20
-4.777849442154297
 30
0.0
  0
VERTEX
  5
202
  8
LAYER_1
 10
39.02982297177347
 20
-4.79615765202956
 30
0.0
  0
VERTEX
  5
203
  8
LAYER_1
 10
39.06140547287436
 20
-4.832060762358682
 30
0.0
  0
VERTEX
  5
204
  8
LAYER_1
 10
39.09373733333331
 20
-4.86703025042062
 30
0.0
  0
VERTEX
  5
205
  8
LAYER_1
 10
39.12679473890852
 20
-4.901087064568998
 30
0.0
  0
VERTEX
  5
206
  8
LAYER_1
 10
39.16055387535822
 20
-4.934252153157438
 30
0.0
  0
VERTEX
  5
207
  8
LAYER_1
 10
39.19499092844062
 20
-4.966546464539565
 30
0.0
  0
VERTEX
  5
208
  8
LAYER_1
 10
39.23008208391393
 20
-4.997990947069006
 30
0.0
  0
VERTEX
  5
209
  8
LAYER_1
 10
39.26580352753638
 20
-5.028606549099383
 30
0.0
  0
VERTEX
  5
20A
  8
LAYER_1
 10
39.30213144506617
 20
-5.058414218984321
 30
0.0
  0
VERTEX
  5
20B
  8
LAYER_1
 10
39.33904202226151
 20
-5.087434905077446
 30
0.0
  0
VERTEX
  5
20C
  8
LAYER_1
 10
39.37651144488062
 20
-5.11568955573238
 30
0.0
  0
VERTEX
  5
20D
  8
LAYER_1
 10
39.41451589868171
 20
-5.143199119302748
 30
0.0
  0
VERTEX
  5
20E
  8
LAYER_1
 10
39.45303156942302
 20
-5.169984544142176
 30
0.0
  0
VERTEX
  5
20F
  8
LAYER_1
 10
39.49203464286273
 20
-5.196066778604288
 30
0.0
  0
VERTEX
  5
210
  8
LAYER_1
 10
39.53150130475909
 20
-5.221466771042707
 30
0.0
  0
VERTEX
  5
211
  8
LAYER_1
 10
39.56674560203135
 20
-5.243392881940273
 30
0.0
  0
VERTEX
  5
212
  8
LAYER_1
 10
39.60231692406563
 20
-5.264820235270472
 30
0.0
  0
VERTEX
  5
213
  8
LAYER_1
 10
39.63819839277633
 20
-5.285675675915156
 30
0.0
  0
VERTEX
  5
214
  8
LAYER_1
 10
39.67437313007783
 20
-5.305886048756182
 30
0.0
  0
VERTEX
  5
215
  8
LAYER_1
 10
39.71082425788448
 20
-5.325378198675402
 30
0.0
  0
VERTEX
  5
216
  8
LAYER_1
 10
39.7475348981107
 20
-5.344078970554667
 30
0.0
  0
VERTEX
  5
217
  8
LAYER_1
 10
39.78448817267086
 20
-5.361915209275835
 30
0.0
  0
VERTEX
  5
218
  8
LAYER_1
 10
39.82166720347934
 20
-5.378813759720754
 30
0.0
  0
VERTEX
  5
219
  8
LAYER_1
 10
39.85905511245051
 20
-5.394701466771281
 30
0.0
  0
VERTEX
  5
21A
  8
LAYER_1
 10
39.89663502149877
 20
-5.409505175309267
 30
0.0
  0
VERTEX
  5
21B
  8
LAYER_1
 10
39.93439005253848
 20
-5.423151730216568
 30
0.0
  0
VERTEX
  5
21C
  8
LAYER_1
 10
39.95332796440339
 20
-5.42951821408429
 30
0.0
  0
VERTEX
  5
21D
  8
LAYER_1
 10
39.97230332748406
 20
-5.435567976375036
 30
0.0
  0
VERTEX
  5
21E
  8
LAYER_1
 10
39.99131403201977
 20
-5.441291872699037
 30
0.0
  0
VERTEX
  5
21F
  8
LAYER_1
 10
40.01035796824985
 20
-5.446680758666524
 30
0.0
  0
VERTEX
  5
220
  8
LAYER_1
 10
40.02943302641357
 20
-5.45172548988773
 30
0.0
  0
VERTEX
  5
221
  8
LAYER_1
 10
40.04853709675025
 20
-5.456416921972886
 30
0.0
  0
VERTEX
  5
222
  8
LAYER_1
 10
40.06766806949918
 20
-5.460745910532225
 30
0.0
  0
VERTEX
  5
223
  8
LAYER_1
 10
40.08682383489964
 20
-5.464703311175977
 30
0.0
  0
VERTEX
  5
224
  8
LAYER_1
 10
40.10600228319095
 20
-5.468279979514374
 30
0.0
  0
VERTEX
  5
225
  8
LAYER_1
 10
40.1252013046124
 20
-5.471466771157647
 30
0.0
  0
VERTEX
  5
226
  8
LAYER_1
 10
58.00020130505159
 20
-8.25276677095076
 30
0.0
  0
VERTEX
  5
227
  8
LAYER_1
 10
58.05928613579553
 20
-8.261691134214853
 30
0.0
  0
VERTEX
  5
228
  8
LAYER_1
 10
58.11921691454638
 20
-8.270086050083833
 30
0.0
  0
VERTEX
  5
229
  8
LAYER_1
 10
58.17990994299529
 20
-8.277754096906433
 30
0.0
  0
VERTEX
  5
22A
  8
LAYER_1
 10
58.24128152283343
 20
-8.28449785303139
 30
0.0
  0
VERTEX
  5
22B
  8
LAYER_1
 10
58.27219561380196
 20
-8.28746142781623
 30
0.0
  0
VERTEX
  5
22C
  8
LAYER_1
 10
58.30324795575196
 20
-8.290119896807436
 30
0.0
  0
VERTEX
  5
22D
  8
LAYER_1
 10
58.33442808639485
 20
-8.292448582298597
 30
0.0
  0
VERTEX
  5
22E
  8
LAYER_1
 10
58.36572554344203
 20
-8.294422806583311
 30
0.0
  0
VERTEX
  5
22F
  8
LAYER_1
 10
58.39712986460488
 20
-8.296017891955163
 30
0.0
  0
VERTEX
  5
230
  8
LAYER_1
 10
58.4286305875948
 20
-8.297209160707748
 30
0.0
  0
VERTEX
  5
231
  8
LAYER_1
 10
58.46021725012319
 20
-8.297971935134658
 30
0.0
  0
VERTEX
  5
232
  8
LAYER_1
 10
58.49187938990143
 20
-8.298281537529483
 30
0.0
  0
VERTEX
  5
233
  8
LAYER_1
 10
58.52360654464094
 20
-8.29811329018582
 30
0.0
  0
VERTEX
  5
234
  8
LAYER_1
 10
58.55538825205309
 20
-8.297442515397252
 30
0.0
  0
VERTEX
  5
235
  8
LAYER_1
 10
58.58721404984929
 20
-8.296244535457378
 30
0.0
  0
VERTEX
  5
236
  8
LAYER_1
 10
58.61907347574093
 20
-8.294494672659788
 30
0.0
  0
VERTEX
  5
237
  8
LAYER_1
 10
58.65095606743941
 20
-8.292168249298072
 30
0.0
  0
VERTEX
  5
238
  8
LAYER_1
 10
58.68285136265611
 20
-8.289240587665827
 30
0.0
  0
VERTEX
  5
239
  8
LAYER_1
 10
58.71474889910245
 20
-8.285687010056641
 30
0.0
  0
VERTEX
  5
23A
  8
LAYER_1
 10
58.74663821448979
 20
-8.281482838764106
 30
0.0
  0
VERTEX
  5
23B
  8
LAYER_1
 10
58.77850884652956
 20
-8.276603396081814
 30
0.0
  0
VERTEX
  5
23C
  8
LAYER_1
 10
58.81035033293313
 20
-8.271024004303356
 30
0.0
  0
VERTEX
  5
23D
  8
LAYER_1
 10
58.84215221141191
 20
-8.26471998572233
 30
0.0
  0
VERTEX
  5
23E
  8
LAYER_1
 10
58.87390401967729
 20
-8.25766666263232
 30
0.0
  0
VERTEX
  5
23F
  8
LAYER_1
 10
58.90559529544066
 20
-8.249839357326923
 30
0.0
  0
VERTEX
  5
240
  8
LAYER_1
 10
58.93721557641342
 20
-8.241213392099727
 30
0.0
  0
VERTEX
  5
241
  8
LAYER_1
 10
58.96875440030698
 20
-8.231764089244328
 30
0.0
  0
VERTEX
  5
242
  8
LAYER_1
 10
59.0002013048327
 20
-8.221466771054313
 30
0.0
  0
VERTEX
  5
243
  8
LAYER_1
 10
59.04508208839229
 20
-8.205798040609372
 30
0.0
  0
VERTEX
  5
244
  8
LAYER_1
 10
59.0905569371273
 20
-8.18924958617329
 30
0.0
  0
VERTEX
  5
245
  8
LAYER_1
 10
59.13649981468318
 20
-8.171843848043041
 30
0.0
  0
VERTEX
  5
246
  8
LAYER_1
 10
59.1827846847054
 20
-8.153603266515592
 30
0.0
  0
VERTEX
  5
247
  8
LAYER_1
 10
59.22928551083941
 20
-8.134550281887917
 30
0.0
  0
VERTEX
  5
248
  8
LAYER_1
 10
59.27587625673068
 20
-8.114707334456984
 30
0.0
  0
VERTEX
  5
249
  8
LAYER_1
 10
59.32243088602466
 20
-8.094096864519763
 30
0.0
  0
VERTEX
  5
24A
  8
LAYER_1
 10
59.36882336236682
 20
-8.072741312373223
 30
0.0
  0
VERTEX
  5
24B
  8
LAYER_1
 10
59.41492764940261
 20
-8.050663118314336
 30
0.0
  0
VERTEX
  5
24C
  8
LAYER_1
 10
59.4606177107775
 20
-8.02788472264007
 30
0.0
  0
VERTEX
  5
24D
  8
LAYER_1
 10
59.50576751013695
 20
-8.004428565647398
 30
0.0
  0
VERTEX
  5
24E
  8
LAYER_1
 10
59.5502510111264
 20
-7.980317087633289
 30
0.0
  0
VERTEX
  5
24F
  8
LAYER_1
 10
59.59394217739133
 20
-7.955572728894712
 30
0.0
  0
VERTEX
  5
250
  8
LAYER_1
 10
59.6367149725772
 20
-7.930217929728638
 30
0.0
  0
VERTEX
  5
251
  8
LAYER_1
 10
59.67844336032945
 20
-7.904275130432037
 30
0.0
  0
VERTEX
  5
252
  8
LAYER_1
 10
59.71900130429356
 20
-7.877766771301879
 30
0.0
  0
VERTEX
  5
253
  8
LAYER_1
 10
59.74032822487007
 20
-7.863108137880756
 30
0.0
  0
VERTEX
  5
254
  8
LAYER_1
 10
59.76130626440079
 20
-7.847994794957515
 30
0.0
  0
VERTEX
  5
255
  8
LAYER_1
 10
59.78194612521244
 20
-7.832447067568924
 30
0.0
  0
VERTEX
  5
256
  8
LAYER_1
 10
59.80225850963178
 20
-7.816485280751748
 30
0.0
  0
VERTEX
  5
257
  8
LAYER_1
 10
59.82225411998556
 20
-7.800129759542752
 30
0.0
  0
VERTEX
  5
258
  8
LAYER_1
 10
59.84194365860049
 20
-7.783400828978702
 30
0.0
  0
VERTEX
  5
259
  8
LAYER_1
 10
59.86133782780333
 20
-7.766318814096363
 30
0.0
  0
VERTEX
  5
25A
  8
LAYER_1
 10
59.88044732992082
 20
-7.748904039932502
 30
0.0
  0
VERTEX
  5
25B
  8
LAYER_1
 10
59.89928286727969
 20
-7.731176831523885
 30
0.0
  0
VERTEX
  5
25C
  8
LAYER_1
 10
59.9178551422067
 20
-7.713157513907277
 30
0.0
  0
VERTEX
  5
25D
  8
LAYER_1
 10
59.93617485702857
 20
-7.694866412119442
 30
0.0
  0
VERTEX
  5
25E
  8
LAYER_1
 10
59.95425271407204
 20
-7.676323851197148
 30
0.0
  0
VERTEX
  5
25F
  8
LAYER_1
 10
59.98972566413077
 20
-7.638565652096245
 30
0.0
  0
VERTEX
  5
260
  8
LAYER_1
 10
60.02435961099683
 20
-7.600045516898694
 30
0.0
  0
VERTEX
  5
261
  8
LAYER_1
 10
60.0582401732841
 20
-7.56092604589862
 30
0.0
  0
VERTEX
  5
262
  8
LAYER_1
 10
60.09145296960654
 20
-7.521369839390148
 30
0.0
  0
VERTEX
  5
263
  8
LAYER_1
 10
60.12408361857804
 20
-7.481539497667405
 30
0.0
  0
VERTEX
  5
264
  8
LAYER_1
 10
60.15621773881255
 20
-7.441597621024517
 30
0.0
  0
VERTEX
  5
265
  8
LAYER_1
 10
60.21933886752623
 20
-7.362029664154809
 30
0.0
  0
VERTEX
  5
266
  8
LAYER_1
 10
60.28150130465895
 20
-7.283966771134033
 30
0.0
  0
VERTEX
  5
267
  8
LAYER_1
 10
60.30209980713132
 20
-7.257438782764052
 30
0.0
  0
VERTEX
  5
268
  8
LAYER_1
 10
60.32186963925935
 20
-7.230132896311646
 30
0.0
  0
VERTEX
  5
269
  8
LAYER_1
 10
60.34085546709667
 20
-7.202134455133728
 30
0.0
  0
VERTEX
  5
26A
  8
LAYER_1
 10
60.3591019566969
 20
-7.173528802587207
 30
0.0
  0
VERTEX
  5
26B
  8
LAYER_1
 10
60.37665377411366
 20
-7.144401282028992
 30
0.0
  0
VERTEX
  5
26C
  8
LAYER_1
 10
60.39355558540058
 20
-7.114837236815996
 30
0.0
  0
VERTEX
  5
26D
  8
LAYER_1
 10
60.40985205661126
 20
-7.08492201030513
 30
0.0
  0
VERTEX
  5
26E
  8
LAYER_1
 10
60.42558785379931
 20
-7.054740945853305
 30
0.0
  0
VERTEX
  5
26F
  8
LAYER_1
 10
60.44080764301839
 20
-7.024379386817429
 30
0.0
  0
VERTEX
  5
270
  8
LAYER_1
 10
60.45555609032209
 20
-6.993922676554416
 30
0.0
  0
VERTEX
  5
271
  8
LAYER_1
 10
60.48381762339785
 20
-6.933065175774619
 30
0.0
  0
VERTEX
  5
272
  8
LAYER_1
 10
60.51072978145558
 20
-6.872851190369198
 30
0.0
  0
VERTEX
  5
273
  8
LAYER_1
 10
60.53664989292421
 20
-6.813963467193442
 30
0.0
  0
VERTEX
  5
274
  8
LAYER_1
 10
60.55510629185243
 20
-6.771883860630507
 30
0.0
  0
VERTEX
  5
275
  8
LAYER_1
 10
60.57324348745074
 20
-6.729652871610478
 30
0.0
  0
VERTEX
  5
276
  8
LAYER_1
 10
60.59072465675332
 20
-6.687241551295296
 30
0.0
  0
VERTEX
  5
277
  8
LAYER_1
 10
60.5991139743669
 20
-6.66595922039013
 30
0.0
  0
VERTEX
  5
278
  8
LAYER_1
 10
60.60721297679435
 20
-6.644620950846905
 30
0.0
  0
VERTEX
  5
279
  8
LAYER_1
 10
60.61497956116496
 20
-6.623223124060862
 30
0.0
  0
VERTEX
  5
27A
  8
LAYER_1
 10
60.62237162460799
 20
-6.601762121427246
 30
0.0
  0
VERTEX
  5
27B
  8
LAYER_1
 10
60.62934706425271
 20
-6.5802343243413
 30
0.0
  0
VERTEX
  5
27C
  8
LAYER_1
 10
60.63586377722839
 20
-6.558636114198263
 30
0.0
  0
VERTEX
  5
27D
  8
LAYER_1
 10
60.64187966066432
 20
-6.536963872393382
 30
0.0
  0
VERTEX
  5
27E
  8
LAYER_1
 10
60.64735261168974
 20
-6.515213980321897
 30
0.0
  0
VERTEX
  5
27F
  8
LAYER_1
 10
60.65224052743394
 20
-6.493382819379052
 30
0.0
  0
VERTEX
  5
280
  8
LAYER_1
 10
60.6565013050262
 20
-6.471466770960092
 30
0.0
  0
VERTEX
  5
281
  8
LAYER_1
 10
61.03150130465742
 20
-4.377766771131324
 30
0.0
  0
VERTEX
  5
282
  8
LAYER_1
 10
61.03746117035824
 20
-4.347145264977808
 30
0.0
  0
VERTEX
  5
283
  8
LAYER_1
 10
61.04451532028012
 20
-4.315979377323599
 30
0.0
  0
VERTEX
  5
284
  8
LAYER_1
 10
61.05270541164153
 20
-4.284423518666009
 30
0.0
  0
VERTEX
  5
285
  8
LAYER_1
 10
61.06207310166098
 20
-4.252632099502348
 30
0.0
  0
VERTEX
  5
286
  8
LAYER_1
 10
61.07266004755693
 20
-4.220759530329927
 30
0.0
  0
VERTEX
  5
287
  8
LAYER_1
 10
61.07842375933937
 20
-4.204841067770841
 30
0.0
  0
VERTEX
  5
288
  8
LAYER_1
 10
61.08450790654786
 20
-4.18896022164606
 30
0.0
  0
VERTEX
  5
289
  8
LAYER_1
 10
61.09091769633473
 20
-4.173136293267742
 30
0.0
  0
VERTEX
  5
28A
  8
LAYER_1
 10
61.09765833585227
 20
-4.157388583948055
 30
0.0
  0
VERTEX
  5
28B
  8
LAYER_1
 10
61.1047350322528
 20
-4.14173639499916
 30
0.0
  0
VERTEX
  5
28C
  8
LAYER_1
 10
61.11215299268864
 20
-4.126199027733225
 30
0.0
  0
VERTEX
  5
28D
  8
LAYER_1
 10
61.11991742431208
 20
-4.110795783462411
 30
0.0
  0
VERTEX
  5
28E
  8
LAYER_1
 10
61.12803353427545
 20
-4.095545963498882
 30
0.0
  0
VERTEX
  5
28F
  8
LAYER_1
 10
61.13650652973104
 20
-4.080468869154801
 30
0.0
  0
VERTEX
  5
290
  8
LAYER_1
 10
61.14534161783118
 20
-4.065583801742334
 30
0.0
  0
VERTEX
  5
291
  8
LAYER_1
 10
61.15454400572817
 20
-4.050910062573644
 30
0.0
  0
VERTEX
  5
292
  8
LAYER_1
 10
61.16411890057432
 20
-4.036466952960895
 30
0.0
  0
VERTEX
  5
293
  8
LAYER_1
 10
61.17407150952194
 20
-4.022273774216252
 30
0.0
  0
VERTEX
  5
294
  8
LAYER_1
 10
61.18440703972336
 20
-4.008349827651878
 30
0.0
  0
VERTEX
  5
295
  8
LAYER_1
 10
61.19513069833087
 20
-3.994714414579935
 30
0.0
  0
VERTEX
  5
296
  8
LAYER_1
 10
61.20624769249677
 20
-3.98138683631259
 30
0.0
  0
VERTEX
  5
297
  8
LAYER_1
 10
61.2177632293734
 20
-3.968386394162006
 30
0.0
  0
VERTEX
  5
298
  8
LAYER_1
 10
61.22968251611304
 20
-3.955732389440345
 30
0.0
  0
VERTEX
  5
299
  8
LAYER_1
 10
61.24201075986804
 20
-3.943444123459773
 30
0.0
  0
VERTEX
  5
29A
  8
LAYER_1
 10
61.25475316779067
 20
-3.931540897532454
 30
0.0
  0
VERTEX
  5
29B
  8
LAYER_1
 10
61.26791494703325
 20
-3.92004201297055
 30
0.0
  0
VERTEX
  5
29C
  8
LAYER_1
 10
61.28150130474812
 20
-3.908966771086227
 30
0.0
  0
VERTEX
  5
29D
  8
LAYER_1
 10
61.29470481715477
 20
-3.898941897858356
 30
0.0
  0
VERTEX
  5
29E
  8
LAYER_1
 10
61.30829363744834
 20
-3.889326023683935
 30
0.0
  0
VERTEX
  5
29F
  8
LAYER_1
 10
61.32224485734075
 20
-3.880117723646169
 30
0.0
  0
VERTEX
  5
2A0
  8
LAYER_1
 10
61.33653556854395
 20
-3.871315572828268
 30
0.0
  0
VERTEX
  5
2A1
  8
LAYER_1
 10
61.35114286276988
 20
-3.862918146313437
 30
0.0
  0
VERTEX
  5
2A2
  8
LAYER_1
 10
61.3660438317305
 20
-3.854924019184884
 30
0.0
  0
VERTEX
  5
2A3
  8
LAYER_1
 10
61.38121556713772
 20
-3.847331766525817
 30
0.0
  0
VERTEX
  5
2A4
  8
LAYER_1
 10
61.3966351607035
 20
-3.840139963419443
 30
0.0
  0
VERTEX
  5
2A5
  8
LAYER_1
 10
61.41227970413976
 20
-3.833347184948968
 30
0.0
  0
VERTEX
  5
2A6
  8
LAYER_1
 10
61.42812628915847
 20
-3.826952006197601
 30
0.0
  0
VERTEX
  5
2A7
  8
LAYER_1
 10
61.44415200747155
 20
-3.820953002248547
 30
0.0
  0
VERTEX
  5
2A8
  8
LAYER_1
 10
61.46033395079094
 20
-3.815348748185015
 30
0.0
  0
VERTEX
  5
2A9
  8
LAYER_1
 10
61.47664921082858
 20
-3.810137819090211
 30
0.0
  0
VERTEX
  5
2AA
  8
LAYER_1
 10
61.49307487929644
 20
-3.805318790047344
 30
0.0
  0
VERTEX
  5
2AB
  8
LAYER_1
 10
61.50958804790643
 20
-3.80089023613962
 30
0.0
  0
VERTEX
  5
2AC
  8
LAYER_1
 10
61.5261658083705
 20
-3.796850732450247
 30
0.0
  0
VERTEX
  5
2AD
  8
LAYER_1
 10
61.54278525240059
 20
-3.793198854062431
 30
0.0
  0
VERTEX
  5
2AE
  8
LAYER_1
 10
61.55942347170864
 20
-3.78993317605938
 30
0.0
  0
VERTEX
  5
2AF
  8
LAYER_1
 10
61.5760575580066
 20
-3.787052273524301
 30
0.0
  0
VERTEX
  5
2B0
  8
LAYER_1
 10
61.5926646030064
 20
-3.784554721540401
 30
0.0
  0
VERTEX
  5
2B1
  8
LAYER_1
 10
61.60922169841998
 20
-3.782439095190888
 30
0.0
  0
VERTEX
  5
2B2
  8
LAYER_1
 10
61.62570593595929
 20
-3.780703969558969
 30
0.0
  0
VERTEX
  5
2B3
  8
LAYER_1
 10
61.64209440733626
 20
-3.779347919727851
 30
0.0
  0
VERTEX
  5
2B4
  8
LAYER_1
 10
61.65836420426284
 20
-3.778369520780741
 30
0.0
  0
VERTEX
  5
2B5
  8
LAYER_1
 10
61.67449241845097
 20
-3.777767347800847
 30
0.0
  0
VERTEX
  5
2B6
  8
LAYER_1
 10
61.69045614161259
 20
-3.777539975871375
 30
0.0
  0
VERTEX
  5
2B7
  8
LAYER_1
 10
61.70623246545962
 20
-3.777685980075533
 30
0.0
  0
VERTEX
  5
2B8
  8
LAYER_1
 10
61.72179848170404
 20
-3.778203935496529
 30
0.0
  0
VERTEX
  5
2B9
  8
LAYER_1
 10
61.73713128205777
 20
-3.779092417217568
 30
0.0
  0
VERTEX
  5
2BA
  8
LAYER_1
 10
61.75220795823274
 20
-3.78035000032186
 30
0.0
  0
VERTEX
  5
2BB
  8
LAYER_1
 10
61.76700560194091
 20
-3.78197525989261
 30
0.0
  0
VERTEX
  5
2BC
  8
LAYER_1
 10
61.78150130489421
 20
-3.783966771013027
 30
0.0
  0
VERTEX
  5
2BD
  8
LAYER_1
 10
69.40650130455445
 20
-4.940266771178749
 30
0.0
  0
VERTEX
  5
2BE
  8
LAYER_1
 10
69.42687522148194
 20
-4.943640463118771
 30
0.0
  0
VERTEX
  5
2BF
  8
LAYER_1
 10
69.45546382996928
 20
-4.948919170564558
 30
0.0
  0
VERTEX
  5
2C0
  8
LAYER_1
 10
69.49089713825775
 20
-4.956031863865323
 30
0.0
  0
VERTEX
  5
2C1
  8
LAYER_1
 10
69.53180515458862
 20
-4.964907513370277
 30
0.0
  0
VERTEX
  5
2C2
  8
LAYER_1
 10
69.57681788720322
 20
-4.975475089428635
 30
0.0
  0
VERTEX
  5
2C3
  8
LAYER_1
 10
69.62456534434281
 20
-4.987663562389608
 30
0.0
  0
VERTEX
  5
2C4
  8
LAYER_1
 10
69.64903647218489
 20
-4.994343438442705
 30
0.0
  0
VERTEX
  5
2C5
  8
LAYER_1
 10
69.67367753424868
 20
-5.001401902602409
 30
0.0
  0
VERTEX
  5
2C6
  8
LAYER_1
 10
69.69831728156439
 20
-5.008830076162375
 30
0.0
  0
VERTEX
  5
2C7
  8
LAYER_1
 10
69.72278446516214
 20
-5.016619080416252
 30
0.0
  0
VERTEX
  5
2C8
  8
LAYER_1
 10
69.74639012825249
 20
-5.024575028411283
 30
0.0
  0
VERTEX
  5
2C9
  8
LAYER_1
 10
69.76956667221957
 20
-5.032827081835611
 30
0.0
  0
VERTEX
  5
2CA
  8
LAYER_1
 10
69.79222699085709
 20
-5.041327597602525
 30
0.0
  0
VERTEX
  5
2CB
  8
LAYER_1
 10
69.81428397795878
 20
-5.05002893262531
 30
0.0
  0
VERTEX
  5
2CC
  8
LAYER_1
 10
69.83565052731835
 20
-5.058883443817253
 30
0.0
  0
VERTEX
  5
2CD
  8
LAYER_1
 10
69.85623953272949
 20
-5.067843488091643
 30
0.0
  0
VERTEX
  5
2CE
  8
LAYER_1
 10
69.87596388798595
 20
-5.076861422361765
 30
0.0
  0
VERTEX
  5
2CF
  8
LAYER_1
 10
69.89473648688141
 20
-5.085889603540909
 30
0.0
  0
VERTEX
  5
2D0
  8
LAYER_1
 10
69.91247022320962
 20
-5.094880388542359
 30
0.0
  0
VERTEX
  5
2D1
  8
LAYER_1
 10
69.9290779907643
 20
-5.103786134279405
 30
0.0
  0
VERTEX
  5
2D2
  8
LAYER_1
 10
69.94447268333914
 20
-5.112559197665331
 30
0.0
  0
VERTEX
  5
2D3
  8
LAYER_1
 10
69.95856719472786
 20
-5.121151935613427
 30
0.0
  0
VERTEX
  5
2D4
  8
LAYER_1
 10
69.97127441872416
 20
-5.129516705036979
 30
0.0
  0
VERTEX
  5
2D5
  8
LAYER_1
 10
69.9825072491218
 20
-5.137605862849274
 30
0.0
  0
VERTEX
  5
2D6
  8
LAYER_1
 10
69.99217857971448
 20
-5.145371765963598
 30
0.0
  0
VERTEX
  5
2D7
  8
LAYER_1
 10
70.00020130429589
 20
-5.152766771293241
 30
0.0
  0
VERTEX
  5
2D8
  8
LAYER_1
 10
70.00851041366937
 20
-5.161401343727792
 30
0.0
  0
VERTEX
  5
2D9
  8
LAYER_1
 10
70.01658631302409
 20
-5.170382519270101
 30
0.0
  0
VERTEX
  5
2DA
  8
LAYER_1
 10
70.02443022830174
 20
-5.179690495206463
 30
0.0
  0
VERTEX
  5
2DB
  8
LAYER_1
 10
70.03204338544398
 20
-5.189305468823179
 30
0.0
  0
VERTEX
  5
2DC
  8
LAYER_1
 10
70.03942701039253
 20
-5.199207637406545
 30
0.0
  0
VERTEX
  5
2DD
  8
LAYER_1
 10
70.04658232908908
 20
-5.209377198242858
 30
0.0
  0
VERTEX
  5
2DE
  8
LAYER_1
 10
70.05351056747531
 20
-5.219794348618417
 30
0.0
  0
VERTEX
  5
2DF
  8
LAYER_1
 10
70.06021295149293
 20
-5.23043928581952
 30
0.0
  0
VERTEX
  5
2E0
  8
LAYER_1
 10
70.0729450601891
 20
-5.252333309843543
 30
0.0
  0
VERTEX
  5
2E1
  8
LAYER_1
 10
70.08478846271112
 20
-5.274900848605311
 30
0.0
  0
VERTEX
  5
2E2
  8
LAYER_1
 10
70.09575296659254
 20
-5.297983480395203
 30
0.0
  0
VERTEX
  5
2E3
  8
LAYER_1
 10
70.1058483793669
 20
-5.321422783503605
 30
0.0
  0
VERTEX
  5
2E4
  8
LAYER_1
 10
70.11508450856776
 20
-5.345060336220897
 30
0.0
  0
VERTEX
  5
2E5
  8
LAYER_1
 10
70.12347116172866
 20
-5.368737716837458
 30
0.0
  0
VERTEX
  5
2E6
  8
LAYER_1
 10
70.13101814638314
 20
-5.392296503643673
 30
0.0
  0
VERTEX
  5
2E7
  8
LAYER_1
 10
70.13773527006475
 20
-5.415578274929919
 30
0.0
  0
VERTEX
  5
2E8
  8
LAYER_1
 10
70.14363234030705
 20
-5.438424608986581
 30
0.0
  0
VERTEX
  5
2E9
  8
LAYER_1
 10
70.14871916464358
 20
-5.46067708410404
 30
0.0
  0
VERTEX
  5
2EA
  8
LAYER_1
 10
70.15300555060787
 20
-5.482177278572677
 30
0.0
  0
VERTEX
  5
2EB
  8
LAYER_1
 10
70.15650130573349
 20
-5.502766770682875
 30
0.0
  0
VERTEX
  5
2EC
  8
LAYER_1
 10
70.15893800838082
 20
-5.519804588050063
 30
0.0
  0
VERTEX
  5
2ED
  8
LAYER_1
 10
70.16103817695955
 20
-5.537162860028559
 30
0.0
  0
VERTEX
  5
2EE
  8
LAYER_1
 10
70.16280430583505
 20
-5.554788265849269
 30
0.0
  0
VERTEX
  5
2EF
  8
LAYER_1
 10
70.16423888937263
 20
-5.572627484743101
 30
0.0
  0
VERTEX
  5
2F0
  8
LAYER_1
 10
70.16534442193765
 20
-5.590627195940963
 30
0.0
  0
VERTEX
  5
2F1
  8
LAYER_1
 10
70.16612339789543
 20
-5.608734078673765
 30
0.0
  0
VERTEX
  5
2F2
  8
LAYER_1
 10
70.16657831161133
 20
-5.626894812172414
 30
0.0
  0
VERTEX
  5
2F3
  8
LAYER_1
 10
70.1667116574507
 20
-5.645056075667818
 30
0.0
  0
VERTEX
  5
2F4
  8
LAYER_1
 10
70.16652592977887
 20
-5.663164548390885
 30
0.0
  0
VERTEX
  5
2F5
  8
LAYER_1
 10
70.16602362296118
 20
-5.681166909572525
 30
0.0
  0
VERTEX
  5
2F6
  8
LAYER_1
 10
70.16520723136296
 20
-5.699009838443645
 30
0.0
  0
VERTEX
  5
2F7
  8
LAYER_1
 10
70.16407924934957
 20
-5.716640014235152
 30
0.0
  0
VERTEX
  5
2F8
  8
LAYER_1
 10
70.16264217128634
 20
-5.734004116177956
 30
0.0
  0
VERTEX
  5
2F9
  8
LAYER_1
 10
70.16089849153863
 20
-5.751048823502964
 30
0.0
  0
VERTEX
  5
2FA
  8
LAYER_1
 10
70.15885070447177
 20
-5.767720815441086
 30
0.0
  0
SEQEND
  5
AB5
  8
LAYER_1
  0
POLYLINE
  5
76
  8
LAYER_1
 66
     1
 10
0.0
 20
0.0
 30
0.0
 70
     1
  0
VERTEX
  5
2FB
  8
LAYER_1
 10
71.28150130461178
 20
-34.59646677115629
 30
0.0
  0
VERTEX
  5
2FC
  8
LAYER_1
 10
94.90650130461178
 20
-34.59646677115629
 30
0.0
  0
VERTEX
  5
2FD
  8
LAYER_1
 10
94.90650130461178
 20
-2.22146677115629
 30
0.0
  0
VERTEX
  5
2FE
  8
LAYER_1
 10
71.28150130461178
 20
-2.22146677115629
 30
0.0
  0
SEQEND
  5
AB6
  8
LAYER_1
  0
POLYLINE
  5
77
  8
LAYER_1
 66
     1
 10
0.0
 20
0.0
 30
0.0
 70
     1
  0
VERTEX
  5
2FF
  8
LAYER_1
 10
71.15650130461178
 20
-34.72146677115629
 30
0.0
  0
VERTEX
  5
300
  8
LAYER_1
 10
71.53150130461178
 20
-34.72146677115629
 30
0.0
  0
VERTEX
  5
301
  8
LAYER_1
 10
71.53150130461178
 20
-2.09646677115629
 30
0.0
  0
VERTEX
  5
302
  8
LAYER_1
 10
71.15650130461178
 20
-2.09646677115629
 30
0.0
  0
SEQEND
  5
AB7
  8
LAYER_1
  0
POLYLINE
  5
78
  8
LAYER_1
 66
     1
 10
0.0
 20
0.0
 30
0.0
 70
     1
  0
VERTEX
  5
303
  8
LAYER_1
 10
94.65650130461178
 20
-34.72146677115629
 30
0.0
  0
VERTEX
  5
304
  8
LAYER_1
 10
95.03150130461178
 20
-34.72146677115629
 30
0.0
  0
VERTEX
  5
305
  8
LAYER_1
 10
95.03150130461178
 20
-2.09646677115629
 30
0.0
  0
VERTEX
  5
306
  8
LAYER_1
 10
94.65650130461178
 20
-2.09646677115629
 30
0.0
  0
SEQEND
  5
AB8
  8
LAYER_1
  0
POLYLINE
  5
79
  8
LAYER_1
 66
     1
 10
0.0
 20
0.0
 30
0.0
 70
     1
  0
VERTEX
  5
307
  8
LAYER_1
 10
71.15650130461178
 20
-2.47146677115629
 30
0.0
  0
VERTEX
  5
308
  8
LAYER_1
 10
95.03150130461178
 20
-2.47146677115629
 30
0.0
  0
VERTEX
  5
309
  8
LAYER_1
 10
95.03150130461178
 20
-2.09646677115629
 30
0.0
  0
VERTEX
  5
30A
  8
LAYER_1
 10
71.15650130461178
 20
-2.09646677115629
 30
0.0
  0
SEQEND
  5
AB9
  8
LAYER_1
  0
POLYLINE
  5
7A
  8
LAYER_1
 66
     1
 10
0.0
 20
0.0
 30
0.0
 70
     1
  0
VERTEX
  5
30B
  8
LAYER_1
 10
71.15650130461178
 20
-34.72146677115629
 30
0.0
  0
VERTEX
  5
30C
  8
LAYER_1
 10
95.03150130461178
 20
-34.72146677115629
 30
0.0
  0
VERTEX
  5
30D
  8
LAYER_1
 10
95.03150130461178
 20
-34.34646677115629
 30
0.0
  0
VERTEX
  5
30E
  8
LAYER_1
 10
71.15650130461178
 20
-34.34646677115629
 30
0.0
  0
SEQEND
  5
ABA
  8
LAYER_1
  0
POLYLINE
  5
7B
  8
LAYER_1
 66
     1
 10
0.0
 20
0.0
 30
0.0
 70
     1
  0
VERTEX
  5
30F
  8
LAYER_1
 10
73.03150130461178
 20
-30.75271677115629
 30
0.0
 42
0.4142135623730951
  0
VERTEX
  5
310
  8
LAYER_1
 10
72.81275130461178
 20
-30.97146677115629
 30
0.0
 42
0.4142135623730951
  0
VERTEX
  5
311
  8
LAYER_1
 10
73.03150130461178
 20
-31.19021677115629
 30
0.0
 42
0.4142135623730951
  0
VERTEX
  5
312
  8
LAYER_1
 10
73.25025130461178
 20
-30.97146677115629
 30
0.0
 42
0.4142135623730951
  0
SEQEND
  5
ABB
  8
LAYER_1
  0
POLYLINE
  5
7C
  8
LAYER_1
 66
     1
 10
0.0
 20
0.0
 30
0.0
 70
     1
  0
VERTEX
  5
313
  8
LAYER_1
 10
93.15150130461178
 20
-30.75271677115629
 30
0.0
 42
0.4142135623730951
  0
VERTEX
  5
314
  8
LAYER_1
 10
92.93275130461178
 20
-30.97146677115629
 30
0.0
 42
0.4142135623730951
  0
VERTEX
  5
315
  8
LAYER_1
 10
93.15150130461178
 20
-31.19021677115629
 30
0.0
 42
0.4142135623730951
  0
VERTEX
  5
316
  8
LAYER_1
 10
93.37025130461178
 20
-30.97146677115629
 30
0.0
 42
0.4142135623730951
  0
SEQEND
  5
ABC
  8
LAYER_1
  0
POLYLINE
  5
7D
  8
LAYER_1
 66
     1
 10
0.0
 20
0.0
 30
0.0
 70
     1
  0
VERTEX
  5
317
  8
LAYER_1
 10
72.90650130461178
 20
-3.50271677115629
 30
0.0
 42
0.4142135623730951
  0
VERTEX
  5
318
  8
LAYER_1
 10
72.68775130461178
 20
-3.72146677115629
 30
0.0
 42
0.4142135623730951
  0
VERTEX
  5
319
  8
LAYER_1
 10
72.90650130461178
 20
-3.94021677115629
 30
0.0
 42
0.4142135623730951
  0
VERTEX
  5
31A
  8
LAYER_1
 10
73.12525130461178
 20
-3.72146677115629
 30
0.0
 42
0.4142135623730951
  0
SEQEND
  5
ABD
  8
LAYER_1
  0
POLYLINE
  5
7E
  8
LAYER_1
 66
     1
 10
0.0
 20
0.0
 30
0.0
 70
     1
  0
VERTEX
  5
31B
  8
LAYER_1
 10
93.28150130461178
 20
-3.50271677115629
 30
0.0
 42
0.4142135623730951
  0
VERTEX
  5
31C
  8
LAYER_1
 10
93.06275130461178
 20
-3.72146677115629
 30
0.0
 42
0.4142135623730951
  0
VERTEX
  5
31D
  8
LAYER_1
 10
93.28150130461178
 20
-3.94021677115629
 30
0.0
 42
0.4142135623730951
  0
VERTEX
  5
31E
  8
LAYER_1
 10
93.50025130461178
 20
-3.72146677115629
 30
0.0
 42
0.4142135623730951
  0
SEQEND
  5
ABE
  8
LAYER_1
  0
POLYLINE
  5
7F
  8
LAYER_1
 66
     1
 10
0.0
 20
0.0
 30
0.0
 70
     1
  0
VERTEX
  5
31F
  8
LAYER_1
 10
73.03150130461178
 20
-34.59646677115629
 30
0.0
  0
VERTEX
  5
320
  8
LAYER_1
 10
75.15650130461178
 20
-34.59646677115629
 30
0.0
  0
VERTEX
  5
321
  8
LAYER_1
 10
75.15650130461178
 20
-32.28396677115629
 30
0.0
  0
VERTEX
  5
322
  8
LAYER_1
 10
73.03150130461178
 20
-32.28396677115629
 30
0.0
  0
SEQEND
  5
ABF
  8
LAYER_1
  0
POLYLINE
  5
80
  8
LAYER_1
 66
     1
 10
0.0
 20
0.0
 30
0.0
 70
     1
  0
VERTEX
  5
323
  8
LAYER_1
 10
91.03150130461178
 20
-34.59646677115629
 30
0.0
  0
VERTEX
  5
324
  8
LAYER_1
 10
93.15650130461178
 20
-34.59646677115629
 30
0.0
  0
VERTEX
  5
325
  8
LAYER_1
 10
93.15650130461178
 20
-32.28396677115629
 30
0.0
  0
VERTEX
  5
326
  8
LAYER_1
 10
91.03150130461178
 20
-32.28396677115629
 30
0.0
  0
SEQEND
  5
AC0
  8
LAYER_1
  0
POLYLINE
  5
81
  8
LAYER_1
 66
     1
 10
0.0
 20
0.0
 30
0.0
 70
     1
  0
VERTEX
  5
327
  8
LAYER_1
 10
71.39387364305567
 20
35.13274493328856
 30
0.0
  0
VERTEX
  5
328
  8
LAYER_1
 10
95.01887364305567
 20
35.13274493328856
 30
0.0
  0
VERTEX
  5
329
  8
LAYER_1
 10
95.01887364305567
 20
47.57024493328856
 30
0.0
  0
VERTEX
  5
32A
  8
LAYER_1
 10
71.39387364305567
 20
47.57024493328856
 30
0.0
  0
SEQEND
  5
AC1
  8
LAYER_1
  0
POLYLINE
  5
82
  8
LAYER_1
 66
     1
 10
0.0
 20
0.0
 30
0.0
 70
     1
  0
VERTEX
  5
32B
  8
LAYER_1
 10
71.26887364305567
 20
35.00774493328856
 30
0.0
  0
VERTEX
  5
32C
  8
LAYER_1
 10
71.64387364305567
 20
35.00774493328856
 30
0.0
  0
VERTEX
  5
32D
  8
LAYER_1
 10
71.64387364305567
 20
47.69524493328856
 30
0.0
  0
VERTEX
  5
32E
  8
LAYER_1
 10
71.26887364305567
 20
47.69524493328856
 30
0.0
  0
SEQEND
  5
AC2
  8
LAYER_1
  0
POLYLINE
  5
83
  8
LAYER_1
 66
     1
 10
0.0
 20
0.0
 30
0.0
 70
     1
  0
VERTEX
  5
32F
  8
LAYER_1
 10
94.76887364305567
 20
35.00774493328856
 30
0.0
  0
VERTEX
  5
330
  8
LAYER_1
 10
95.14387364305567
 20
35.00774493328856
 30
0.0
  0
VERTEX
  5
331
  8
LAYER_1
 10
95.14387364305567
 20
47.69524493328856
 30
0.0
  0
VERTEX
  5
332
  8
LAYER_1
 10
94.76887364305567
 20
47.69524493328856
 30
0.0
  0
SEQEND
  5
AC3
  8
LAYER_1
  0
POLYLINE
  5
84
  8
LAYER_1
 66
     1
 10
0.0
 20
0.0
 30
0.0
 70
     1
  0
VERTEX
  5
333
  8
LAYER_1
 10
89.58137364305567
 20
38.75774493328856
 30
0.0
 42
0.4142135623730951
  0
VERTEX
  5
334
  8
LAYER_1
 10
88.95637364305567
 20
38.13274493328856
 30
0.0
 42
0.4142135623730951
  0
VERTEX
  5
335
  8
LAYER_1
 10
89.58137364305567
 20
37.50774493328856
 30
0.0
 42
0.4142135623730951
  0
VERTEX
  5
336
  8
LAYER_1
 10
90.20637364305567
 20
38.13274493328856
 30
0.0
 42
0.4142135623730951
  0
SEQEND
  5
AC4
  8
LAYER_1
  0
POLYLINE
  5
85
  8
LAYER_1
 66
     1
 10
0.0
 20
0.0
 30
0.0
 70
     1
  0
VERTEX
  5
337
  8
LAYER_1
 10
97.36635957157857
 20
-9.656137871320865
 30
0.0
  0
VERTEX
  5
338
  8
LAYER_1
 10
97.74135957157857
 20
-9.656137871320865
 30
0.0
  0
VERTEX
  5
339
  8
LAYER_1
 10
97.74135957157857
 20
2.593862128679135
 30
0.0
  0
VERTEX
  5
33A
  8
LAYER_1
 10
97.36635957157857
 20
2.593862128679135
 30
0.0
  0
SEQEND
  5
AC5
  8
LAYER_1
  0
POLYLINE
  5
86
  8
LAYER_1
 66
     1
 10
0.0
 20
0.0
 30
0.0
 70
     1
  0
VERTEX
  5
33B
  8
LAYER_1
 10
120.8663595715786
 20
-9.656137871320865
 30
0.0
  0
VERTEX
  5
33C
  8
LAYER_1
 10
121.2413595715786
 20
-9.656137871320865
 30
0.0
  0
VERTEX
  5
33D
  8
LAYER_1
 10
121.2413595715786
 20
2.593862128679135
 30
0.0
  0
VERTEX
  5
33E
  8
LAYER_1
 10
120.8663595715786
 20
2.593862128679135
 30
0.0
  0
SEQEND
  5
AC6
  8
LAYER_1
  0
POLYLINE
  5
87
  8
LAYER_1
 66
     1
 10
0.0
 20
0.0
 30
0.0
 70
     1
  0
VERTEX
  5
33F
  8
LAYER_1
 10
108.9288595715786
 20
2.468862128679135
 30
0.0
  0
VERTEX
  5
340
  8
LAYER_1
 10
108.9288595715786
 20
0.3438621286791346
 30
0.0
  0
VERTEX
  5
341
  8
LAYER_1
 10
109.6788595715786
 20
0.3438621286791346
 30
0.0
  0
VERTEX
  5
342
  8
LAYER_1
 10
109.6788595715786
 20
2.468862128679135
 30
0.0
  0
VERTEX
  5
343
  8
LAYER_1
 10
121.1163595715786
 20
2.468862128679135
 30
0.0
  0
VERTEX
  5
344
  8
LAYER_1
 10
121.1163595715786
 20
-9.531137871320865
 30
0.0
  0
VERTEX
  5
345
  8
LAYER_1
 10
119.3663595715786
 20
-9.531137871320865
 30
0.0
  0
VERTEX
  5
346
  8
LAYER_1
 10
119.3663595715786
 20
-7.031137871320865
 30
0.0
  0
VERTEX
  5
347
  8
LAYER_1
 10
117.2413595715786
 20
-7.031137871320865
 30
0.0
  0
VERTEX
  5
348
  8
LAYER_1
 10
117.2413595715786
 20
-9.531137871320865
 30
0.0
  0
VERTEX
  5
349
  8
LAYER_1
 10
101.3663595715786
 20
-9.531137871320865
 30
0.0
  0
VERTEX
  5
34A
  8
LAYER_1
 10
101.3663595715786
 20
-7.031137871320865
 30
0.0
  0
VERTEX
  5
34B
  8
LAYER_1
 10
99.24135957157857
 20
-7.031137871320865
 30
0.0
  0
VERTEX
  5
34C
  8
LAYER_1
 10
99.24135957157857
 20
-9.531137871320865
 30
0.0
  0
VERTEX
  5
34D
  8
LAYER_1
 10
97.49135957157857
 20
-9.531137871320865
 30
0.0
  0
VERTEX
  5
34E
  8
LAYER_1
 10
97.49135957157857
 20
2.468862128679135
 30
0.0
  0
SEQEND
  5
AC7
  8
LAYER_1
  0
POLYLINE
  5
88
  8
LAYER_1
 66
     1
 10
0.0
 20
0.0
 30
0.0
 70
     1
  0
VERTEX
  5
34F
  8
LAYER_1
 10
98.12173362782309
 20
-27.45955653863874
 30
0.0
  0
VERTEX
  5
350
  8
LAYER_1
 10
121.7467336278231
 20
-27.45955653863874
 30
0.0
  0
VERTEX
  5
351
  8
LAYER_1
 10
121.7467336278231
 20
-21.45955653863874
 30
0.0
  0
VERTEX
  5
352
  8
LAYER_1
 10
98.12173362782309
 20
-21.45955653863874
 30
0.0
  0
SEQEND
  5
AC8
  8
LAYER_1
  0
POLYLINE
  5
89
  8
LAYER_1
 66
     1
 10
0.0
 20
0.0
 30
0.0
 70
     1
  0
VERTEX
  5
353
  8
LAYER_1
 10
97.99673362782309
 20
-27.58455653863874
 30
0.0
  0
VERTEX
  5
354
  8
LAYER_1
 10
121.8717336278231
 20
-27.58455653863874
 30
0.0
  0
VERTEX
  5
355
  8
LAYER_1
 10
121.8717336278231
 20
-26.95955653863874
 30
0.0
  0
VERTEX
  5
356
  8
LAYER_1
 10
97.99673362782309
 20
-26.95955653863874
 30
0.0
  0
SEQEND
  5
AC9
  8
LAYER_1
  0
POLYLINE
  5
8A
  8
LAYER_1
 66
     1
 10
0.0
 20
0.0
 30
0.0
 70
     1
  0
VERTEX
  5
357
  8
LAYER_1
 10
97.99673362782309
 20
-27.58455653863874
 30
0.0
  0
VERTEX
  5
358
  8
LAYER_1
 10
98.37173362782309
 20
-27.58455653863874
 30
0.0
  0
VERTEX
  5
359
  8
LAYER_1
 10
98.37173362782309
 20
-21.33455653863874
 30
0.0
  0
VERTEX
  5
35A
  8
LAYER_1
 10
97.99673362782309
 20
-21.33455653863874
 30
0.0
  0
SEQEND
  5
ACA
  8
LAYER_1
  0
POLYLINE
  5
8B
  8
LAYER_1
 66
     1
 10
0.0
 20
0.0
 30
0.0
 70
     1
  0
VERTEX
  5
35B
  8
LAYER_1
 10
121.4967336278231
 20
-27.58455653863874
 30
0.0
  0
VERTEX
  5
35C
  8
LAYER_1
 10
121.8717336278231
 20
-27.58455653863874
 30
0.0
  0
VERTEX
  5
35D
  8
LAYER_1
 10
121.8717336278231
 20
-21.33455653863874
 30
0.0
  0
VERTEX
  5
35E
  8
LAYER_1
 10
121.4967336278231
 20
-21.33455653863874
 30
0.0
  0
SEQEND
  5
ACB
  8
LAYER_1
  0
POLYLINE
  5
8C
  8
LAYER_1
 66
     1
 10
0.0
 20
0.0
 30
0.0
 70
     1
  0
VERTEX
  5
35F
  8
LAYER_1
 10
100.5592336278231
 20
-26.08455653863874
 30
0.0
  0
VERTEX
  5
360
  8
LAYER_1
 10
105.7467336278231
 20
-26.08455653863874
 30
0.0
  0
VERTEX
  5
361
  8
LAYER_1
 10
105.7467336278231
 20
-23.70955653863874
 30
0.0
  0
VERTEX
  5
362
  8
LAYER_1
 10
100.5592336278231
 20
-23.70955653863874
 30
0.0
  0
SEQEND
  5
ACC
  8
LAYER_1
  0
POLYLINE
  5
8D
  8
LAYER_1
 66
     1
 10
0.0
 20
0.0
 30
0.0
 70
     1
  0
VERTEX
  5
363
  8
LAYER_1
 10
113.6217336278231
 20
-26.08455653863874
 30
0.0
  0
VERTEX
  5
364
  8
LAYER_1
 10
118.8092336278231
 20
-26.08455653863874
 30
0.0
  0
VERTEX
  5
365
  8
LAYER_1
 10
118.8092336278231
 20
-23.70955653863874
 30
0.0
  0
VERTEX
  5
366
  8
LAYER_1
 10
113.6217336278231
 20
-23.70955653863874
 30
0.0
  0
SEQEND
  5
ACD
  8
LAYER_1
  0
POLYLINE
  5
8E
  8
LAYER_1
 66
     1
 10
0.0
 20
0.0
 30
0.0
 70
     1
  0
VERTEX
  5
367
  8
LAYER_1
 10
97.86958400532528
 20
-19.27651673119799
 30
0.0
  0
VERTEX
  5
368
  8
LAYER_1
 10
121.4945840053253
 20
-19.27651673119799
 30
0.0
  0
VERTEX
  5
369
  8
LAYER_1
 10
121.4945840053253
 20
-16.02651673119799
 30
0.0
  0
VERTEX
  5
36A
  8
LAYER_1
 10
97.86958400532528
 20
-16.02651673119799
 30
0.0
  0
SEQEND
  5
ACE
  8
LAYER_1
  0
POLYLINE
  5
8F
  8
LAYER_1
 66
     1
 10
0.0
 20
0.0
 30
0.0
 70
     1
  0
VERTEX
  5
36B
  8
LAYER_1
 10
97.74458400532528
 20
-19.40151673119799
 30
0.0
  0
VERTEX
  5
36C
  8
LAYER_1
 10
98.11958400532528
 20
-19.40151673119799
 30
0.0
  0
VERTEX
  5
36D
  8
LAYER_1
 10
98.11958400532528
 20
-15.90151673119799
 30
0.0
  0
VERTEX
  5
36E
  8
LAYER_1
 10
97.74458400532528
 20
-15.90151673119799
 30
0.0
  0
SEQEND
  5
ACF
  8
LAYER_1
  0
POLYLINE
  5
90
  8
LAYER_1
 66
     1
 10
0.0
 20
0.0
 30
0.0
 70
     1
  0
VERTEX
  5
36F
  8
LAYER_1
 10
121.2445840053253
 20
-19.40151673119799
 30
0.0
  0
VERTEX
  5
370
  8
LAYER_1
 10
121.6195840053253
 20
-19.40151673119799
 30
0.0
  0
VERTEX
  5
371
  8
LAYER_1
 10
121.6195840053253
 20
-15.90151673119799
 30
0.0
  0
VERTEX
  5
372
  8
LAYER_1
 10
121.2445840053253
 20
-15.90151673119799
 30
0.0
  0
SEQEND
  5
AD0
  8
LAYER_1
  0
POLYLINE
  5
91
  8
LAYER_1
 66
     1
 10
0.0
 20
0.0
 30
0.0
 70
     1
  0
VERTEX
  5
373
  8
LAYER_1
 10
97.74458400532528
 20
-16.27651673119799
 30
0.0
  0
VERTEX
  5
374
  8
LAYER_1
 10
121.6195840053253
 20
-16.27651673119799
 30
0.0
  0
VERTEX
  5
375
  8
LAYER_1
 10
121.6195840053253
 20
-15.90151673119799
 30
0.0
  0
VERTEX
  5
376
  8
LAYER_1
 10
97.74458400532528
 20
-15.90151673119799
 30
0.0
  0
SEQEND
  5
AD1
  8
LAYER_1
  0
POLYLINE
  5
92
  8
LAYER_1
 66
     1
 10
0.0
 20
0.0
 30
0.0
 70
     1
  0
VERTEX
  5
377
  8
LAYER_1
 10
100.5592336278231
 20
-14.493197582482
 30
0.0
  0
VERTEX
  5
378
  8
LAYER_1
 10
119.3092336278231
 20
-14.493197582482
 30
0.0
  0
VERTEX
  5
379
  8
LAYER_1
 10
119.3092336278231
 20
-13.743197582482
 30
0.0
  0
VERTEX
  5
37A
  8
LAYER_1
 10
100.5592336278231
 20
-13.743197582482
 30
0.0
  0
SEQEND
  5
AD2
  8
LAYER_1
  0
POLYLINE
  5
93
  8
LAYER_1
 66
     1
 10
0.0
 20
0.0
 30
0.0
 70
     1
  0
VERTEX
  5
37B
  8
LAYER_1
 10
100.4342336278231
 20
-14.118197582482
 30
0.0
  0
VERTEX
  5
37C
  8
LAYER_1
 10
119.4342336278231
 20
-14.118197582482
 30
0.0
  0
VERTEX
  5
37D
  8
LAYER_1
 10
119.4342336278231
 20
-13.618197582482
 30
0.0
  0
VERTEX
  5
37E
  8
LAYER_1
 10
100.4342336278231
 20
-13.618197582482
 30
0.0
  0
SEQEND
  5
AD3
  8
LAYER_1
  0
POLYLINE
  5
94
  8
LAYER_1
 66
     1
 10
0.0
 20
0.0
 30
0.0
 70
     1
  0
VERTEX
  5
37F
  8
LAYER_1
 10
100.5592336278231
 20
-12.45490233850423
 30
0.0
  0
VERTEX
  5
380
  8
LAYER_1
 10
119.3092336278231
 20
-12.45490233850423
 30
0.0
  0
VERTEX
  5
381
  8
LAYER_1
 10
119.3092336278231
 20
-11.70490233850423
 30
0.0
  0
VERTEX
  5
382
  8
LAYER_1
 10
100.5592336278231
 20
-11.70490233850423
 30
0.0
  0
SEQEND
  5
AD4
  8
LAYER_1
  0
POLYLINE
  5
95
  8
LAYER_1
 66
     1
 10
0.0
 20
0.0
 30
0.0
 70
     1
  0
VERTEX
  5
383
  8
LAYER_1
 10
100.4342336278231
 20
-12.07990233850423
 30
0.0
  0
VERTEX
  5
384
  8
LAYER_1
 10
119.4342336278231
 20
-12.07990233850423
 30
0.0
  0
VERTEX
  5
385
  8
LAYER_1
 10
119.4342336278231
 20
-11.57990233850423
 30
0.0
  0
VERTEX
  5
386
  8
LAYER_1
 10
100.4342336278231
 20
-11.57990233850423
 30
0.0
  0
SEQEND
  5
AD5
  8
LAYER_1
  0
POLYLINE
  5
96
  8
LAYER_1
 66
     1
 10
0.0
 20
0.0
 30
0.0
 70
     1
  0
VERTEX
  5
387
  8
LAYER_1
 10
36.0727103528389
 20
34.1776
 30
0.0
 42
-0.4142135623730951
  0
VERTEX
  5
388
  8
LAYER_1
 10
36.2602103528389
 20
33.9901
 30
0.0
 42
-0.4142135623730951
  0
VERTEX
  5
389
  8
LAYER_1
 10
36.0727103528389
 20
33.8026
 30
0.0
 42
-0.4142135623730951
  0
VERTEX
  5
38A
  8
LAYER_1
 10
35.8852103528389
 20
33.9901
 30
0.0
 42
-0.4142135623730951
  0
SEQEND
  5
AD6
  8
LAYER_1
  0
POLYLINE
  5
97
  8
LAYER_1
 66
     1
 10
0.0
 20
0.0
 30
0.0
 70
     1
  0
VERTEX
  5
38B
  8
LAYER_1
 10
33.0102103528389
 20
22.8026
 30
0.0
 42
-0.4142135623730951
  0
VERTEX
  5
38C
  8
LAYER_1
 10
33.1977103528389
 20
22.6151
 30
0.0
 42
-0.4142135623730951
  0
VERTEX
  5
38D
  8
LAYER_1
 10
33.0102103528389
 20
22.4276
 30
0.0
 42
-0.4142135623730951
  0
VERTEX
  5
38E
  8
LAYER_1
 10
32.8227103528389
 20
22.6151
 30
0.0
 42
-0.4142135623730951
  0
SEQEND
  5
AD7
  8
LAYER_1
  0
POLYLINE
  5
98
  8
LAYER_1
 66
     1
 10
0.0
 20
0.0
 30
0.0
 70
     1
  0
VERTEX
  5
38F
  8
LAYER_1
 10
28.3852103528389
 20
8.615100000000009
 30
0.0
 42
-0.4142135623730951
  0
VERTEX
  5
390
  8
LAYER_1
 10
28.5727103528389
 20
8.427600000000009
 30
0.0
 42
-0.4142135623730951
  0
VERTEX
  5
391
  8
LAYER_1
 10
28.3852103528389
 20
8.240100000000009
 30
0.0
 42
-0.4142135623730951
  0
VERTEX
  5
392
  8
LAYER_1
 10
28.1977103528389
 20
8.427600000000009
 30
0.0
 42
-0.4142135623730951
  0
SEQEND
  5
AD8
  8
LAYER_1
  0
POLYLINE
  5
99
  8
LAYER_1
 66
     1
 10
0.0
 20
0.0
 30
0.0
 70
     1
  0
VERTEX
  5
393
  8
LAYER_1
 10
70.10526594156124
 20
33.9276
 30
0.0
  0
VERTEX
  5
394
  8
LAYER_1
 10
36.9477103528389
 20
33.9276
 30
0.0
 42
0.4142135623730951
  0
VERTEX
  5
395
  8
LAYER_1
 10
36.7602103528389
 20
33.7401
 30
0.0
 42
0.4142135623730951
  0
VERTEX
  5
396
  8
LAYER_1
 10
36.9477103528389
 20
33.5526
 30
0.0
  0
VERTEX
  5
397
  8
LAYER_1
 10
69.01004056491144
 20
33.5526
 30
0.0
  0
VERTEX
  5
398
  8
LAYER_1
 10
69.0102103528389
 20
33.55169577528206
 30
0.0
  0
VERTEX
  5
399
  8
LAYER_1
 10
69.0102103528389
 20
32.9276
 30
0.0
  0
VERTEX
  5
39A
  8
LAYER_1
 10
69.0102103528389
 20
1.805470060169288
 30
0.0
  0
VERTEX
  5
39B
  8
LAYER_1
 10
69.00922971474796
 20
1.802600000000002
 30
0.0
  0
VERTEX
  5
39C
  8
LAYER_1
 10
58.1352103528389
 20
1.802600000000009
 30
0.0
 42
0.4142135623730951
  0
VERTEX
  5
39D
  8
LAYER_1
 10
57.9477103528389
 20
1.615100000000009
 30
0.0
 42
0.4142135623730951
  0
VERTEX
  5
39E
  8
LAYER_1
 10
58.1352103528389
 20
1.427600000000009
 30
0.0
  0
VERTEX
  5
39F
  8
LAYER_1
 10
70.1352103528389
 20
1.427600000000002
 30
0.0
  0
VERTEX
  5
3A0
  8
LAYER_1
 10
70.1352103528389
 20
1.802600000000002
 30
0.0
  0
VERTEX
  5
3A1
  8
LAYER_1
 10
69.38522882187112
 20
1.802600000000002
 30
0.0
  0
VERTEX
  5
3A2
  8
LAYER_1
 10
69.3852103528389
 20
1.806222058383529
 30
0.0
  0
VERTEX
  5
3A3
  8
LAYER_1
 10
69.3852103528389
 20
32.9276
 30
0.0
  0
VERTEX
  5
3A4
  8
LAYER_1
 10
69.3852103528389
 20
33.55169577528206
 30
0.0
  0
VERTEX
  5
3A5
  8
LAYER_1
 10
69.38522366380931
 20
33.5526
 30
0.0
  0
VERTEX
  5
3A6
  8
LAYER_1
 10
70.11004056491146
 20
33.5526
 30
0.0
  0
VERTEX
  5
3A7
  8
LAYER_1
 10
70.11004056491146
 20
33.9274053586638
 30
0.0
  0
SEQEND
  5
AD9
  8
LAYER_1
  0
POLYLINE
  5
9A
  8
LAYER_1
 66
     1
 10
0.0
 20
0.0
 30
0.0
 70
     1
  0
VERTEX
  5
3A8
  8
LAYER_1
 10
44.62731976541176
 20
22.60684687588318
 30
0.0
  0
VERTEX
  5
3A9
  8
LAYER_1
 10
47.81693087234424
 20
21.60633118017772
 30
0.0
  0
VERTEX
  5
3AA
  8
LAYER_1
 10
47.82846708590228
 20
21.60223467121829
 30
0.0
 42
-0.3088429427739422
  0
VERTEX
  5
3AB
  8
LAYER_1
 10
47.9477103528389
 20
21.4276
 30
0.0
 42
-0.4142135623730951
  0
VERTEX
  5
3AC
  8
LAYER_1
 10
47.7602103528389
 20
21.2401
 30
0.0
 42
-0.0309510186128478
  0
VERTEX
  5
3AD
  8
LAYER_1
 10
47.73706369503157
 20
21.24153419918656
 30
0.0
  0
VERTEX
  5
3AE
  8
LAYER_1
 10
47.72775087354871
 20
21.24247216509528
 30
0.0
  0
VERTEX
  5
3AF
  8
LAYER_1
 10
47.7231326648316
 20
21.24313179508459
 30
0.0
  0
VERTEX
  5
3B0
  8
LAYER_1
 10
47.71861607441923
 20
21.24422977344213
 30
0.0
  0
VERTEX
  5
3B1
  8
LAYER_1
 10
44.51625245977499
 20
22.24882681858528
 30
0.0
  0
VERTEX
  5
3B2
  8
LAYER_1
 10
44.51196426025399
 20
22.25021295922288
 30
0.0
 42
-0.3205656402297684
  0
VERTEX
  5
3B3
  8
LAYER_1
 10
44.3852103528389
 20
22.4276
 30
0.0
 42
-0.4142135623730951
  0
VERTEX
  5
3B4
  8
LAYER_1
 10
44.5727103528389
 20
22.6151
 30
0.0
 42
-0.0623083546219381
  0
VERTEX
  5
3B5
  8
LAYER_1
 10
44.61890084280412
 20
22.6093214589331
 30
0.0
  0
SEQEND
  5
ADA
  8
LAYER_1
  0
POLYLINE
  5
9B
  8
LAYER_1
 66
     1
 10
0.0
 20
0.0
 30
0.0
 70
     1
  0
VERTEX
  5
3B6
  8
LAYER_1
 10
9.199007798304692
 20
30.3440173105498
 30
0.0
  0
VERTEX
  5
3B7
  8
LAYER_1
 10
11.38625494555707
 20
11.81657031382832
 30
0.0
  0
VERTEX
  5
3B8
  8
LAYER_1
 10
11.38769784388185
 20
11.80462721843156
 30
0.0
  0
VERTEX
  5
3B9
  8
LAYER_1
 10
11.3897505732016
 20
11.79278818420171
 30
0.0
 42
0.3510062465719246
  0
VERTEX
  5
3BA
  8
LAYER_1
 10
11.5727103528389
 20
11.64630000000001
 30
0.0
 42
0.4142135623730951
  0
VERTEX
  5
3BB
  8
LAYER_1
 10
11.7602103528389
 20
11.83380000000001
 30
0.0
  0
VERTEX
  5
3BC
  8
LAYER_1
 10
11.75990303445633
 20
11.84461129318055
 30
0.0
  0
VERTEX
  5
3BD
  8
LAYER_1
 10
11.75896189818552
 20
11.85538529397955
 30
0.0
  0
VERTEX
  5
3BE
  8
LAYER_1
 10
11.68172479976072
 20
12.5094703798869
 30
0.0
  0
VERTEX
  5
3BF
  8
LAYER_1
 10
12.11274710963038
 20
12.32092495453518
 30
0.0
  0
VERTEX
  5
3C0
  8
LAYER_1
 10
23.32465112768249
 20
7.837770532610829
 30
0.0
  0
VERTEX
  5
3C1
  8
LAYER_1
 10
23.32492788995587
 20
7.836348322692455
 30
0.0
 42
0.3698087220812284
  0
VERTEX
  5
3C2
  8
LAYER_1
 10
23.5102103528389
 20
7.677600000000009
 30
0.0
 42
0.2738994997735355
  0
VERTEX
  5
3C3
  8
LAYER_1
 10
23.67462880715787
 20
7.774973300962724
 30
0.0
  0
VERTEX
  5
3C4
  8
LAYER_1
 10
23.67867104635596
 20
7.782766572542918
 30
0.0
  0
VERTEX
  5
3C5
  8
LAYER_1
 10
23.68235123788493
 20
7.79074879713874
 30
0.0
  0
VERTEX
  5
3C6
  8
LAYER_1
 10
23.68564696307322
 20
7.798896231922572
 30
0.0
  0
VERTEX
  5
3C7
  8
LAYER_1
 10
23.68853580324925
 20
7.807185134066795
 30
0.0
  0
VERTEX
  5
3C8
  8
LAYER_1
 10
29.859875389092
 20
27.05392059105035
 30
0.0
  0
VERTEX
  5
3C9
  8
LAYER_1
 10
29.87184305026132
 20
27.05578402065779
 30
0.0
  0
VERTEX
  5
3CA
  8
LAYER_1
 10
33.06967908972348
 20
25.93886478699428
 30
0.0
  0
VERTEX
  5
3CB
  8
LAYER_1
 10
33.08057598892759
 20
25.93573630166612
 30
0.0
 42
0.0740530573129654
  0
VERTEX
  5
3CC
  8
LAYER_1
 10
33.1352103528389
 20
25.9276
 30
0.0
 42
0.4142135623730951
  0
VERTEX
  5
3CD
  8
LAYER_1
 10
33.3227103528389
 20
26.1151
 30
0.0
 42
0.2739760724453257
  0
VERTEX
  5
3CE
  8
LAYER_1
 10
33.22529020368714
 20
26.27954412568153
 30
0.0
  0
VERTEX
  5
3CF
  8
LAYER_1
 10
33.20868884307095
 20
26.28868304146319
 30
0.0
  0
VERTEX
  5
3D0
  8
LAYER_1
 10
29.98015950183793
 20
27.41538218040143
 30
0.0
  0
VERTEX
  5
3D1
  8
LAYER_1
 10
29.97659679528765
 20
27.41794302021118
 30
0.0
  0
VERTEX
  5
3D2
  8
LAYER_1
 10
30.00362948323765
 20
27.50225064685
 30
0.0
  0
VERTEX
  5
3D3
  8
LAYER_1
 10
30.00539588798404
 20
27.50834698918062
 30
0.0
  0
VERTEX
  5
3D4
  8
LAYER_1
 10
30.00683777628451
 20
27.51453670050432
 30
0.0
  0
VERTEX
  5
3D5
  8
LAYER_1
 10
30.00885772441309
 20
27.52712225032371
 30
0.0
  0
VERTEX
  5
3D6
  8
LAYER_1
 10
30.00990876935427
 20
27.53985933669374
 30
0.0
  0
VERTEX
  5
3D7
  8
LAYER_1
 10
30.01021035283891
 20
27.55260000000001
 30
0.0
 42
0.4142135623730951
  0
VERTEX
  5
3D8
  8
LAYER_1
 10
29.82271035283891
 20
27.74010000000001
 30
0.0
 42
0.279741778574133
  0
VERTEX
  5
3D9
  8
LAYER_1
 10
29.65637451369555
 20
27.63913692053961
 30
0.0
  0
VERTEX
  5
3DA
  8
LAYER_1
 10
29.65258411468152
 20
27.63182361470963
 30
0.0
  0
VERTEX
  5
3DB
  8
LAYER_1
 10
29.65086955160115
 20
27.62808690296633
 30
0.0
  0
VERTEX
  5
3DC
  8
LAYER_1
 10
29.64943532091924
 20
27.62424281704864
 30
0.0
  0
VERTEX
  5
3DD
  8
LAYER_1
 10
23.4221466053509
 20
8.202448354884762
 30
0.0
  0
VERTEX
  5
3DE
  8
LAYER_1
 10
23.42201150354786
 20
8.202429250929438
 30
0.0
  0
VERTEX
  5
3DF
  8
LAYER_1
 10
12.24527992898545
 20
12.67107855669756
 30
0.0
  0
VERTEX
  5
3E0
  8
LAYER_1
 10
11.63365401687447
 20
12.9163783391304
 30
0.0
  0
VERTEX
  5
3E1
  8
LAYER_1
 10
9.56787987933241
 20
30.40744545396781
 30
0.0
  0
VERTEX
  5
3E2
  8
LAYER_1
 10
9.567841832457802
 20
30.40754988400708
 30
0.0
 42
0.3487986918821386
  0
VERTEX
  5
3E3
  8
LAYER_1
 10
9.38521035283891
 20
30.55260000000002
 30
0.0
 42
0.4142135623730951
  0
VERTEX
  5
3E4
  8
LAYER_1
 10
9.19771035283891
 20
30.36510000000002
 30
0.0
  0
VERTEX
  5
3E5
  8
LAYER_1
 10
9.198049554471286
 20
30.35454044832414
 30
0.0
  0
SEQEND
  5
ADB
  8
LAYER_1
  0
POLYLINE
  5
9C
  8
LAYER_1
 66
     1
 10
0.0
 20
0.0
 30
0.0
 70
     1
  0
VERTEX
  5
3E6
  8
LAYER_1
 10
35.3852103528389
 20
30.05259999999999
 30
0.0
 42
-0.4142135623730951
  0
VERTEX
  5
3E7
  8
LAYER_1
 10
35.5727103528389
 20
29.86509999999999
 30
0.0
 42
-0.4142135623730951
  0
VERTEX
  5
3E8
  8
LAYER_1
 10
35.3852103528389
 20
29.67759999999999
 30
0.0
 42
-0.4142135623730951
  0
VERTEX
  5
3E9
  8
LAYER_1
 10
35.1977103528389
 20
29.86509999999999
 30
0.0
 42
-0.4142135623730951
  0
SEQEND
  5
ADC
  8
LAYER_1
  0
POLYLINE
  5
9D
  8
LAYER_1
 66
     1
 10
0.0
 20
0.0
 30
0.0
 70
     1
  0
VERTEX
  5
3EA
  8
LAYER_1
 10
33.10363994052557
 20
29.0810917652421
 30
0.0
  0
VERTEX
  5
3EB
  8
LAYER_1
 10
36.36616482918646
 20
28.48489594906635
 30
0.0
  0
VERTEX
  5
3EC
  8
LAYER_1
 10
36.37152591723441
 20
28.48363394895087
 30
0.0
 42
-0.339012418814509
  0
VERTEX
  5
3ED
  8
LAYER_1
 10
36.5102103528389
 20
28.3026
 30
0.0
 42
-0.4142135623730951
  0
VERTEX
  5
3EE
  8
LAYER_1
 10
36.3227103528389
 20
28.1151
 30
0.0
 42
-0.0242859268569588
  0
VERTEX
  5
3EF
  8
LAYER_1
 10
36.30452810503164
 20
28.1159836666723
 30
0.0
  0
VERTEX
  5
3F0
  8
LAYER_1
 10
36.287444800289
 20
28.11831305830337
 30
0.0
  0
VERTEX
  5
3F1
  8
LAYER_1
 10
36.27046117585087
 20
28.12135550132101
 30
0.0
  0
VERTEX
  5
3F2
  8
LAYER_1
 10
33.03967808968756
 20
28.7114733609143
 30
0.0
  0
VERTEX
  5
3F3
  8
LAYER_1
 10
33.02675052003073
 20
28.71452006775157
 30
0.0
 42
-0.3434060536082221
  0
VERTEX
  5
3F4
  8
LAYER_1
 10
32.8852103528389
 20
28.8963
 30
0.0
 42
-0.4142135623730951
  0
VERTEX
  5
3F5
  8
LAYER_1
 10
33.0727103528389
 20
29.0838
 30
0.0
 42
-0.022036777784062
  0
VERTEX
  5
3F6
  8
LAYER_1
 10
33.08921387732653
 20
29.08307227759892
 30
0.0
  0
VERTEX
  5
3F7
  8
LAYER_1
 10
33.09644949318488
 20
29.08224899631981
 30
0.0
  0
SEQEND
  5
ADD
  8
LAYER_1
  0
POLYLINE
  5
9E
  8
LAYER_1
 66
     1
 10
0.0
 20
0.0
 30
0.0
 70
     1
  0
VERTEX
  5
3F8
  8
LAYER_1
 10
5.404875474994597
 20
8.913274685990881
 30
0.0
  0
VERTEX
  5
3F9
  8
LAYER_1
 10
14.71079726695037
 20
1.427609013422906
 30
0.0
  0
VERTEX
  5
3FA
  8
LAYER_1
 10
14.71095835109345
 20
1.427600000000009
 30
0.0
  0
VERTEX
  5
3FB
  8
LAYER_1
 10
20.6352103528389
 20
1.427600000000009
 30
0.0
 42
0.4142135623730951
  0
VERTEX
  5
3FC
  8
LAYER_1
 10
20.8227103528389
 20
1.615100000000009
 30
0.0
 42
0.4142135623730951
  0
VERTEX
  5
3FD
  8
LAYER_1
 10
20.6352103528389
 20
1.802600000000009
 30
0.0
  0
VERTEX
  5
3FE
  8
LAYER_1
 10
14.84382388777779
 20
1.802600000000009
 30
0.0
  0
VERTEX
  5
3FF
  8
LAYER_1
 10
14.84353952058957
 20
1.802656299054217
 30
0.0
  0
VERTEX
  5
400
  8
LAYER_1
 10
5.838870384160188
 20
9.043385764579323
 30
0.0
  0
VERTEX
  5
401
  8
LAYER_1
 10
5.838296686207528
 20
9.043814046166187
 30
0.0
  0
VERTEX
  5
402
  8
LAYER_1
 10
2.629375169413507
 20
29.09982178574795
 30
0.0
  0
VERTEX
  5
403
  8
LAYER_1
 10
2.628502713529866
 20
29.10301323987274
 30
0.0
  0
VERTEX
  5
404
  8
LAYER_1
 10
2.627400109144176
 20
29.10615223131629
 30
0.0
 42
0.3317089144572701
  0
VERTEX
  5
405
  8
LAYER_1
 10
2.447710352838911
 20
29.24010000000002
 30
0.0
 42
0.4142135623730951
  0
VERTEX
  5
406
  8
LAYER_1
 10
2.260210352838911
 20
29.05260000000002
 30
0.0
  0
VERTEX
  5
407
  8
LAYER_1
 10
2.26049285739623
 20
29.0436333079893
 30
0.0
  0
VERTEX
  5
408
  8
LAYER_1
 10
2.261256113007299
 20
29.03468409760423
 30
0.0
  0
VERTEX
  5
409
  8
LAYER_1
 10
2.263719329025363
 20
29.01688087392241
 30
0.0
  0
VERTEX
  5
40A
  8
LAYER_1
 10
5.433111289108851
 20
9.207974598400082
 30
0.0
  0
VERTEX
  5
40B
  8
LAYER_1
 10
5.432841495824604
 20
9.207893964123027
 30
0.0
 42
0.2546152462040965
  0
VERTEX
  5
40C
  8
LAYER_1
 10
5.347078411482428
 20
9.050395233993438
 30
0.0
 42
0.1703584761553992
  0
VERTEX
  5
40D
  8
LAYER_1
 10
5.388190489038337
 20
8.933233695242432
 30
0.0
  0
VERTEX
  5
40E
  8
LAYER_1
 10
5.396031172187747
 20
8.92275361511549
 30
0.0
  0
VERTEX
  5
40F
  8
LAYER_1
 10
5.40018011668348
 20
8.917734042853766
 30
0.0
  0
SEQEND
  5
ADE
  8
LAYER_1
  0
POLYLINE
  5
9F
  8
LAYER_1
 66
     1
 10
0.0
 20
0.0
 30
0.0
 70
     1
  0
VERTEX
  5
410
  8
LAYER_1
 10
1.010210352999579
 20
29.92759999993309
 30
0.0
  0
VERTEX
  5
411
  8
LAYER_1
 10
4.229010352942097
 20
9.302599999987077
 30
0.0
  0
VERTEX
  5
412
  8
LAYER_1
 10
14.57271035284012
 20
0.9901000000000089
 30
0.0
  0
VERTEX
  5
413
  8
LAYER_1
 10
69.8852103528389
 20
0.9901000000000018
 30
0.0
  0
VERTEX
  5
414
  8
LAYER_1
 10
69.8852103528389
 20
34.30260000000079
 30
0.0
  0
VERTEX
  5
415
  8
LAYER_1
 10
69.88501264313143
 20
34.31331496180145
 30
0.0
  0
VERTEX
  5
416
  8
LAYER_1
 10
69.88442431651035
 20
34.32404152249723
 30
0.0
  0
VERTEX
  5
417
  8
LAYER_1
 10
69.88345257672748
 20
34.33477391113648
 30
0.0
  0
VERTEX
  5
418
  8
LAYER_1
 10
69.8821046275348
 20
34.34550635676763
 30
0.0
  0
VERTEX
  5
419
  8
LAYER_1
 10
69.88038767268418
 20
34.35623308843905
 30
0.0
  0
VERTEX
  5
41A
  8
LAYER_1
 10
69.8783089159275
 20
34.36694833519915
 30
0.0
  0
VERTEX
  5
41B
  8
LAYER_1
 10
69.8758755610167
 20
34.37764632609633
 30
0.0
  0
VERTEX
  5
41C
  8
LAYER_1
 10
69.87309481170365
 20
34.38832129017895
 30
0.0
  0
VERTEX
  5
41D
  8
LAYER_1
 10
69.86997387174026
 20
34.39896745649543
 30
0.0
  0
VERTEX
  5
41E
  8
LAYER_1
 10
69.86651994487843
 20
34.40957905409415
 30
0.0
  0
VERTEX
  5
41F
  8
LAYER_1
 10
69.86274023487006
 20
34.4201503120235
 30
0.0
  0
VERTEX
  5
420
  8
LAYER_1
 10
69.85864194546704
 20
34.43067545933189
 30
0.0
  0
VERTEX
  5
421
  8
LAYER_1
 10
69.85423228042129
 20
34.44114872506771
 30
0.0
  0
VERTEX
  5
422
  8
LAYER_1
 10
69.8495184434847
 20
34.45156433827933
 30
0.0
  0
VERTEX
  5
423
  8
LAYER_1
 10
69.83920706894662
 20
34.47219952332358
 30
0.0
  0
VERTEX
  5
424
  8
LAYER_1
 10
69.82776545186799
 20
34.4925348468518
 30
0.0
  0
VERTEX
  5
425
  8
LAYER_1
 10
69.81525122226402
 20
34.51252414125113
 30
0.0
  0
VERTEX
  5
426
  8
LAYER_1
 10
69.80172201014993
 20
34.5321212389087
 30
0.0
  0
VERTEX
  5
427
  8
LAYER_1
 10
69.78723544554089
 20
34.55127997221166
 30
0.0
  0
VERTEX
  5
428
  8
LAYER_1
 10
69.77184915845213
 20
34.56995417354715
 30
0.0
  0
VERTEX
  5
429
  8
LAYER_1
 10
69.75562077889883
 20
34.5880976753023
 30
0.0
  0
VERTEX
  5
42A
  8
LAYER_1
 10
69.73860793689622
 20
34.60566430986426
 30
0.0
  0
VERTEX
  5
42B
  8
LAYER_1
 10
69.7208682624595
 20
34.62260790962016
 30
0.0
  0
VERTEX
  5
42C
  8
LAYER_1
 10
69.70245938560387
 20
34.63888230695716
 30
0.0
  0
VERTEX
  5
42D
  8
LAYER_1
 10
69.68343893634453
 20
34.65444133426239
 30
0.0
  0
VERTEX
  5
42E
  8
LAYER_1
 10
69.66386454469668
 20
34.66923882392298
 30
0.0
  0
VERTEX
  5
42F
  8
LAYER_1
 10
69.64379384067556
 20
34.68322860832609
 30
0.0
  0
VERTEX
  5
430
  8
LAYER_1
 10
69.62328445429632
 20
34.69636451985885
 30
0.0
  0
VERTEX
  5
431
  8
LAYER_1
 10
69.60239401557419
 20
34.7086003909084
 30
0.0
  0
VERTEX
  5
432
  8
LAYER_1
 10
69.58118015452439
 20
34.71989005386188
 30
0.0
  0
VERTEX
  5
433
  8
LAYER_1
 10
69.5597005011621
 20
34.73018734110643
 30
0.0
  0
VERTEX
  5
434
  8
LAYER_1
 10
69.53801268550254
 20
34.73944608502919
 30
0.0
  0
VERTEX
  5
435
  8
LAYER_1
 10
69.5161743375609
 20
34.74762011801731
 30
0.0
  0
VERTEX
  5
436
  8
LAYER_1
 10
69.4942430873524
 20
34.75466327245791
 30
0.0
  0
VERTEX
  5
437
  8
LAYER_1
 10
69.47227656489221
 20
34.76052938073815
 30
0.0
  0
VERTEX
  5
438
  8
LAYER_1
 10
69.4612980859475
 20
34.76300661518911
 30
0.0
  0
VERTEX
  5
439
  8
LAYER_1
 10
69.45033240019556
 20
34.76517227524516
 30
0.0
  0
VERTEX
  5
43A
  8
LAYER_1
 10
69.43938671138832
 20
34.76702058995469
 30
0.0
  0
VERTEX
  5
43B
  8
LAYER_1
 10
69.42846822327768
 20
34.76854578836608
 30
0.0
  0
VERTEX
  5
43C
  8
LAYER_1
 10
69.41758413961551
 20
34.76974209952775
 30
0.0
  0
VERTEX
  5
43D
  8
LAYER_1
 10
69.40674166415374
 20
34.77060375248806
 30
0.0
  0
VERTEX
  5
43E
  8
LAYER_1
 10
69.39594800064425
 20
34.77112497629543
 30
0.0
  0
VERTEX
  5
43F
  8
LAYER_1
 10
69.38521035283895
 20
34.77129999999823
 30
0.0
  0
VERTEX
  5
440
  8
LAYER_1
 10
38.8852103528618
 20
34.77129999997526
 30
0.0
  0
VERTEX
  5
441
  8
LAYER_1
 10
34.01021035283679
 20
35.61510000000102
 30
0.0
  0
VERTEX
  5
442
  8
LAYER_1
 10
33.97832210131774
 20
35.62023764135801
 30
0.0
  0
VERTEX
  5
443
  8
LAYER_1
 10
33.9451399059732
 20
35.62477092802682
 30
0.0
  0
VERTEX
  5
444
  8
LAYER_1
 10
33.91084766909493
 20
35.62857096768753
 30
0.0
  0
VERTEX
  5
445
  8
LAYER_1
 10
33.87562929297471
 20
35.63150886802021
 30
0.0
  0
VERTEX
  5
446
  8
LAYER_1
 10
33.83966867990432
 20
35.63345573670492
 30
0.0
  0
VERTEX
  5
447
  8
LAYER_1
 10
33.82146750397899
 20
35.63401725532931
 30
0.0
  0
VERTEX
  5
448
  8
LAYER_1
 10
33.80314973217553
 20
35.63428268142174
 30
0.0
  0
VERTEX
  5
449
  8
LAYER_1
 10
33.78473835228041
 20
35.63423590344222
 30
0.0
  0
VERTEX
  5
44A
  8
LAYER_1
 10
33.76625635208012
 20
35.63386080985074
 30
0.0
  0
VERTEX
  5
44B
  8
LAYER_1
 10
33.74772671936112
 20
35.63314128910733
 30
0.0
  0
VERTEX
  5
44C
  8
LAYER_1
 10
33.72917244190987
 20
35.63206122967199
 30
0.0
  0
VERTEX
  5
44D
  8
LAYER_1
 10
33.71061650751285
 20
35.63060452000474
 30
0.0
  0
VERTEX
  5
44E
  8
LAYER_1
 10
33.69208190395653
 20
35.62875504856557
 30
0.0
  0
VERTEX
  5
44F
  8
LAYER_1
 10
33.6735916190274
 20
35.6264967038145
 30
0.0
  0
VERTEX
  5
450
  8
LAYER_1
 10
33.65516864051191
 20
35.62381337421153
 30
0.0
  0
VERTEX
  5
451
  8
LAYER_1
 10
33.63683595619653
 20
35.62068894821668
 30
0.0
  0
VERTEX
  5
452
  8
LAYER_1
 10
33.61861655386777
 20
35.61710731428996
 30
0.0
  0
VERTEX
  5
453
  8
LAYER_1
 10
33.60053342131205
 20
35.61305236089137
 30
0.0
  0
VERTEX
  5
454
  8
LAYER_1
 10
33.58260954631588
 20
35.60850797648093
 30
0.0
  0
VERTEX
  5
455
  8
LAYER_1
 10
33.5648679166657
 20
35.60345804951864
 30
0.0
  0
VERTEX
  5
456
  8
LAYER_1
 10
33.54733152014801
 20
35.59788646846449
 30
0.0
  0
VERTEX
  5
457
  8
LAYER_1
 10
33.53002334454927
 20
35.59177712177853
 30
0.0
  0
VERTEX
  5
458
  8
LAYER_1
 10
33.51296637765596
 20
35.58511389792075
 30
0.0
  0
VERTEX
  5
459
  8
LAYER_1
 10
33.49618360725454
 20
35.57788068535115
 30
0.0
  0
VERTEX
  5
45A
  8
LAYER_1
 10
33.47969802113148
 20
35.57006137252975
 30
0.0
  0
VERTEX
  5
45B
  8
LAYER_1
 10
33.46353260707325
 20
35.56163984791655
 30
0.0
  0
VERTEX
  5
45C
  8
LAYER_1
 10
33.44771035286635
 20
35.55259999997158
 30
0.0
  0
VERTEX
  5
45D
  8
LAYER_1
 10
33.4314116441975
 20
35.54240908914112
 30
0.0
  0
VERTEX
  5
45E
  8
LAYER_1
 10
33.4155034444143
 20
35.53158072863079
 30
0.0
  0
VERTEX
  5
45F
  8
LAYER_1
 10
33.39998885155511
 20
35.52014360476873
 30
0.0
  0
VERTEX
  5
460
  8
LAYER_1
 10
33.38487096365832
 20
35.50812640388308
 30
0.0
  0
VERTEX
  5
461
  8
LAYER_1
 10
33.37015287876228
 20
35.49555781230201
 30
0.0
  0
VERTEX
  5
462
  8
LAYER_1
 10
33.35583769490536
 20
35.48246651635365
 30
0.0
  0
VERTEX
  5
463
  8
LAYER_1
 10
33.34192851012595
 20
35.46888120236615
 30
0.0
  0
VERTEX
  5
464
  8
LAYER_1
 10
33.32842842246242
 20
35.45483055666766
 30
0.0
  0
VERTEX
  5
465
  8
LAYER_1
 10
33.31534052995313
 20
35.44034326558632
 30
0.0
  0
VERTEX
  5
466
  8
LAYER_1
 10
33.30266793063646
 20
35.42544801545029
 30
0.0
  0
VERTEX
  5
467
  8
LAYER_1
 10
33.29041372255077
 20
35.41017349258771
 30
0.0
  0
VERTEX
  5
468
  8
LAYER_1
 10
33.27858100373444
 20
35.39454838332672
 30
0.0
  0
VERTEX
  5
469
  8
LAYER_1
 10
33.26717287222586
 20
35.37860137399548
 30
0.0
  0
VERTEX
  5
46A
  8
LAYER_1
 10
33.25619242606336
 20
35.36236115092212
 30
0.0
  0
VERTEX
  5
46B
  8
LAYER_1
 10
33.24564276328533
 20
35.3458564004348
 30
0.0
  0
VERTEX
  5
46C
  8
LAYER_1
 10
33.23552698193016
 20
35.32911580886166
 30
0.0
  0
VERTEX
  5
46D
  8
LAYER_1
 10
33.22584818003621
 20
35.31216806253084
 30
0.0
  0
VERTEX
  5
46E
  8
LAYER_1
 10
33.21660945564183
 20
35.29504184777051
 30
0.0
  0
VERTEX
  5
46F
  8
LAYER_1
 10
33.20781390678542
 20
35.27776585090879
 30
0.0
  0
VERTEX
  5
470
  8
LAYER_1
 10
33.19946463150534
 20
35.26036875827386
 30
0.0
  0
VERTEX
  5
471
  8
LAYER_1
 10
33.19156472783996
 20
35.24287925619382
 30
0.0
  0
VERTEX
  5
472
  8
LAYER_1
 10
33.18411729382765
 20
35.22532603099685
 30
0.0
  0
VERTEX
  5
473
  8
LAYER_1
 10
33.17712542750679
 20
35.2077377690111
 30
0.0
  0
VERTEX
  5
474
  8
LAYER_1
 10
33.17059222691574
 20
35.19014315656469
 30
0.0
  0
VERTEX
  5
475
  8
LAYER_1
 10
33.16452079009288
 20
35.1725708799858
 30
0.0
  0
VERTEX
  5
476
  8
LAYER_1
 10
33.15891421507658
 20
35.15504962560254
 30
0.0
  0
VERTEX
  5
477
  8
LAYER_1
 10
33.1537755999052
 20
35.1376080797431
 30
0.0
  0
VERTEX
  5
478
  8
LAYER_1
 10
33.14910804261714
 20
35.12027492873558
 30
0.0
  0
VERTEX
  5
479
  8
LAYER_1
 10
33.14491464125074
 20
35.10307885890817
 30
0.0
  0
VERTEX
  5
47A
  8
LAYER_1
 10
33.14119849384439
 20
35.08604855658898
 30
0.0
  0
VERTEX
  5
47B
  8
LAYER_1
 10
33.13796269843645
 20
35.06921270810619
 30
0.0
  0
VERTEX
  5
47C
  8
LAYER_1
 10
33.1352103530653
 20
35.05259999978792
 30
0.0
  0
VERTEX
  5
47D
  8
LAYER_1
 10
32.697710352782
 20
32.17760000004936
 30
0.0
  0
VERTEX
  5
47E
  8
LAYER_1
 10
32.69182393787462
 20
32.14073195309227
 30
0.0
  0
VERTEX
  5
47F
  8
LAYER_1
 10
32.68536298406678
 20
32.10373295853205
 30
0.0
  0
VERTEX
  5
480
  8
LAYER_1
 10
32.67832635773544
 20
32.06662013309601
 30
0.0
  0
VERTEX
  5
481
  8
LAYER_1
 10
32.67071292525755
 20
32.02941059351147
 30
0.0
  0
VERTEX
  5
482
  8
LAYER_1
 10
32.66252155301008
 20
31.99212145650574
 30
0.0
  0
VERTEX
  5
483
  8
LAYER_1
 10
32.65375110736998
 20
31.95476983880615
 30
0.0
  0
VERTEX
  5
484
  8
LAYER_1
 10
32.64440045471423
 20
31.91737285714001
 30
0.0
  0
VERTEX
  5
485
  8
LAYER_1
 10
32.63446846141979
 20
31.87994762823463
 30
0.0
  0
VERTEX
  5
486
  8
LAYER_1
 10
32.6239539938636
 20
31.84251126881733
 30
0.0
  0
VERTEX
  5
487
  8
LAYER_1
 10
32.61285591842265
 20
31.80508089561544
 30
0.0
  0
VERTEX
  5
488
  8
LAYER_1
 10
32.60117310147388
 20
31.76767362535625
 30
0.0
  0
VERTEX
  5
489
  8
LAYER_1
 10
32.58890440939426
 20
31.73030657476709
 30
0.0
  0
VERTEX
  5
48A
  8
LAYER_1
 10
32.57604870856076
 20
31.69299686057528
 30
0.0
  0
VERTEX
  5
48B
  8
LAYER_1
 10
32.56260486535032
 20
31.65576159950812
 30
0.0
  0
VERTEX
  5
48C
  8
LAYER_1
 10
32.54857174613992
 20
31.61861790829295
 30
0.0
  0
VERTEX
  5
48D
  8
LAYER_1
 10
32.53394821730652
 20
31.58158290365707
 30
0.0
  0
VERTEX
  5
48E
  8
LAYER_1
 10
32.51790941065173
 20
31.542719438645
 30
0.0
  0
VERTEX
  5
48F
  8
LAYER_1
 10
32.50121330701877
 20
31.50401546727048
 30
0.0
  0
VERTEX
  5
490
  8
LAYER_1
 10
32.48385858262085
 20
31.46549097756929
 30
0.0
  0
VERTEX
  5
491
  8
LAYER_1
 10
32.46584391367115
 20
31.42716595757718
 30
0.0
  0
VERTEX
  5
492
  8
LAYER_1
 10
32.44716797638287
 20
31.38906039532993
 30
0.0
  0
VERTEX
  5
493
  8
LAYER_1
 10
32.4278294469692
 20
31.35119427886332
 30
0.0
  0
VERTEX
  5
494
  8
LAYER_1
 10
32.40782700164332
 20
31.3135875962131
 30
0.0
  0
VERTEX
  5
495
  8
LAYER_1
 10
32.38715931661843
 20
31.27626033541504
 30
0.0
  0
VERTEX
  5
496
  8
LAYER_1
 10
32.36582506810772
 20
31.23923248450492
 30
0.0
  0
VERTEX
  5
497
  8
LAYER_1
 10
32.34382293232437
 20
31.20252403151852
 30
0.0
  0
VERTEX
  5
498
  8
LAYER_1
 10
32.32115158548158
 20
31.16615496449159
 30
0.0
  0
VERTEX
  5
499
  8
LAYER_1
 10
32.29780970379255
 20
31.13014527145991
 30
0.0
  0
VERTEX
  5
49A
  8
LAYER_1
 10
32.27379596347045
 20
31.09451494045924
 30
0.0
  0
VERTEX
  5
49B
  8
LAYER_1
 10
32.24910904072848
 20
31.05928395952536
 30
0.0
  0
VERTEX
  5
49C
  8
LAYER_1
 10
32.22374761177984
 20
31.02447231669403
 30
0.0
  0
VERTEX
  5
49D
  8
LAYER_1
 10
32.1977103528377
 20
30.99010000000103
 30
0.0
  0
VERTEX
  5
49E
  8
LAYER_1
 10
32.18280529487831
 20
30.97106015089494
 30
0.0
  0
VERTEX
  5
49F
  8
LAYER_1
 10
32.16769801317827
 20
30.95226680007666
 30
0.0
  0
VERTEX
  5
4A0
  8
LAYER_1
 10
32.15239148451784
 20
30.93371732900199
 30
0.0
  0
VERTEX
  5
4A1
  8
LAYER_1
 10
32.13688868567722
 20
30.91540911912673
 30
0.0
  0
VERTEX
  5
4A2
  8
LAYER_1
 10
32.10530618457632
 20
30.87950600879761
 30
0.0
  0
VERTEX
  5
4A3
  8
LAYER_1
 10
32.07297432411738
 20
30.84453652073567
 30
0.0
  0
VERTEX
  5
4A4
  8
LAYER_1
 10
32.03991691854216
 20
30.8104797065873
 30
0.0
  0
VERTEX
  5
4A5
  8
LAYER_1
 10
32.00615778209246
 20
30.77731461799885
 30
0.0
  0
VERTEX
  5
4A6
  8
LAYER_1
 10
31.97172072901006
 20
30.74502030661673
 30
0.0
  0
VERTEX
  5
4A7
  8
LAYER_1
 10
31.93662957353676
 20
30.71357582408729
 30
0.0
  0
VERTEX
  5
4A8
  8
LAYER_1
 10
31.90090812991432
 20
30.68296022205691
 30
0.0
  0
VERTEX
  5
4A9
  8
LAYER_1
 10
31.86458021238453
 20
30.65315255217197
 30
0.0
  0
VERTEX
  5
4AA
  8
LAYER_1
 10
31.8276696351892
 20
30.62413186607884
 30
0.0
  0
VERTEX
  5
4AB
  8
LAYER_1
 10
31.79020021257008
 20
30.59587721542391
 30
0.0
  0
VERTEX
  5
4AC
  8
LAYER_1
 10
31.75219575876899
 20
30.56836765185355
 30
0.0
  0
VERTEX
  5
4AD
  8
LAYER_1
 10
31.71368008802769
 20
30.54158222701412
 30
0.0
  0
VERTEX
  5
4AE
  8
LAYER_1
 10
31.67467701458796
 20
30.51549999255201
 30
0.0
  0
VERTEX
  5
4AF
  8
LAYER_1
 10
31.63521035269162
 20
30.4901000001136
 30
0.0
  0
VERTEX
  5
4B0
  8
LAYER_1
 10
31.59996605541935
 20
30.46817388921603
 30
0.0
  0
VERTEX
  5
4B1
  8
LAYER_1
 10
31.56439473338506
 20
30.44674653588583
 30
0.0
  0
VERTEX
  5
4B2
  8
LAYER_1
 10
31.52851326467437
 20
30.42589109524114
 30
0.0
  0
VERTEX
  5
4B3
  8
LAYER_1
 10
31.49233852737287
 20
30.40568072240011
 30
0.0
  0
VERTEX
  5
4B4
  8
LAYER_1
 10
31.45588739956621
 20
30.38618857248089
 30
0.0
  0
VERTEX
  5
4B5
  8
LAYER_1
 10
31.41917675933999
 20
30.36748780060162
 30
0.0
  0
VERTEX
  5
4B6
  8
LAYER_1
 10
31.38222348477983
 20
30.34965156188046
 30
0.0
  0
VERTEX
  5
4B7
  8
LAYER_1
 10
31.34504445397135
 20
30.33275301143554
 30
0.0
  0
VERTEX
  5
4B8
  8
LAYER_1
 10
31.30765654500017
 20
30.31686530438501
 30
0.0
  0
VERTEX
  5
4B9
  8
LAYER_1
 10
31.27007663595192
 20
30.30206159584702
 30
0.0
  0
VERTEX
  5
4BA
  8
LAYER_1
 10
31.2323216049122
 20
30.28841504093972
 30
0.0
  0
VERTEX
  5
4BB
  8
LAYER_1
 10
31.21338369304729
 20
30.282048557072
 30
0.0
  0
VERTEX
  5
4BC
  8
LAYER_1
 10
31.19440832996663
 20
30.27599879478126
 30
0.0
  0
VERTEX
  5
4BD
  8
LAYER_1
 10
31.17539762543091
 20
30.27027489845725
 30
0.0
  0
VERTEX
  5
4BE
  8
LAYER_1
 10
31.15635368920084
 20
30.26488601248977
 30
0.0
  0
VERTEX
  5
4BF
  8
LAYER_1
 10
31.13727863103712
 20
30.25984128126856
 30
0.0
  0
VERTEX
  5
4C0
  8
LAYER_1
 10
31.11817456070044
 20
30.2551498491834
 30
0.0
  0
VERTEX
  5
4C1
  8
LAYER_1
 10
31.09904358795152
 20
30.25082086062406
 30
0.0
  0
VERTEX
  5
4C2
  8
LAYER_1
 10
31.07988782255105
 20
30.24686345998031
 30
0.0
  0
VERTEX
  5
4C3
  8
LAYER_1
 10
31.06070937425974
 20
30.24328679164191
 30
0.0
  0
VERTEX
  5
4C4
  8
LAYER_1
 10
31.04151035283829
 20
30.24009999999864
 30
0.0
  0
VERTEX
  5
4C5
  8
LAYER_1
 10
13.1665103523991
 20
27.45880000020554
 30
0.0
  0
VERTEX
  5
4C6
  8
LAYER_1
 10
13.10742552165516
 20
27.44987563694145
 30
0.0
  0
VERTEX
  5
4C7
  8
LAYER_1
 10
13.04749474290431
 20
27.44148072107247
 30
0.0
  0
VERTEX
  5
4C8
  8
LAYER_1
 10
12.98680171445539
 20
27.43381267424987
 30
0.0
  0
VERTEX
  5
4C9
  8
LAYER_1
 10
12.92543013461725
 20
27.42706891812491
 30
0.0
  0
VERTEX
  5
4CA
  8
LAYER_1
 10
12.89451604364873
 20
27.42410534334007
 30
0.0
  0
VERTEX
  5
4CB
  8
LAYER_1
 10
12.86346370169872
 20
27.42144687434887
 30
0.0
  0
VERTEX
  5
4CC
  8
LAYER_1
 10
12.83228357105583
 20
27.41911818885771
 30
0.0
  0
VERTEX
  5
4CD
  8
LAYER_1
 10
12.80098611400865
 20
27.41714396457299
 30
0.0
  0
VERTEX
  5
4CE
  8
LAYER_1
 10
12.7695817928458
 20
27.41554887920114
 30
0.0
  0
VERTEX
  5
4CF
  8
LAYER_1
 10
12.73808106985588
 20
27.41435761044855
 30
0.0
  0
VERTEX
  5
4D0
  8
LAYER_1
 10
12.70649440732749
 20
27.41359483602165
 30
0.0
  0
VERTEX
  5
4D1
  8
LAYER_1
 10
12.67483226754924
 20
27.41328523362682
 30
0.0
  0
VERTEX
  5
4D2
  8
LAYER_1
 10
12.64310511280974
 20
27.41345348097049
 30
0.0
  0
VERTEX
  5
4D3
  8
LAYER_1
 10
12.61132340539758
 20
27.41412425575906
 30
0.0
  0
VERTEX
  5
4D4
  8
LAYER_1
 10
12.57949760760138
 20
27.41532223569893
 30
0.0
  0
VERTEX
  5
4D5
  8
LAYER_1
 10
12.54763818170974
 20
27.41707209849652
 30
0.0
  0
VERTEX
  5
4D6
  8
LAYER_1
 10
12.51575559001127
 20
27.41939852185823
 30
0.0
  0
VERTEX
  5
4D7
  8
LAYER_1
 10
12.48386029479456
 20
27.42232618349048
 30
0.0
  0
VERTEX
  5
4D8
  8
LAYER_1
 10
12.45196275834823
 20
27.42587976109967
 30
0.0
  0
VERTEX
  5
4D9
  8
LAYER_1
 10
12.42007344296088
 20
27.4300839323922
 30
0.0
  0
VERTEX
  5
4DA
  8
LAYER_1
 10
12.38820281092112
 20
27.43496337507449
 30
0.0
  0
VERTEX
  5
4DB
  8
LAYER_1
 10
12.35636132451755
 20
27.44054276685295
 30
0.0
  0
VERTEX
  5
4DC
  8
LAYER_1
 10
12.32455944603877
 20
27.44684678543398
 30
0.0
  0
VERTEX
  5
4DD
  8
LAYER_1
 10
12.29280763777339
 20
27.45390010852399
 30
0.0
  0
VERTEX
  5
4DE
  8
LAYER_1
 10
12.26111636201001
 20
27.46172741382939
 30
0.0
  0
VERTEX
  5
4DF
  8
LAYER_1
 10
12.22949608103725
 20
27.47035337905658
 30
0.0
  0
VERTEX
  5
4E0
  8
LAYER_1
 10
12.1979572571437
 20
27.47980268191198
 30
0.0
  0
VERTEX
  5
4E1
  8
LAYER_1
 10
12.16651035261798
 20
27.49010000010199
 30
0.0
  0
VERTEX
  5
4E2
  8
LAYER_1
 10
12.12162956905838
 20
27.50576873054694
 30
0.0
  0
VERTEX
  5
4E3
  8
LAYER_1
 10
12.07615472032338
 20
27.52231718498301
 30
0.0
  0
VERTEX
  5
4E4
  8
LAYER_1
 10
12.0302118427675
 20
27.53972292311326
 30
0.0
  0
VERTEX
  5
4E5
  8
LAYER_1
 10
11.98392697274528
 20
27.55796350464071
 30
0.0
  0
VERTEX
  5
4E6
  8
LAYER_1
 10
11.93742614661127
 20
27.57701648926839
 30
0.0
  0
VERTEX
  5
4E7
  8
LAYER_1
 10
11.89083540072
 20
27.59685943669932
 30
0.0
  0
VERTEX
  5
4E8
  8
LAYER_1
 10
11.84428077142602
 20
27.61746990663654
 30
0.0
  0
VERTEX
  5
4E9
  8
LAYER_1
 10
11.79788829508386
 20
27.63882545878308
 30
0.0
  0
VERTEX
  5
4EA
  8
LAYER_1
 10
11.75178400804807
 20
27.66090365284197
 30
0.0
  0
VERTEX
  5
4EB
  8
LAYER_1
 10
11.70609394667318
 20
27.68368204851623
 30
0.0
  0
VERTEX
  5
4EC
  8
LAYER_1
 10
11.66094414731374
 20
27.7071382055089
 30
0.0
  0
VERTEX
  5
4ED
  8
LAYER_1
 10
11.61646064632428
 20
27.73124968352301
 30
0.0
  0
VERTEX
  5
4EE
  8
LAYER_1
 10
11.57276948005935
 20
27.75599404226159
 30
0.0
  0
VERTEX
  5
4EF
  8
LAYER_1
 10
11.52999668487349
 20
27.78134884142766
 30
0.0
  0
VERTEX
  5
4F0
  8
LAYER_1
 10
11.48826829712123
 20
27.80729164072427
 30
0.0
  0
VERTEX
  5
4F1
  8
LAYER_1
 10
11.44771035315712
 20
27.83379999985442
 30
0.0
  0
VERTEX
  5
4F2
  8
LAYER_1
 10
11.42638343258061
 20
27.84845863327554
 30
0.0
  0
VERTEX
  5
4F3
  8
LAYER_1
 10
11.4054053930499
 20
27.86357197619878
 30
0.0
  0
VERTEX
  5
4F4
  8
LAYER_1
 10
11.38476553223825
 20
27.87911970358738
 30
0.0
  0
VERTEX
  5
4F5
  8
LAYER_1
 10
11.3644531478189
 20
27.89508149040455
 30
0.0
  0
VERTEX
  5
4F6
  8
LAYER_1
 10
11.34445753746513
 20
27.91143701161355
 30
0.0
  0
VERTEX
  5
4F7
  8
LAYER_1
 10
11.3247679988502
 20
27.9281659421776
 30
0.0
  0
VERTEX
  5
4F8
  8
LAYER_1
 10
11.30537382964735
 20
27.94524795705994
 30
0.0
  0
VERTEX
  5
4F9
  8
LAYER_1
 10
11.28626432752987
 20
27.9626627312238
 30
0.0
  0
VERTEX
  5
4FA
  8
LAYER_1
 10
11.26742879017099
 20
27.98038993963242
 30
0.0
  0
VERTEX
  5
4FB
  8
LAYER_1
 10
11.24885651524399
 20
27.99840925724903
 30
0.0
  0
VERTEX
  5
4FC
  8
LAYER_1
 10
11.23053680042212
 20
28.01670035903686
 30
0.0
  0
VERTEX
  5
4FD
  8
LAYER_1
 10
11.21245894337864
 20
28.03524291995916
 30
0.0
  0
VERTEX
  5
4FE
  8
LAYER_1
 10
11.1769859933199
 20
28.07300111906006
 30
0.0
  0
VERTEX
  5
4FF
  8
LAYER_1
 10
11.14235204645385
 20
28.11152125425761
 30
0.0
  0
VERTEX
  5
500
  8
LAYER_1
 10
11.10847148416658
 20
28.15064072525768
 30
0.0
  0
VERTEX
  5
501
  8
LAYER_1
 10
11.07525868784414
 20
28.19019693176616
 30
0.0
  0
VERTEX
  5
502
  8
LAYER_1
 10
11.04262803887263
 20
28.2300272734889
 30
0.0
  0
VERTEX
  5
503
  8
LAYER_1
 10
11.01049391863813
 20
28.26996915013179
 30
0.0
  0
VERTEX
  5
504
  8
LAYER_1
 10
10.94737278992445
 20
28.3495371070015
 30
0.0
  0
VERTEX
  5
505
  8
LAYER_1
 10
10.88521035279173
 20
28.42760000002227
 30
0.0
  0
VERTEX
  5
506
  8
LAYER_1
 10
10.86461185031937
 20
28.45412798839225
 30
0.0
  0
VERTEX
  5
507
  8
LAYER_1
 10
10.84484201819133
 20
28.48143387484465
 30
0.0
  0
VERTEX
  5
508
  8
LAYER_1
 10
10.82585619035401
 20
28.50943231602258
 30
0.0
  0
VERTEX
  5
509
  8
LAYER_1
 10
10.80760970075378
 20
28.5380379685691
 30
0.0
  0
VERTEX
  5
50A
  8
LAYER_1
 10
10.79005788333702
 20
28.56716548912731
 30
0.0
  0
VERTEX
  5
50B
  8
LAYER_1
 10
10.77315607205011
 20
28.59672953434031
 30
0.0
  0
VERTEX
  5
50C
  8
LAYER_1
 10
10.75685960083943
 20
28.62664476085117
 30
0.0
  0
VERTEX
  5
50D
  8
LAYER_1
 10
10.74112380365136
 20
28.656825825303
 30
0.0
  0
VERTEX
  5
50E
  8
LAYER_1
 10
10.72590401443229
 20
28.68718738433888
 30
0.0
  0
VERTEX
  5
50F
  8
LAYER_1
 10
10.71115556712859
 20
28.71764409460189
 30
0.0
  0
VERTEX
  5
510
  8
LAYER_1
 10
10.68289403405282
 20
28.77850159538169
 30
0.0
  0
VERTEX
  5
511
  8
LAYER_1
 10
10.6559818759951
 20
28.83871558078711
 30
0.0
  0
VERTEX
  5
512
  8
LAYER_1
 10
10.63006176452647
 20
28.89760330396286
 30
0.0
  0
VERTEX
  5
513
  8
LAYER_1
 10
10.61160536559826
 20
28.9396829105258
 30
0.0
  0
VERTEX
  5
514
  8
LAYER_1
 10
10.59346816999994
 20
28.98191389954583
 30
0.0
  0
VERTEX
  5
515
  8
LAYER_1
 10
10.57598700069735
 20
29.02432521986101
 30
0.0
  0
VERTEX
  5
516
  8
LAYER_1
 10
10.56759768308378
 20
29.04560755076617
 30
0.0
  0
VERTEX
  5
517
  8
LAYER_1
 10
10.55949868065633
 20
29.0669458203094
 30
0.0
  0
VERTEX
  5
518
  8
LAYER_1
 10
10.55173209628573
 20
29.08834364709544
 30
0.0
  0
VERTEX
  5
519
  8
LAYER_1
 10
10.5443400328427
 20
29.10980464972906
 30
0.0
  0
VERTEX
  5
51A
  8
LAYER_1
 10
10.53736459319798
 20
29.13133244681501
 30
0.0
  0
VERTEX
  5
51B
  8
LAYER_1
 10
10.5308478802223
 20
29.15293065695804
 30
0.0
  0
VERTEX
  5
51C
  8
LAYER_1
 10
10.52483199678638
 20
29.17460289876292
 30
0.0
  0
VERTEX
  5
51D
  8
LAYER_1
 10
10.51935904576095
 20
29.1963527908344
 30
0.0
  0
VERTEX
  5
51E
  8
LAYER_1
 10
10.51447113001675
 20
29.21818395177725
 30
0.0
  0
VERTEX
  5
51F
  8
LAYER_1
 10
10.51021035242449
 20
29.24010000019621
 30
0.0
  0
VERTEX
  5
520
  8
LAYER_1
 10
10.13521035279327
 20
31.33380000002499
 30
0.0
  0
VERTEX
  5
521
  8
LAYER_1
 10
10.12925048709245
 20
31.3644215061785
 30
0.0
  0
VERTEX
  5
522
  8
LAYER_1
 10
10.12219633717057
 20
31.39558739383271
 30
0.0
  0
VERTEX
  5
523
  8
LAYER_1
 10
10.11400624580915
 20
31.42714325249029
 30
0.0
  0
VERTEX
  5
524
  8
LAYER_1
 10
10.10463855578971
 20
31.45893467165395
 30
0.0
  0
VERTEX
  5
525
  8
LAYER_1
 10
10.09405160989377
 20
31.49080724082637
 30
0.0
  0
VERTEX
  5
526
  8
LAYER_1
 10
10.08828789811133
 20
31.50672570338546
 30
0.0
  0
VERTEX
  5
527
  8
LAYER_1
 10
10.08220375090283
 20
31.52260654951024
 30
0.0
  0
VERTEX
  5
528
  8
LAYER_1
 10
10.07579396111596
 20
31.53843047788855
 30
0.0
  0
VERTEX
  5
529
  8
LAYER_1
 10
10.06905332159842
 20
31.55417818720824
 30
0.0
  0
VERTEX
  5
52A
  8
LAYER_1
 10
10.06197662519789
 20
31.56983037615714
 30
0.0
  0
VERTEX
  5
52B
  8
LAYER_1
 10
10.05455866476205
 20
31.58536774342307
 30
0.0
  0
VERTEX
  5
52C
  8
LAYER_1
 10
10.04679423313861
 20
31.60077098769389
 30
0.0
  0
VERTEX
  5
52D
  8
LAYER_1
 10
10.03867812317524
 20
31.61602080765742
 30
0.0
  0
VERTEX
  5
52E
  8
LAYER_1
 10
10.03020512771965
 20
31.6310979020015
 30
0.0
  0
VERTEX
  5
52F
  8
LAYER_1
 10
10.02137003961951
 20
31.64598296941397
 30
0.0
  0
VERTEX
  5
530
  8
LAYER_1
 10
10.01216765172252
 20
31.66065670858266
 30
0.0
  0
VERTEX
  5
531
  8
LAYER_1
 10
10.00259275687636
 20
31.67509981819541
 30
0.0
  0
VERTEX
  5
532
  8
LAYER_1
 10
9.992640147928736
 20
31.68929299694005
 30
0.0
  0
VERTEX
  5
533
  8
LAYER_1
 10
9.982304617727326
 20
31.70321694350442
 30
0.0
  0
VERTEX
  5
534
  8
LAYER_1
 10
9.971580959119821
 20
31.71685235657637
 30
0.0
  0
VERTEX
  5
535
  8
LAYER_1
 10
9.960463964953913
 20
31.73017993484371
 30
0.0
  0
VERTEX
  5
536
  8
LAYER_1
 10
9.948948428077287
 20
31.7431803769943
 30
0.0
  0
VERTEX
  5
537
  8
LAYER_1
 10
9.937029141337636
 20
31.75583438171596
 30
0.0
  0
VERTEX
  5
538
  8
LAYER_1
 10
9.92470089758265
 20
31.76812264769653
 30
0.0
  0
VERTEX
  5
539
  8
LAYER_1
 10
9.911958489660018
 20
31.78002587362385
 30
0.0
  0
VERTEX
  5
53A
  8
LAYER_1
 10
9.898796710417429
 20
31.79152475818575
 30
0.0
  0
VERTEX
  5
53B
  8
LAYER_1
 10
9.885210352702572
 20
31.80260000007008
 30
0.0
  0
VERTEX
  5
53C
  8
LAYER_1
 10
9.872006840295917
 20
31.81262487329795
 30
0.0
  0
VERTEX
  5
53D
  8
LAYER_1
 10
9.858418020002352
 20
31.82224074747237
 30
0.0
  0
VERTEX
  5
53E
  8
LAYER_1
 10
9.844466800109938
 20
31.83144904751013
 30
0.0
  0
VERTEX
  5
53F
  8
LAYER_1
 10
9.830176088906734
 20
31.84025119832803
 30
0.0
  0
VERTEX
  5
540
  8
LAYER_1
 10
9.815568794680798
 20
31.84864862484286
 30
0.0
  0
VERTEX
  5
541
  8
LAYER_1
 10
9.800667825720192
 20
31.85664275197141
 30
0.0
  0
VERTEX
  5
542
  8
LAYER_1
 10
9.785496090312972
 20
31.86423500463048
 30
0.0
  0
VERTEX
  5
543
  8
LAYER_1
 10
9.7700764967472
 20
31.87142680773686
 30
0.0
  0
VERTEX
  5
544
  8
LAYER_1
 10
9.754431953310931
 20
31.87821958620733
 30
0.0
  0
VERTEX
  5
545
  8
LAYER_1
 10
9.73858536829223
 20
31.8846147649587
 30
0.0
  0
VERTEX
  5
546
  8
LAYER_1
 10
9.722559649979148
 20
31.89061376890776
 30
0.0
  0
VERTEX
  5
547
  8
LAYER_1
 10
9.706377706659755
 20
31.89621802297129
 30
0.0
  0
VERTEX
  5
548
  8
LAYER_1
 10
9.6900624466221
 20
31.90142895206609
 30
0.0
  0
VERTEX
  5
549
  8
LAYER_1
 10
9.673636778154249
 20
31.90624798110896
 30
0.0
  0
VERTEX
  5
54A
  8
LAYER_1
 10
9.657123609544257
 20
31.91067653501668
 30
0.0
  0
VERTEX
  5
54B
  8
LAYER_1
 10
9.640545849080187
 20
31.91471603870605
 30
0.0
  0
VERTEX
  5
54C
  8
LAYER_1
 10
9.623926405050096
 20
31.91836791709387
 30
0.0
  0
VERTEX
  5
54D
  8
LAYER_1
 10
9.607288185742043
 20
31.92163359509692
 30
0.0
  0
VERTEX
  5
54E
  8
LAYER_1
 10
9.590654099444087
 20
31.924514497632
 30
0.0
  0
VERTEX
  5
54F
  8
LAYER_1
 10
9.574047054444287
 20
31.9270120496159
 30
0.0
  0
VERTEX
  5
550
  8
LAYER_1
 10
9.557489959030704
 20
31.92912767596541
 30
0.0
  0
VERTEX
  5
551
  8
LAYER_1
 10
9.541005721491398
 20
31.93086280159733
 30
0.0
  0
VERTEX
  5
552
  8
LAYER_1
 10
9.524617250114424
 20
31.93221885142845
 30
0.0
  0
VERTEX
  5
553
  8
LAYER_1
 10
9.508347453187845
 20
31.93319725037556
 30
0.0
  0
VERTEX
  5
554
  8
LAYER_1
 10
9.49221923899972
 20
31.93379942335545
 30
0.0
  0
VERTEX
  5
555
  8
LAYER_1
 10
9.476255515838105
 20
31.93402679528493
 30
0.0
  0
VERTEX
  5
556
  8
LAYER_1
 10
9.460479191991062
 20
31.93388079108077
 30
0.0
  0
VERTEX
  5
557
  8
LAYER_1
 10
9.444913175746649
 20
31.93336283565977
 30
0.0
  0
VERTEX
  5
558
  8
LAYER_1
 10
9.429580375392925
 20
31.93247435393873
 30
0.0
  0
VERTEX
  5
559
  8
LAYER_1
 10
9.41450369921795
 20
31.93121677083444
 30
0.0
  0
VERTEX
  5
55A
  8
LAYER_1
 10
9.399706055509784
 20
31.92959151126368
 30
0.0
  0
VERTEX
  5
55B
  8
LAYER_1
 10
9.385210352556484
 20
31.92760000014326
 30
0.0
  0
VERTEX
  5
55C
  8
LAYER_1
 10
1.760210352896237
 20
30.77129999997755
 30
0.0
  0
VERTEX
  5
55D
  8
LAYER_1
 10
1.739836435968739
 20
30.76792630803753
 30
0.0
  0
VERTEX
  5
55E
  8
LAYER_1
 10
1.711247827481404
 20
30.76264760059174
 30
0.0
  0
VERTEX
  5
55F
  8
LAYER_1
 10
1.675814519192942
 20
30.75553490729098
 30
0.0
  0
VERTEX
  5
560
  8
LAYER_1
 10
1.634906502862062
 20
30.74665925778602
 30
0.0
  0
VERTEX
  5
561
  8
LAYER_1
 10
1.589893770247473
 20
30.73609168172766
 30
0.0
  0
VERTEX
  5
562
  8
LAYER_1
 10
1.542146313107884
 20
30.72390320876669
 30
0.0
  0
VERTEX
  5
563
  8
LAYER_1
 10
1.517675185265811
 20
30.71722333271359
 30
0.0
  0
VERTEX
  5
564
  8
LAYER_1
 10
1.493034123202003
 20
30.71016486855389
 30
0.0
  0
VERTEX
  5
565
  8
LAYER_1
 10
1.468394375886301
 20
30.70273669499392
 30
0.0
  0
VERTEX
  5
566
  8
LAYER_1
 10
1.443927192288541
 20
30.69494769074005
 30
0.0
  0
VERTEX
  5
567
  8
LAYER_1
 10
1.420321529198185
 20
30.68699174274502
 30
0.0
  0
VERTEX
  5
568
  8
LAYER_1
 10
1.397144985231102
 20
30.67873968932069
 30
0.0
  0
VERTEX
  5
569
  8
LAYER_1
 10
1.374484666593577
 20
30.67023917355378
 30
0.0
  0
VERTEX
  5
56A
  8
LAYER_1
 10
1.352427679491893
 20
30.66153783853099
 30
0.0
  0
VERTEX
  5
56B
  8
LAYER_1
 10
1.331061130132336
 20
30.65268332733905
 30
0.0
  0
VERTEX
  5
56C
  8
LAYER_1
 10
1.310472124721189
 20
30.64372328306466
 30
0.0
  0
VERTEX
  5
56D
  8
LAYER_1
 10
1.290747769464737
 20
30.63470534879454
 30
0.0
  0
VERTEX
  5
56E
  8
LAYER_1
 10
1.271975170569263
 20
30.6256771676154
 30
0.0
  0
VERTEX
  5
56F
  8
LAYER_1
 10
1.254241434241052
 20
30.61668638261395
 30
0.0
  0
VERTEX
  5
570
  8
LAYER_1
 10
1.237633666686388
 20
30.6077806368769
 30
0.0
  0
VERTEX
  5
571
  8
LAYER_1
 10
1.222238974111555
 20
30.59900757349098
 30
0.0
  0
VERTEX
  5
572
  8
LAYER_1
 10
1.208144462722838
 20
30.59041483554288
 30
0.0
  0
VERTEX
  5
573
  8
LAYER_1
 10
1.19543723872652
 20
30.58205006611933
 30
0.0
  0
VERTEX
  5
574
  8
LAYER_1
 10
1.184204408328886
 20
30.57396090830703
 30
0.0
  0
VERTEX
  5
575
  8
LAYER_1
 10
1.17453307773622
 20
30.56619500519271
 30
0.0
  0
VERTEX
  5
576
  8
LAYER_1
 10
1.166510353154806
 20
30.55879999986307
 30
0.0
  0
VERTEX
  5
577
  8
LAYER_1
 10
1.158201243781313
 20
30.55016542742851
 30
0.0
  0
VERTEX
  5
578
  8
LAYER_1
 10
1.150125344426596
 20
30.54118425188621
 30
0.0
  0
VERTEX
  5
579
  8
LAYER_1
 10
1.142281429148962
 20
30.53187627594985
 30
0.0
  0
VERTEX
  5
57A
  8
LAYER_1
 10
1.134668272006718
 20
30.52226130233313
 30
0.0
  0
VERTEX
  5
57B
  8
LAYER_1
 10
1.127284647058169
 20
30.51235913374977
 30
0.0
  0
VERTEX
  5
57C
  8
LAYER_1
 10
1.120129328361623
 20
30.50218957291345
 30
0.0
  0
VERTEX
  5
57D
  8
LAYER_1
 10
1.113201089975386
 20
30.49177242253789
 30
0.0
  0
VERTEX
  5
57E
  8
LAYER_1
 10
1.106498705957766
 20
30.48112748533679
 30
0.0
  0
VERTEX
  5
57F
  8
LAYER_1
 10
1.0937665972616
 20
30.45923346131277
 30
0.0
  0
VERTEX
  5
580
  8
LAYER_1
 10
1.08192319473958
 20
30.436665922551
 30
0.0
  0
VERTEX
  5
581
  8
LAYER_1
 10
1.070958690858159
 20
30.41358329076111
 30
0.0
  0
VERTEX
  5
582
  8
LAYER_1
 10
1.06086327808379
 20
30.3901439876527
 30
0.0
  0
VERTEX
  5
583
  8
LAYER_1
 10
1.051627148882928
 20
30.36650643493541
 30
0.0
  0
VERTEX
  5
584
  8
LAYER_1
 10
1.043240495722026
 20
30.34282905431885
 30
0.0
  0
VERTEX
  5
585
  8
LAYER_1
 10
1.035693511067539
 20
30.31927026751264
 30
0.0
  0
VERTEX
  5
586
  8
LAYER_1
 10
1.028976387385919
 20
30.29598849622639
 30
0.0
  0
VERTEX
  5
587
  8
LAYER_1
 10
1.02307931714362
 20
30.27314216216972
 30
0.0
  0
VERTEX
  5
588
  8
LAYER_1
 10
1.017992492807097
 20
30.25088968705226
 30
0.0
  0
VERTEX
  5
589
  8
LAYER_1
 10
1.013706106842803
 20
30.22938949258362
 30
0.0
  0
VERTEX
  5
58A
  8
LAYER_1
 10
1.010210351717191
 20
30.20880000047343
 30
0.0
  0
VERTEX
  5
58B
  8
LAYER_1
 10
1.007773649069861
 20
30.19176218310624
 30
0.0
  0
VERTEX
  5
58C
  8
LAYER_1
 10
1.005673480491122
 20
30.17440391112775
 30
0.0
  0
VERTEX
  5
58D
  8
LAYER_1
 10
1.003907351615634
 20
30.15677850530704
 30
0.0
  0
VERTEX
  5
58E
  8
LAYER_1
 10
1.002472768078053
 20
30.1389392864132
 30
0.0
  0
VERTEX
  5
58F
  8
LAYER_1
 10
1.00136723551304
 20
30.12093957521534
 30
0.0
  0
VERTEX
  5
590
  8
LAYER_1
 10
1.000588259555251
 20
30.10283269248254
 30
0.0
  0
VERTEX
  5
591
  8
LAYER_1
 10
1.000133345839346
 20
30.08467195898389
 30
0.0
  0
VERTEX
  5
592
  8
LAYER_1
 10
0.9999999999999822
 20
30.06651069548849
 30
0.0
  0
VERTEX
  5
593
  8
LAYER_1
 10
1.000185727671819
 20
30.04840222276542
 30
0.0
  0
VERTEX
  5
594
  8
LAYER_1
 10
1.000688034489514
 20
30.03039986158378
 30
0.0
  0
VERTEX
  5
595
  8
LAYER_1
 10
1.001504426087726
 20
30.01255693271266
 30
0.0
  0
VERTEX
  5
596
  8
LAYER_1
 10
1.002632408101113
 20
29.99492675692116
 30
0.0
  0
VERTEX
  5
597
  8
LAYER_1
 10
1.004069486164333
 20
29.97756265497836
 30
0.0
  0
VERTEX
  5
598
  8
LAYER_1
 10
1.005813165912045
 20
29.96051794765335
 30
0.0
  0
VERTEX
  5
599
  8
LAYER_1
 10
1.007860952978908
 20
29.94384595571523
 30
0.0
  0
SEQEND
  5
ADF
  8
LAYER_1
  0
POLYLINE
  5
A0
  8
LAYER_1
 66
     1
 10
0.0
 20
0.0
 30
0.0
 70
     1
  0
VERTEX
  5
59A
  8
LAYER_1
 10
94.875
 20
33.92760000000001
 30
0.0
  0
VERTEX
  5
59B
  8
LAYER_1
 10
71.25
 20
33.92760000000001
 30
0.0
  0
VERTEX
  5
59C
  8
LAYER_1
 10
71.25
 20
1.115100000000004
 30
0.0
  0
VERTEX
  5
59D
  8
LAYER_1
 10
94.875
 20
1.115100000000002
 30
0.0
  0
SEQEND
  5
AE0
  8
LAYER_1
  0
POLYLINE
  5
A1
  8
LAYER_1
 66
     1
 10
0.0
 20
0.0
 30
0.0
 70
     1
  0
VERTEX
  5
59E
  8
LAYER_1
 10
95.0
 20
34.05260000000001
 30
0.0
  0
VERTEX
  5
59F
  8
LAYER_1
 10
71.125
 20
34.05260000000001
 30
0.0
  0
VERTEX
  5
5A0
  8
LAYER_1
 10
71.125
 20
33.42760000000001
 30
0.0
  0
VERTEX
  5
5A1
  8
LAYER_1
 10
95.0
 20
33.42760000000001
 30
0.0
  0
SEQEND
  5
AE1
  8
LAYER_1
  0
POLYLINE
  5
A2
  8
LAYER_1
 66
     1
 10
0.0
 20
0.0
 30
0.0
 70
     1
  0
VERTEX
  5
5A2
  8
LAYER_1
 10
95.0
 20
34.05260000000001
 30
0.0
  0
VERTEX
  5
5A3
  8
LAYER_1
 10
94.625
 20
34.05260000000001
 30
0.0
  0
VERTEX
  5
5A4
  8
LAYER_1
 10
94.625
 20
0.9901000000000018
 30
0.0
  0
VERTEX
  5
5A5
  8
LAYER_1
 10
95.0
 20
0.9901000000000018
 30
0.0
  0
SEQEND
  5
AE2
  8
LAYER_1
  0
POLYLINE
  5
A3
  8
LAYER_1
 66
     1
 10
0.0
 20
0.0
 30
0.0
 70
     1
  0
VERTEX
  5
5A6
  8
LAYER_1
 10
71.5
 20
34.05260000000001
 30
0.0
  0
VERTEX
  5
5A7
  8
LAYER_1
 10
71.125
 20
34.05260000000001
 30
0.0
  0
VERTEX
  5
5A8
  8
LAYER_1
 10
71.125
 20
0.9901000000000035
 30
0.0
  0
VERTEX
  5
5A9
  8
LAYER_1
 10
71.5
 20
0.9901000000000035
 30
0.0
  0
SEQEND
  5
AE3
  8
LAYER_1
  0
POLYLINE
  5
A4
  8
LAYER_1
 66
     1
 10
0.0
 20
0.0
 30
0.0
 70
     1
  0
VERTEX
  5
5AA
  8
LAYER_1
 10
89.24997020026615
 20
18.05258050637339
 30
0.0
 42
-0.4142135623730951
  0
VERTEX
  5
5AB
  8
LAYER_1
 10
88.99997020026615
 20
17.80258050637339
 30
0.0
  0
VERTEX
  5
5AC
  8
LAYER_1
 10
77.12497020026615
 20
17.8025805063734
 30
0.0
 42
-0.4142135623730951
  0
VERTEX
  5
5AD
  8
LAYER_1
 10
76.87497020026615
 20
18.0525805063734
 30
0.0
  0
VERTEX
  5
5AE
  8
LAYER_1
 10
76.87497020026615
 20
27.55258050637337
 30
0.0
 42
-0.4142135623730951
  0
VERTEX
  5
5AF
  8
LAYER_1
 10
77.12497020026615
 20
27.80258050637337
 30
0.0
  0
VERTEX
  5
5B0
  8
LAYER_1
 10
88.99997020026615
 20
27.80258050637337
 30
0.0
 42
-0.4142135623730951
  0
VERTEX
  5
5B1
  8
LAYER_1
 10
89.24997020026615
 20
27.55258050637337
 30
0.0
  0
SEQEND
  5
AE4
  8
LAYER_1
  0
POLYLINE
  5
A5
  8
LAYER_1
 66
     1
 10
0.0
 20
0.0
 30
0.0
 70
     1
  0
VERTEX
  5
5B2
  8
LAYER_1
 10
89.71872020026615
 20
22.94318050637337
 30
0.0
 42
-0.4142135623730951
  0
VERTEX
  5
5B3
  8
LAYER_1
 10
89.85932020026615
 20
22.80258050637339
 30
0.0
 42
-0.4142135623730951
  0
VERTEX
  5
5B4
  8
LAYER_1
 10
89.71872020026615
 20
22.66198050637338
 30
0.0
 42
-0.4142135623730951
  0
VERTEX
  5
5B5
  8
LAYER_1
 10
89.57812020026614
 20
22.80258050637339
 30
0.0
 42
-0.4142135623730951
  0
SEQEND
  5
AE5
  8
LAYER_1
  0
POLYLINE
  5
A6
  8
LAYER_1
 66
     1
 10
0.0
 20
0.0
 30
0.0
 70
     1
  0
VERTEX
  5
5B6
  8
LAYER_1
 10
76.40622020026615
 20
22.94318050637337
 30
0.0
 42
-0.4142135623730951
  0
VERTEX
  5
5B7
  8
LAYER_1
 10
76.54682020026615
 20
22.80258050637339
 30
0.0
 42
-0.4142135623730951
  0
VERTEX
  5
5B8
  8
LAYER_1
 10
76.40622020026615
 20
22.66198050637338
 30
0.0
 42
-0.4142135623730951
  0
VERTEX
  5
5B9
  8
LAYER_1
 10
76.26562020026614
 20
22.80258050637339
 30
0.0
 42
-0.4142135623730951
  0
SEQEND
  5
AE6
  8
LAYER_1
  0
POLYLINE
  5
A7
  8
LAYER_1
 66
     1
 10
0.0
 20
0.0
 30
0.0
 70
     1
  0
VERTEX
  5
5BA
  8
LAYER_1
 10
83.06247020026615
 20
28.31818050637338
 30
0.0
 42
-0.4142135623730951
  0
VERTEX
  5
5BB
  8
LAYER_1
 10
83.20307020026615
 20
28.17758050637337
 30
0.0
 42
-0.4142135623730951
  0
VERTEX
  5
5BC
  8
LAYER_1
 10
83.06247020026615
 20
28.03698050637338
 30
0.0
 42
-0.4142135623730951
  0
VERTEX
  5
5BD
  8
LAYER_1
 10
82.92187020026614
 20
28.17758050637337
 30
0.0
 42
-0.4142135623730951
  0
SEQEND
  5
AE7
  8
LAYER_1
  0
POLYLINE
  5
A8
  8
LAYER_1
 66
     1
 10
0.0
 20
0.0
 30
0.0
 70
     1
  0
VERTEX
  5
5BE
  8
LAYER_1
 10
83.06247020026615
 20
17.56818050637337
 30
0.0
 42
-0.4142135623730951
  0
VERTEX
  5
5BF
  8
LAYER_1
 10
83.20307020026615
 20
17.4275805063734
 30
0.0
 42
-0.4142135623730951
  0
VERTEX
  5
5C0
  8
LAYER_1
 10
83.06247020026615
 20
17.28698050637339
 30
0.0
 42
-0.4142135623730951
  0
VERTEX
  5
5C1
  8
LAYER_1
 10
82.92187020026614
 20
17.4275805063734
 30
0.0
 42
-0.4142135623730951
  0
SEQEND
  5
AE8
  8
LAYER_1
  0
POLYLINE
  5
A9
  8
LAYER_1
 66
     1
 10
0.0
 20
0.0
 30
0.0
 70
     1
  0
VERTEX
  5
5C2
  8
LAYER_1
 10
76.96872020026615
 20
27.24008050637337
 30
0.0
 42
-0.4142135623730951
  0
VERTEX
  5
5C3
  8
LAYER_1
 10
77.21872020026615
 20
26.99008050637337
 30
0.0
 42
-0.4142135623730951
  0
VERTEX
  5
5C4
  8
LAYER_1
 10
76.96872020026615
 20
26.74008050637337
 30
0.0
 42
-0.4142135623730951
  0
VERTEX
  5
5C5
  8
LAYER_1
 10
76.71872020026615
 20
26.99008050637337
 30
0.0
 42
-0.4142135623730951
  0
SEQEND
  5
AE9
  8
LAYER_1
  0
POLYLINE
  5
AA
  8
LAYER_1
 66
     1
 10
0.0
 20
0.0
 30
0.0
 70
     1
  0
VERTEX
  5
5C6
  8
LAYER_1
 10
76.96872020026615
 20
18.8650805063734
 30
0.0
 42
-0.4142135623730951
  0
VERTEX
  5
5C7
  8
LAYER_1
 10
77.21872020026615
 20
18.6150805063734
 30
0.0
 42
-0.4142135623730951
  0
VERTEX
  5
5C8
  8
LAYER_1
 10
76.96872020026615
 20
18.3650805063734
 30
0.0
 42
-0.4142135623730951
  0
VERTEX
  5
5C9
  8
LAYER_1
 10
76.71872020026615
 20
18.6150805063734
 30
0.0
 42
-0.4142135623730951
  0
SEQEND
  5
AEA
  8
LAYER_1
  0
POLYLINE
  5
AB
  8
LAYER_1
 66
     1
 10
0.0
 20
0.0
 30
0.0
 70
     1
  0
VERTEX
  5
5CA
  8
LAYER_1
 10
76.96872020026615
 20
23.05258050637339
 30
0.0
 42
-0.4142135623730951
  0
VERTEX
  5
5CB
  8
LAYER_1
 10
77.21872020026615
 20
22.80258050637339
 30
0.0
 42
-0.4142135623730951
  0
VERTEX
  5
5CC
  8
LAYER_1
 10
76.96872020026615
 20
22.55258050637339
 30
0.0
 42
-0.4142135623730951
  0
VERTEX
  5
5CD
  8
LAYER_1
 10
76.71872020026615
 20
22.80258050637339
 30
0.0
 42
-0.4142135623730951
  0
SEQEND
  5
AEB
  8
LAYER_1
  0
POLYLINE
  5
AC
  8
LAYER_1
 66
     1
 10
0.0
 20
0.0
 30
0.0
 70
     1
  0
VERTEX
  5
5CE
  8
LAYER_1
 10
83.06244999999996
 20
17.67760000000001
 30
0.0
 42
0.4142135623730951
  0
VERTEX
  5
5CF
  8
LAYER_1
 10
82.81244999999996
 20
17.42760000000001
 30
0.0
 42
0.4142135623730951
  0
VERTEX
  5
5D0
  8
LAYER_1
 10
83.06244999999996
 20
17.17760000000001
 30
0.0
 42
0.4142135623730951
  0
VERTEX
  5
5D1
  8
LAYER_1
 10
83.31244999999996
 20
17.42760000000001
 30
0.0
 42
0.4142135623730951
  0
SEQEND
  5
AEC
  8
LAYER_1
  0
POLYLINE
  5
AD
  8
LAYER_1
 66
     1
 10
0.0
 20
0.0
 30
0.0
 70
     1
  0
VERTEX
  5
5D2
  8
LAYER_1
 10
76.40625
 20
23.0526
 30
0.0
 42
0.4142135623730951
  0
VERTEX
  5
5D3
  8
LAYER_1
 10
76.15625
 20
22.8026
 30
0.0
 42
0.4142135623730951
  0
VERTEX
  5
5D4
  8
LAYER_1
 10
76.40625
 20
22.5526
 30
0.0
 42
0.4142135623730951
  0
VERTEX
  5
5D5
  8
LAYER_1
 10
76.65625
 20
22.8026
 30
0.0
 42
0.4142135623730951
  0
SEQEND
  5
AED
  8
LAYER_1
  0
POLYLINE
  5
AE
  8
LAYER_1
 66
     1
 10
0.0
 20
0.0
 30
0.0
 70
     1
  0
VERTEX
  5
5D6
  8
LAYER_1
 10
83.06244999999996
 20
28.4276
 30
0.0
 42
0.4142135623730951
  0
VERTEX
  5
5D7
  8
LAYER_1
 10
82.81244999999996
 20
28.1776
 30
0.0
 42
0.4142135623730951
  0
VERTEX
  5
5D8
  8
LAYER_1
 10
83.06244999999996
 20
27.9276
 30
0.0
 42
0.4142135623730951
  0
VERTEX
  5
5D9
  8
LAYER_1
 10
83.31244999999996
 20
28.1776
 30
0.0
 42
0.4142135623730951
  0
SEQEND
  5
AEE
  8
LAYER_1
  0
POLYLINE
  5
AF
  8
LAYER_1
 66
     1
 10
0.0
 20
0.0
 30
0.0
 70
     1
  0
VERTEX
  5
5DA
  8
LAYER_1
 10
89.71875
 20
23.0526
 30
0.0
 42
0.4142135623730951
  0
VERTEX
  5
5DB
  8
LAYER_1
 10
89.46875
 20
22.8026
 30
0.0
 42
0.4142135623730951
  0
VERTEX
  5
5DC
  8
LAYER_1
 10
89.71875
 20
22.5526
 30
0.0
 42
0.4142135623730951
  0
VERTEX
  5
5DD
  8
LAYER_1
 10
89.96875
 20
22.8026
 30
0.0
 42
0.4142135623730951
  0
SEQEND
  5
AEF
  8
LAYER_1
  0
POLYLINE
  5
B0
  8
LAYER_1
 66
     1
 10
0.0
 20
0.0
 30
0.0
 70
     1
  0
VERTEX
  5
5DE
  8
LAYER_1
 10
87.375
 20
13.2396
 30
0.0
 42
0.4142135623730951
  0
VERTEX
  5
5DF
  8
LAYER_1
 10
87.50049999999999
 20
13.3651
 30
0.0
 42
0.4142135623730951
  0
VERTEX
  5
5E0
  8
LAYER_1
 10
87.375
 20
13.4906
 30
0.0
 42
0.4142135623730951
  0
VERTEX
  5
5E1
  8
LAYER_1
 10
87.24949999999995
 20
13.3651
 30
0.0
 42
0.4142135623730951
  0
SEQEND
  5
AF0
  8
LAYER_1
  0
POLYLINE
  5
B1
  8
LAYER_1
 66
     1
 10
0.0
 20
0.0
 30
0.0
 70
     1
  0
VERTEX
  5
5E2
  8
LAYER_1
 10
87.375
 20
10.4896
 30
0.0
 42
0.4142135623730951
  0
VERTEX
  5
5E3
  8
LAYER_1
 10
87.50049999999999
 20
10.6151
 30
0.0
 42
0.4142135623730951
  0
VERTEX
  5
5E4
  8
LAYER_1
 10
87.375
 20
10.7406
 30
0.0
 42
0.4142135623730951
  0
VERTEX
  5
5E5
  8
LAYER_1
 10
87.24949999999995
 20
10.6151
 30
0.0
 42
0.4142135623730951
  0
SEQEND
  5
AF1
  8
LAYER_1
  0
POLYLINE
  5
B2
  8
LAYER_1
 66
     1
 10
0.0
 20
0.0
 30
0.0
 70
     1
  0
VERTEX
  5
5E6
  8
LAYER_1
 10
78.6875
 20
10.4896
 30
0.0
 42
0.4142135623730951
  0
VERTEX
  5
5E7
  8
LAYER_1
 10
78.81299999999999
 20
10.6151
 30
0.0
 42
0.4142135623730951
  0
VERTEX
  5
5E8
  8
LAYER_1
 10
78.6875
 20
10.7406
 30
0.0
 42
0.4142135623730951
  0
VERTEX
  5
5E9
  8
LAYER_1
 10
78.56199999999995
 20
10.6151
 30
0.0
 42
0.4142135623730951
  0
SEQEND
  5
AF2
  8
LAYER_1
  0
POLYLINE
  5
B3
  8
LAYER_1
 66
     1
 10
0.0
 20
0.0
 30
0.0
 70
     1
  0
VERTEX
  5
5EA
  8
LAYER_1
 10
78.6875
 20
13.2396
 30
0.0
 42
0.4142135623730951
  0
VERTEX
  5
5EB
  8
LAYER_1
 10
78.81299999999999
 20
13.3651
 30
0.0
 42
0.4142135623730951
  0
VERTEX
  5
5EC
  8
LAYER_1
 10
78.6875
 20
13.4906
 30
0.0
 42
0.4142135623730951
  0
VERTEX
  5
5ED
  8
LAYER_1
 10
78.56199999999995
 20
13.3651
 30
0.0
 42
0.4142135623730951
  0
SEQEND
  5
AF3
  8
LAYER_1
  0
POLYLINE
  5
B4
  8
LAYER_1
 66
     1
 10
0.0
 20
0.0
 30
0.0
 70
     1
  0
VERTEX
  5
5EE
  8
LAYER_1
 10
1.124999999999986
 20
34.9474
 30
0.0
  0
VERTEX
  5
5EF
  8
LAYER_1
 10
24.74999999999999
 20
34.9474
 30
0.0
  0
VERTEX
  5
5F0
  8
LAYER_1
 10
24.74999999999999
 20
46.8849
 30
0.0
  0
VERTEX
  5
5F1
  8
LAYER_1
 10
1.124999999999986
 20
46.8849
 30
0.0
  0
SEQEND
  5
AF4
  8
LAYER_1
  0
POLYLINE
  5
B5
  8
LAYER_1
 66
     1
 10
0.0
 20
0.0
 30
0.0
 70
     1
  0
VERTEX
  5
5F2
  8
LAYER_1
 10
0.9999999999999858
 20
34.8224
 30
0.0
  0
VERTEX
  5
5F3
  8
LAYER_1
 10
1.374999999999986
 20
34.8224
 30
0.0
  0
VERTEX
  5
5F4
  8
LAYER_1
 10
1.374999999999986
 20
47.0099
 30
0.0
  0
VERTEX
  5
5F5
  8
LAYER_1
 10
0.9999999999999858
 20
47.0099
 30
0.0
  0
SEQEND
  5
AF5
  8
LAYER_1
  0
POLYLINE
  5
B6
  8
LAYER_1
 66
     1
 10
0.0
 20
0.0
 30
0.0
 70
     1
  0
VERTEX
  5
5F6
  8
LAYER_1
 10
24.49999999999999
 20
34.8224
 30
0.0
  0
VERTEX
  5
5F7
  8
LAYER_1
 10
24.87499999999999
 20
34.8224
 30
0.0
  0
VERTEX
  5
5F8
  8
LAYER_1
 10
24.87499999999999
 20
47.0099
 30
0.0
  0
VERTEX
  5
5F9
  8
LAYER_1
 10
24.49999999999999
 20
47.0099
 30
0.0
  0
SEQEND
  5
AF6
  8
LAYER_1
  0
POLYLINE
  5
B7
  8
LAYER_1
 66
     1
 10
0.0
 20
0.0
 30
0.0
 70
     1
  0
VERTEX
  5
5FA
  8
LAYER_1
 10
26.15908739962939
 20
43.73728962322421
 30
0.0
  0
VERTEX
  5
5FB
  8
LAYER_1
 10
49.78408739962941
 20
43.73728962322421
 30
0.0
  0
VERTEX
  5
5FC
  8
LAYER_1
 10
49.78408739962941
 20
46.73728962322421
 30
0.0
  0
VERTEX
  5
5FD
  8
LAYER_1
 10
26.15908739962939
 20
46.73728962322421
 30
0.0
  0
SEQEND
  5
AF7
  8
LAYER_1
  0
POLYLINE
  5
B8
  8
LAYER_1
 66
     1
 10
0.0
 20
0.0
 30
0.0
 70
     1
  0
VERTEX
  5
5FE
  8
LAYER_1
 10
26.03408739962939
 20
43.61228962322421
 30
0.0
  0
VERTEX
  5
5FF
  8
LAYER_1
 10
26.40908739962939
 20
43.61228962322421
 30
0.0
  0
VERTEX
  5
600
  8
LAYER_1
 10
26.40908739962939
 20
46.86228962322421
 30
0.0
  0
VERTEX
  5
601
  8
LAYER_1
 10
26.03408739962939
 20
46.86228962322421
 30
0.0
  0
SEQEND
  5
AF8
  8
LAYER_1
  0
POLYLINE
  5
B9
  8
LAYER_1
 66
     1
 10
0.0
 20
0.0
 30
0.0
 70
     1
  0
VERTEX
  5
602
  8
LAYER_1
 10
49.53408739962941
 20
43.61228962322421
 30
0.0
  0
VERTEX
  5
603
  8
LAYER_1
 10
49.90908739962941
 20
43.61228962322421
 30
0.0
  0
VERTEX
  5
604
  8
LAYER_1
 10
49.90908739962941
 20
46.86228962322421
 30
0.0
  0
VERTEX
  5
605
  8
LAYER_1
 10
49.53408739962941
 20
46.86228962322421
 30
0.0
  0
SEQEND
  5
AF9
  8
LAYER_1
  0
POLYLINE
  5
BA
  8
LAYER_1
 66
     1
 10
0.0
 20
0.0
 30
0.0
 70
     1
  0
VERTEX
  5
606
  8
LAYER_1
 10
25.99602378011117
 20
39.17150827671402
 30
0.0
  0
VERTEX
  5
607
  8
LAYER_1
 10
49.62102378011116
 20
39.17150827671402
 30
0.0
  0
VERTEX
  5
608
  8
LAYER_1
 10
49.62102378011116
 20
42.17150827671402
 30
0.0
  0
VERTEX
  5
609
  8
LAYER_1
 10
25.99602378011117
 20
42.17150827671402
 30
0.0
  0
SEQEND
  5
AFA
  8
LAYER_1
  0
POLYLINE
  5
BB
  8
LAYER_1
 66
     1
 10
0.0
 20
0.0
 30
0.0
 70
     1
  0
VERTEX
  5
60A
  8
LAYER_1
 10
25.87102378011117
 20
39.04650827671402
 30
0.0
  0
VERTEX
  5
60B
  8
LAYER_1
 10
26.24602378011117
 20
39.04650827671402
 30
0.0
  0
VERTEX
  5
60C
  8
LAYER_1
 10
26.24602378011117
 20
42.29650827671402
 30
0.0
  0
VERTEX
  5
60D
  8
LAYER_1
 10
25.87102378011117
 20
42.29650827671402
 30
0.0
  0
SEQEND
  5
AFB
  8
LAYER_1
  0
POLYLINE
  5
BC
  8
LAYER_1
 66
     1
 10
0.0
 20
0.0
 30
0.0
 70
     1
  0
VERTEX
  5
60E
  8
LAYER_1
 10
49.37102378011116
 20
39.04650827671402
 30
0.0
  0
VERTEX
  5
60F
  8
LAYER_1
 10
49.74602378011116
 20
39.04650827671402
 30
0.0
  0
VERTEX
  5
610
  8
LAYER_1
 10
49.74602378011116
 20
42.29650827671402
 30
0.0
  0
VERTEX
  5
611
  8
LAYER_1
 10
49.37102378011116
 20
42.29650827671402
 30
0.0
  0
SEQEND
  5
AFC
  8
LAYER_1
  0
POLYLINE
  5
BD
  8
LAYER_1
 66
     1
 10
0.0
 20
0.0
 30
0.0
 70
     1
  0
VERTEX
  5
612
  8
LAYER_1
 10
25.87102378011117
 20
40.79650827671402
 30
0.0
  0
VERTEX
  5
613
  8
LAYER_1
 10
49.74602378011116
 20
40.79650827671402
 30
0.0
  0
VERTEX
  5
614
  8
LAYER_1
 10
49.74602378011116
 20
42.29650827671402
 30
0.0
  0
VERTEX
  5
615
  8
LAYER_1
 10
25.87102378011117
 20
42.29650827671402
 30
0.0
  0
SEQEND
  5
AFD
  8
LAYER_1
  0
POLYLINE
  5
BE
  8
LAYER_1
 66
     1
 10
0.0
 20
0.0
 30
0.0
 70
     1
  0
VERTEX
  5
616
  8
LAYER_1
 10
38.87804972205066
 20
35.92104502779495
 30
0.0
  0
VERTEX
  5
617
  8
LAYER_1
 10
62.50304972205066
 20
35.92104502779495
 30
0.0
  0
VERTEX
  5
618
  8
LAYER_1
 10
62.50304972205066
 20
37.92104502779495
 30
0.0
  0
VERTEX
  5
619
  8
LAYER_1
 10
38.87804972205066
 20
37.92104502779495
 30
0.0
  0
SEQEND
  5
AFE
  8
LAYER_1
  0
POLYLINE
  5
BF
  8
LAYER_1
 66
     1
 10
0.0
 20
0.0
 30
0.0
 70
     1
  0
VERTEX
  5
61A
  8
LAYER_1
 10
39.12804972205066
 20
36.60854502779495
 30
0.0
  0
VERTEX
  5
61B
  8
LAYER_1
 10
62.25304972205066
 20
36.60854502779495
 30
0.0
  0
VERTEX
  5
61C
  8
LAYER_1
 10
62.25304972205066
 20
37.48354502779495
 30
0.0
  0
VERTEX
  5
61D
  8
LAYER_1
 10
39.12804972205066
 20
37.48354502779495
 30
0.0
  0
SEQEND
  5
AFF
  8
LAYER_1
  0
POLYLINE
  5
C0
  8
LAYER_1
 66
     1
 10
0.0
 20
0.0
 30
0.0
 70
     1
  0
VERTEX
  5
61E
  8
LAYER_1
 10
38.75304972205066
 20
35.79604502779495
 30
0.0
  0
VERTEX
  5
61F
  8
LAYER_1
 10
62.62804972205066
 20
35.79604502779495
 30
0.0
  0
VERTEX
  5
620
  8
LAYER_1
 10
62.62804972205066
 20
38.04604502779495
 30
0.0
  0
VERTEX
  5
621
  8
LAYER_1
 10
38.75304972205066
 20
38.04604502779495
 30
0.0
  0
SEQEND
  5
B00
  8
LAYER_1
  0
POLYLINE
  5
C1
  8
LAYER_1
 66
     1
 10
0.0
 20
0.0
 30
0.0
 70
     1
  0
VERTEX
  5
622
  8
LAYER_1
 10
41.56554972205066
 20
37.23404502779493
 30
0.0
 42
0.4142135623730951
  0
VERTEX
  5
623
  8
LAYER_1
 10
41.44004972205067
 20
37.10854502779495
 30
0.0
 42
0.4142135623730951
  0
VERTEX
  5
624
  8
LAYER_1
 10
41.56554972205066
 20
36.98304502779494
 30
0.0
 42
0.4142135623730951
  0
VERTEX
  5
625
  8
LAYER_1
 10
41.69104972205065
 20
37.10854502779495
 30
0.0
 42
0.4142135623730951
  0
SEQEND
  5
B01
  8
LAYER_1
  0
POLYLINE
  5
C2
  8
LAYER_1
 66
     1
 10
0.0
 20
0.0
 30
0.0
 70
     1
  0
VERTEX
  5
626
  8
LAYER_1
 10
47.75304972205066
 20
37.23404502779493
 30
0.0
 42
0.4142135623730951
  0
VERTEX
  5
627
  8
LAYER_1
 10
47.62754972205067
 20
37.10854502779495
 30
0.0
 42
0.4142135623730951
  0
VERTEX
  5
628
  8
LAYER_1
 10
47.75304972205066
 20
36.98304502779494
 30
0.0
 42
0.4142135623730951
  0
VERTEX
  5
629
  8
LAYER_1
 10
47.87854972205065
 20
37.10854502779495
 30
0.0
 42
0.4142135623730951
  0
SEQEND
  5
B02
  8
LAYER_1
  0
POLYLINE
  5
C3
  8
LAYER_1
 66
     1
 10
0.0
 20
0.0
 30
0.0
 70
     1
  0
VERTEX
  5
62A
  8
LAYER_1
 10
53.81554972205066
 20
37.23404502779493
 30
0.0
 42
0.4142135623730951
  0
VERTEX
  5
62B
  8
LAYER_1
 10
53.69004972205067
 20
37.10854502779495
 30
0.0
 42
0.4142135623730951
  0
VERTEX
  5
62C
  8
LAYER_1
 10
53.81554972205066
 20
36.98304502779494
 30
0.0
 42
0.4142135623730951
  0
VERTEX
  5
62D
  8
LAYER_1
 10
53.94104972205065
 20
37.10854502779495
 30
0.0
 42
0.4142135623730951
  0
SEQEND
  5
B03
  8
LAYER_1
  0
POLYLINE
  5
C4
  8
LAYER_1
 66
     1
 10
0.0
 20
0.0
 30
0.0
 70
     1
  0
VERTEX
  5
62E
  8
LAYER_1
 10
59.87804972205066
 20
37.23404502779493
 30
0.0
 42
0.4142135623730951
  0
VERTEX
  5
62F
  8
LAYER_1
 10
59.75254972205067
 20
37.10854502779495
 30
0.0
 42
0.4142135623730951
  0
VERTEX
  5
630
  8
LAYER_1
 10
59.87804972205066
 20
36.98304502779494
 30
0.0
 42
0.4142135623730951
  0
VERTEX
  5
631
  8
LAYER_1
 10
60.00354972205065
 20
37.10854502779495
 30
0.0
 42
0.4142135623730951
  0
SEQEND
  5
B04
  8
LAYER_1
  0
POLYLINE
  5
C5
  8
LAYER_1
 66
     1
 10
0.0
 20
0.0
 30
0.0
 70
     1
  0
VERTEX
  5
632
  8
LAYER_1
 10
97.78419107397106
 20
4.463368715926791
 30
0.0
  0
VERTEX
  5
633
  8
LAYER_1
 10
121.4091910739711
 20
4.463368715926791
 30
0.0
  0
VERTEX
  5
634
  8
LAYER_1
 10
121.4091910739711
 20
23.65086871592679
 30
0.0
  0
VERTEX
  5
635
  8
LAYER_1
 10
97.78419107397106
 20
23.65086871592679
 30
0.0
  0
SEQEND
  5
B05
  8
LAYER_1
  0
POLYLINE
  5
C6
  8
LAYER_1
 66
     1
 10
0.0
 20
0.0
 30
0.0
 70
     1
  0
VERTEX
  5
636
  8
LAYER_1
 10
97.65919107397106
 20
4.338368715926791
 30
0.0
  0
VERTEX
  5
637
  8
LAYER_1
 10
98.03419107397106
 20
4.338368715926791
 30
0.0
  0
VERTEX
  5
638
  8
LAYER_1
 10
98.03419107397106
 20
23.77586871592679
 30
0.0
  0
VERTEX
  5
639
  8
LAYER_1
 10
97.65919107397106
 20
23.77586871592679
 30
0.0
  0
SEQEND
  5
B06
  8
LAYER_1
  0
POLYLINE
  5
C7
  8
LAYER_1
 66
     1
 10
0.0
 20
0.0
 30
0.0
 70
     1
  0
VERTEX
  5
63A
  8
LAYER_1
 10
121.1591910739711
 20
4.338368715926791
 30
0.0
  0
VERTEX
  5
63B
  8
LAYER_1
 10
121.5341910739711
 20
4.338368715926791
 30
0.0
  0
VERTEX
  5
63C
  8
LAYER_1
 10
121.5341910739711
 20
23.77586871592679
 30
0.0
  0
VERTEX
  5
63D
  8
LAYER_1
 10
121.1591910739711
 20
23.77586871592679
 30
0.0
  0
SEQEND
  5
B07
  8
LAYER_1
  0
POLYLINE
  5
C8
  8
LAYER_1
 66
     1
 10
0.0
 20
0.0
 30
0.0
 70
     1
  0
VERTEX
  5
63E
  8
LAYER_1
 10
103.6591910739711
 20
11.21356871592679
 30
0.0
  0
VERTEX
  5
63F
  8
LAYER_1
 10
103.7108905257801
 20
11.21377325464205
 30
0.0
  0
VERTEX
  5
640
  8
LAYER_1
 10
103.7624328726197
 20
11.21438523454139
 30
0.0
  0
VERTEX
  5
641
  8
LAYER_1
 10
103.8138141874983
 20
11.21540220125513
 30
0.0
  0
VERTEX
  5
642
  8
LAYER_1
 10
103.8650305434245
 20
11.21682170041362
 30
0.0
  0
VERTEX
  5
643
  8
LAYER_1
 10
103.9160780134067
 20
11.21864127764718
 30
0.0
  0
VERTEX
  5
644
  8
LAYER_1
 10
103.9669526704537
 20
11.22085847858614
 30
0.0
  0
VERTEX
  5
645
  8
LAYER_1
 10
104.0176505875738
 20
11.22347084886084
 30
0.0
  0
VERTEX
  5
646
  8
LAYER_1
 10
104.0681678377755
 20
11.2264759341016
 30
0.0
  0
VERTEX
  5
647
  8
LAYER_1
 10
104.1185004940676
 20
11.22987127993877
 30
0.0
  0
VERTEX
  5
648
  8
LAYER_1
 10
104.1686446294584
 20
11.23365443200268
 30
0.0
  0
VERTEX
  5
649
  8
LAYER_1
 10
104.2185963169565
 20
11.23782293592365
 30
0.0
  0
VERTEX
  5
64A
  8
LAYER_1
 10
104.2683516295704
 20
11.24237433733201
 30
0.0
  0
VERTEX
  5
64B
  8
LAYER_1
 10
104.3179066403086
 20
11.2473061818581
 30
0.0
  0
VERTEX
  5
64C
  8
LAYER_1
 10
104.3672574221798
 20
11.25261601513226
 30
0.0
  0
VERTEX
  5
64D
  8
LAYER_1
 10
104.4164000481923
 20
11.25830138278481
 30
0.0
  0
VERTEX
  5
64E
  8
LAYER_1
 10
104.4653305913549
 20
11.26435983044609
 30
0.0
  0
VERTEX
  5
64F
  8
LAYER_1
 10
104.5140451246759
 20
11.27078890374643
 30
0.0
  0
VERTEX
  5
650
  8
LAYER_1
 10
104.5625397211639
 20
11.27758614831616
 30
0.0
  0
VERTEX
  5
651
  8
LAYER_1
 10
104.6108104538275
 20
11.28474910978561
 30
0.0
  0
VERTEX
  5
652
  8
LAYER_1
 10
104.6588533956751
 20
11.29227533378512
 30
0.0
  0
VERTEX
  5
653
  8
LAYER_1
 10
104.7066646197154
 20
11.30016236594501
 30
0.0
  0
VERTEX
  5
654
  8
LAYER_1
 10
104.7542401989568
 20
11.30840775189562
 30
0.0
  0
VERTEX
  5
655
  8
LAYER_1
 10
104.8015762064079
 20
11.31700903726728
 30
0.0
  0
VERTEX
  5
656
  8
LAYER_1
 10
104.8486687150772
 20
11.32596376769033
 30
0.0
  0
VERTEX
  5
657
  8
LAYER_1
 10
104.8955137979732
 20
11.3352694887951
 30
0.0
  0
VERTEX
  5
658
  8
LAYER_1
 10
104.9421075281045
 20
11.34492374621191
 30
0.0
  0
VERTEX
  5
659
  8
LAYER_1
 10
104.9884459784795
 20
11.3549240855711
 30
0.0
  0
VERTEX
  5
65A
  8
LAYER_1
 10
105.034525222107
 20
11.36526805250301
 30
0.0
  0
VERTEX
  5
65B
  8
LAYER_1
 10
105.0803413319952
 20
11.37595319263796
 30
0.0
  0
VERTEX
  5
65C
  8
LAYER_1
 10
105.1258903811529
 20
11.38697705160629
 30
0.0
  0
VERTEX
  5
65D
  8
LAYER_1
 10
105.1711684425885
 20
11.39833717503832
 30
0.0
  0
VERTEX
  5
65E
  8
LAYER_1
 10
105.2161715893105
 20
11.4100311085644
 30
0.0
  0
VERTEX
  5
65F
  8
LAYER_1
 10
105.2608958943276
 20
11.42205639781485
 30
0.0
  0
VERTEX
  5
660
  8
LAYER_1
 10
105.3053374306481
 20
11.43441058842001
 30
0.0
  0
VERTEX
  5
661
  8
LAYER_1
 10
105.3494922712807
 20
11.4470912260102
 30
0.0
  0
VERTEX
  5
662
  8
LAYER_1
 10
105.3933564892339
 20
11.46009585621577
 30
0.0
  0
VERTEX
  5
663
  8
LAYER_1
 10
105.4369261575162
 20
11.47342202466703
 30
0.0
  0
VERTEX
  5
664
  8
LAYER_1
 10
105.4801973491362
 20
11.48706727699433
 30
0.0
  0
VERTEX
  5
665
  8
LAYER_1
 10
105.5231661371023
 20
11.501029158828
 30
0.0
  0
VERTEX
  5
666
  8
LAYER_1
 10
105.5658285944231
 20
11.51530521579837
 30
0.0
  0
VERTEX
  5
667
  8
LAYER_1
 10
105.6081807941072
 20
11.52989299353576
 30
0.0
  0
VERTEX
  5
668
  8
LAYER_1
 10
105.650218809163
 20
11.54479003767052
 30
0.0
  0
VERTEX
  5
669
  8
LAYER_1
 10
105.6919387125992
 20
11.55999389383298
 30
0.0
  0
VERTEX
  5
66A
  8
LAYER_1
 10
105.7333365774241
 20
11.57550210765346
 30
0.0
  0
VERTEX
  5
66B
  8
LAYER_1
 10
105.7744084766465
 20
11.5913122247623
 30
0.0
  0
VERTEX
  5
66C
  8
LAYER_1
 10
105.8151504832747
 20
11.60742179078984
 30
0.0
  0
VERTEX
  5
66D
  8
LAYER_1
 10
105.8555586703174
 20
11.6238283513664
 30
0.0
  0
VERTEX
  5
66E
  8
LAYER_1
 10
105.895629110783
 20
11.64052945212231
 30
0.0
  0
VERTEX
  5
66F
  8
LAYER_1
 10
105.9353578776801
 20
11.65752263868791
 30
0.0
  0
VERTEX
  5
670
  8
LAYER_1
 10
105.9747410440173
 20
11.67480545669353
 30
0.0
  0
VERTEX
  5
671
  8
LAYER_1
 10
106.013774682803
 20
11.69237545176951
 30
0.0
  0
VERTEX
  5
672
  8
LAYER_1
 10
106.0524548670457
 20
11.71023016954617
 30
0.0
  0
VERTEX
  5
673
  8
LAYER_1
 10
106.0907776697541
 20
11.72836715565384
 30
0.0
  0
VERTEX
  5
674
  8
LAYER_1
 10
106.1287391639367
 20
11.74678395572287
 30
0.0
  0
VERTEX
  5
675
  8
LAYER_1
 10
106.1663354226019
 20
11.76547811538358
 30
0.0
  0
VERTEX
  5
676
  8
LAYER_1
 10
106.2035625187583
 20
11.7844471802663
 30
0.0
  0
VERTEX
  5
677
  8
LAYER_1
 10
106.2404165254145
 20
11.80368869600137
 30
0.0
  0
VERTEX
  5
678
  8
LAYER_1
 10
106.276893515579
 20
11.82320020821911
 30
0.0
  0
VERTEX
  5
679
  8
LAYER_1
 10
106.3129895622602
 20
11.84297926254986
 30
0.0
  0
VERTEX
  5
67A
  8
LAYER_1
 10
106.3487007384668
 20
11.86302340462396
 30
0.0
  0
VERTEX
  5
67B
  8
LAYER_1
 10
106.3840231172073
 20
11.88333018007173
 30
0.0
  0
VERTEX
  5
67C
  8
LAYER_1
 10
106.4189527714902
 20
11.90389713452351
 30
0.0
  0
VERTEX
  5
67D
  8
LAYER_1
 10
106.453485774324
 20
11.92472181360963
 30
0.0
  0
VERTEX
  5
67E
  8
LAYER_1
 10
106.4876181987173
 20
11.94580176296041
 30
0.0
  0
VERTEX
  5
67F
  8
LAYER_1
 10
106.5213461176785
 20
11.96713452820621
 30
0.0
  0
VERTEX
  5
680
  8
LAYER_1
 10
106.5546656042163
 20
11.98871765497733
 30
0.0
  0
VERTEX
  5
681
  8
LAYER_1
 10
106.5875727313392
 20
12.01054868890412
 30
0.0
  0
VERTEX
  5
682
  8
LAYER_1
 10
106.6200635720556
 20
12.03262517561692
 30
0.0
  0
VERTEX
  5
683
  8
LAYER_1
 10
106.6521341993741
 20
12.05494466074604
 30
0.0
  0
VERTEX
  5
684
  8
LAYER_1
 10
106.6837806863034
 20
12.07750468992183
 30
0.0
  0
VERTEX
  5
685
  8
LAYER_1
 10
106.7149991058517
 20
12.10030280877462
 30
0.0
  0
VERTEX
  5
686
  8
LAYER_1
 10
106.7457855310278
 20
12.12333656293473
 30
0.0
  0
VERTEX
  5
687
  8
LAYER_1
 10
106.7761360348402
 20
12.1466034980325
 30
0.0
  0
VERTEX
  5
688
  8
LAYER_1
 10
106.8060466902973
 20
12.17010115969827
 30
0.0
  0
VERTEX
  5
689
  8
LAYER_1
 10
106.8355135704078
 20
12.19382709356236
 30
0.0
  0
VERTEX
  5
68A
  8
LAYER_1
 10
106.8645327481801
 20
12.21777884525511
 30
0.0
  0
VERTEX
  5
68B
  8
LAYER_1
 10
106.8931002966227
 20
12.24195396040685
 30
0.0
  0
VERTEX
  5
68C
  8
LAYER_1
 10
106.9212122887443
 20
12.26634998464791
 30
0.0
  0
VERTEX
  5
68D
  8
LAYER_1
 10
106.9488647975533
 20
12.29096446360862
 30
0.0
  0
VERTEX
  5
68E
  8
LAYER_1
 10
106.9760538960582
 20
12.31579494291932
 30
0.0
  0
VERTEX
  5
68F
  8
LAYER_1
 10
107.0027756572677
 20
12.34083896821033
 30
0.0
  0
VERTEX
  5
690
  8
LAYER_1
 10
107.0290261541902
 20
12.366094085112
 30
0.0
  0
VERTEX
  5
691
  8
LAYER_1
 10
107.0548014598342
 20
12.39155783925465
 30
0.0
  0
VERTEX
  5
692
  8
LAYER_1
 10
107.0800976472084
 20
12.41722777626861
 30
0.0
  0
VERTEX
  5
693
  8
LAYER_1
 10
107.1049107893212
 20
12.44310144178422
 30
0.0
  0
VERTEX
  5
694
  8
LAYER_1
 10
107.1292369591811
 20
12.46917638143181
 30
0.0
  0
VERTEX
  5
695
  8
LAYER_1
 10
107.1530722297967
 20
12.49545014084171
 30
0.0
  0
VERTEX
  5
696
  8
LAYER_1
 10
107.1764126741765
 20
12.52192026564425
 30
0.0
  0
VERTEX
  5
697
  8
LAYER_1
 10
107.1992543653291
 20
12.54858430146977
 30
0.0
  0
VERTEX
  5
698
  8
LAYER_1
 10
107.221593376263
 20
12.5754397939486
 30
0.0
  0
VERTEX
  5
699
  8
LAYER_1
 10
107.2434257799867
 20
12.60248428871106
 30
0.0
  0
VERTEX
  5
69A
  8
LAYER_1
 10
107.2647476495087
 20
12.6297153313875
 30
0.0
  0
VERTEX
  5
69B
  8
LAYER_1
 10
107.2855550578376
 20
12.65713046760824
 30
0.0
  0
VERTEX
  5
69C
  8
LAYER_1
 10
107.3058440779819
 20
12.68472724300362
 30
0.0
  0
VERTEX
  5
69D
  8
LAYER_1
 10
107.3256107829502
 20
12.71250320320397
 30
0.0
  0
VERTEX
  5
69E
  8
LAYER_1
 10
107.3448512457509
 20
12.74045589383962
 30
0.0
  0
VERTEX
  5
69F
  8
LAYER_1
 10
107.3635615393926
 20
12.7685828605409
 30
0.0
  0
VERTEX
  5
6A0
  8
LAYER_1
 10
107.3817377368839
 20
12.79688164893814
 30
0.0
  0
VERTEX
  5
6A1
  8
LAYER_1
 10
107.3993759112332
 20
12.82534980466168
 30
0.0
  0
VERTEX
  5
6A2
  8
LAYER_1
 10
107.4164721354491
 20
12.85398487334185
 30
0.0
  0
VERTEX
  5
6A3
  8
LAYER_1
 10
107.4330224825402
 20
12.88278440060899
 30
0.0
  0
VERTEX
  5
6A4
  8
LAYER_1
 10
107.4490230255149
 20
12.91174593209341
 30
0.0
  0
VERTEX
  5
6A5
  8
LAYER_1
 10
107.4644698373818
 20
12.94086701342546
 30
0.0
  0
VERTEX
  5
6A6
  8
LAYER_1
 10
107.4793589911494
 20
12.97014519023548
 30
0.0
  0
VERTEX
  5
6A7
  8
LAYER_1
 10
107.4936865598263
 20
12.99957800815378
 30
0.0
  0
VERTEX
  5
6A8
  8
LAYER_1
 10
107.507448616421
 20
13.0291630128107
 30
0.0
  0
VERTEX
  5
6A9
  8
LAYER_1
 10
107.5206412339419
 20
13.05889774983658
 30
0.0
  0
VERTEX
  5
6AA
  8
LAYER_1
 10
107.5332604853978
 20
13.08877976486174
 30
0.0
  0
VERTEX
  5
6AB
  8
LAYER_1
 10
107.545302443797
 20
13.11880660351652
 30
0.0
  0
VERTEX
  5
6AC
  8
LAYER_1
 10
107.5567631821481
 20
13.14897581143126
 30
0.0
  0
VERTEX
  5
6AD
  8
LAYER_1
 10
107.5676387734596
 20
13.17928493423628
 30
0.0
  0
VERTEX
  5
6AE
  8
LAYER_1
 10
107.5779252907402
 20
13.20973151756191
 30
0.0
  0
VERTEX
  5
6AF
  8
LAYER_1
 10
107.5876188069982
 20
13.24031310703849
 30
0.0
  0
VERTEX
  5
6B0
  8
LAYER_1
 10
107.5967153952423
 20
13.27102724829635
 30
0.0
  0
VERTEX
  5
6B1
  8
LAYER_1
 10
107.605211128481
 20
13.30187148696582
 30
0.0
  0
VERTEX
  5
6B2
  8
LAYER_1
 10
107.6131020797227
 20
13.33284336867724
 30
0.0
  0
VERTEX
  5
6B3
  8
LAYER_1
 10
107.6203843219761
 20
13.36394043906093
 30
0.0
  0
VERTEX
  5
6B4
  8
LAYER_1
 10
107.6270539282497
 20
13.39516024374723
 30
0.0
  0
VERTEX
  5
6B5
  8
LAYER_1
 10
107.6331069715519
 20
13.42650032836647
 30
0.0
  0
VERTEX
  5
6B6
  8
LAYER_1
 10
107.6385395248914
 20
13.45795823854899
 30
0.0
  0
VERTEX
  5
6B7
  8
LAYER_1
 10
107.6433476612766
 20
13.48953151992511
 30
0.0
  0
VERTEX
  5
6B8
  8
LAYER_1
 10
107.6475274537161
 20
13.52121771812516
 30
0.0
  0
VERTEX
  5
6B9
  8
LAYER_1
 10
107.6510749752184
 20
13.55301437877949
 30
0.0
  0
VERTEX
  5
6BA
  8
LAYER_1
 10
107.6539862987921
 20
13.58491904751842
 30
0.0
  0
VERTEX
  5
6BB
  8
LAYER_1
 10
107.6562574974457
 20
13.61692926997228
 30
0.0
  0
VERTEX
  5
6BC
  8
LAYER_1
 10
107.6578846441877
 20
13.64904259177141
 30
0.0
  0
VERTEX
  5
6BD
  8
LAYER_1
 10
107.6588638120267
 20
13.68125655854613
 30
0.0
  0
VERTEX
  5
6BE
  8
LAYER_1
 10
107.6591910739711
 20
13.71356871592679
 30
0.0
  0
VERTEX
  5
6BF
  8
LAYER_1
 10
107.6588638120267
 20
13.74588087330745
 30
0.0
  0
VERTEX
  5
6C0
  8
LAYER_1
 10
107.6578846441877
 20
13.77809484008217
 30
0.0
  0
VERTEX
  5
6C1
  8
LAYER_1
 10
107.6562574974457
 20
13.8102081618813
 30
0.0
  0
VERTEX
  5
6C2
  8
LAYER_1
 10
107.6539862987921
 20
13.84221838433516
 30
0.0
  0
VERTEX
  5
6C3
  8
LAYER_1
 10
107.6510749752184
 20
13.87412305307409
 30
0.0
  0
VERTEX
  5
6C4
  8
LAYER_1
 10
107.6475274537161
 20
13.90591971372842
 30
0.0
  0
VERTEX
  5
6C5
  8
LAYER_1
 10
107.6433476612766
 20
13.93760591192847
 30
0.0
  0
VERTEX
  5
6C6
  8
LAYER_1
 10
107.6385395248914
 20
13.96917919330459
 30
0.0
  0
VERTEX
  5
6C7
  8
LAYER_1
 10
107.6331069715519
 20
14.00063710348711
 30
0.0
  0
VERTEX
  5
6C8
  8
LAYER_1
 10
107.6270539282497
 20
14.03197718810635
 30
0.0
  0
VERTEX
  5
6C9
  8
LAYER_1
 10
107.6203843219761
 20
14.06319699279265
 30
0.0
  0
VERTEX
  5
6CA
  8
LAYER_1
 10
107.6131020797227
 20
14.09429406317634
 30
0.0
  0
VERTEX
  5
6CB
  8
LAYER_1
 10
107.605211128481
 20
14.12526594488776
 30
0.0
  0
VERTEX
  5
6CC
  8
LAYER_1
 10
107.5967153952423
 20
14.15611018355723
 30
0.0
  0
VERTEX
  5
6CD
  8
LAYER_1
 10
107.5876188069982
 20
14.18682432481509
 30
0.0
  0
VERTEX
  5
6CE
  8
LAYER_1
 10
107.5779252907402
 20
14.21740591429167
 30
0.0
  0
VERTEX
  5
6CF
  8
LAYER_1
 10
107.5676387734596
 20
14.24785249761731
 30
0.0
  0
VERTEX
  5
6D0
  8
LAYER_1
 10
107.5567631821481
 20
14.27816162042232
 30
0.0
  0
VERTEX
  5
6D1
  8
LAYER_1
 10
107.545302443797
 20
14.30833082833706
 30
0.0
  0
VERTEX
  5
6D2
  8
LAYER_1
 10
107.5332604853978
 20
14.33835766699184
 30
0.0
  0
VERTEX
  5
6D3
  8
LAYER_1
 10
107.5206412339419
 20
14.368239682017
 30
0.0
  0
VERTEX
  5
6D4
  8
LAYER_1
 10
107.507448616421
 20
14.39797441904288
 30
0.0
  0
VERTEX
  5
6D5
  8
LAYER_1
 10
107.4936865598263
 20
14.4275594236998
 30
0.0
  0
VERTEX
  5
6D6
  8
LAYER_1
 10
107.4793589911494
 20
14.4569922416181
 30
0.0
  0
VERTEX
  5
6D7
  8
LAYER_1
 10
107.4644698373818
 20
14.48627041842812
 30
0.0
  0
VERTEX
  5
6D8
  8
LAYER_1
 10
107.4490230255149
 20
14.51539149976017
 30
0.0
  0
VERTEX
  5
6D9
  8
LAYER_1
 10
107.4330224825402
 20
14.54435303124459
 30
0.0
  0
VERTEX
  5
6DA
  8
LAYER_1
 10
107.4164721354491
 20
14.57315255851173
 30
0.0
  0
VERTEX
  5
6DB
  8
LAYER_1
 10
107.3993759112332
 20
14.6017876271919
 30
0.0
  0
VERTEX
  5
6DC
  8
LAYER_1
 10
107.3817377368839
 20
14.63025578291544
 30
0.0
  0
VERTEX
  5
6DD
  8
LAYER_1
 10
107.3635615393926
 20
14.65855457131268
 30
0.0
  0
VERTEX
  5
6DE
  8
LAYER_1
 10
107.3448512457509
 20
14.68668153801396
 30
0.0
  0
VERTEX
  5
6DF
  8
LAYER_1
 10
107.3256107829502
 20
14.71463422864961
 30
0.0
  0
VERTEX
  5
6E0
  8
LAYER_1
 10
107.3058440779819
 20
14.74241018884996
 30
0.0
  0
VERTEX
  5
6E1
  8
LAYER_1
 10
107.2855550578376
 20
14.77000696424534
 30
0.0
  0
VERTEX
  5
6E2
  8
LAYER_1
 10
107.2647476495087
 20
14.79742210046608
 30
0.0
  0
VERTEX
  5
6E3
  8
LAYER_1
 10
107.2434257799867
 20
14.82465314314252
 30
0.0
  0
VERTEX
  5
6E4
  8
LAYER_1
 10
107.221593376263
 20
14.85169763790498
 30
0.0
  0
VERTEX
  5
6E5
  8
LAYER_1
 10
107.1992543653291
 20
14.87855313038381
 30
0.0
  0
VERTEX
  5
6E6
  8
LAYER_1
 10
107.1764126741765
 20
14.90521716620933
 30
0.0
  0
VERTEX
  5
6E7
  8
LAYER_1
 10
107.1530722297967
 20
14.93168729101187
 30
0.0
  0
VERTEX
  5
6E8
  8
LAYER_1
 10
107.1292369591811
 20
14.95796105042177
 30
0.0
  0
VERTEX
  5
6E9
  8
LAYER_1
 10
107.1049107893212
 20
14.98403599006936
 30
0.0
  0
VERTEX
  5
6EA
  8
LAYER_1
 10
107.0800976472084
 20
15.00990965558497
 30
0.0
  0
VERTEX
  5
6EB
  8
LAYER_1
 10
107.0548014598342
 20
15.03557959259893
 30
0.0
  0
VERTEX
  5
6EC
  8
LAYER_1
 10
107.0290261541902
 20
15.06104334674158
 30
0.0
  0
VERTEX
  5
6ED
  8
LAYER_1
 10
107.0027756572677
 20
15.08629846364325
 30
0.0
  0
VERTEX
  5
6EE
  8
LAYER_1
 10
106.9760538960582
 20
15.11134248893426
 30
0.0
  0
VERTEX
  5
6EF
  8
LAYER_1
 10
106.9488647975533
 20
15.13617296824496
 30
0.0
  0
VERTEX
  5
6F0
  8
LAYER_1
 10
106.9212122887443
 20
15.16078744720567
 30
0.0
  0
VERTEX
  5
6F1
  8
LAYER_1
 10
106.8931002966227
 20
15.18518347144673
 30
0.0
  0
VERTEX
  5
6F2
  8
LAYER_1
 10
106.8645327481801
 20
15.20935858659847
 30
0.0
  0
VERTEX
  5
6F3
  8
LAYER_1
 10
106.8355135704078
 20
15.23331033829122
 30
0.0
  0
VERTEX
  5
6F4
  8
LAYER_1
 10
106.8060466902973
 20
15.25703627215531
 30
0.0
  0
VERTEX
  5
6F5
  8
LAYER_1
 10
106.7761360348402
 20
15.28053393382108
 30
0.0
  0
VERTEX
  5
6F6
  8
LAYER_1
 10
106.7457855310278
 20
15.30380086891885
 30
0.0
  0
VERTEX
  5
6F7
  8
LAYER_1
 10
106.7149991058517
 20
15.32683462307896
 30
0.0
  0
VERTEX
  5
6F8
  8
LAYER_1
 10
106.6837806863034
 20
15.34963274193175
 30
0.0
  0
VERTEX
  5
6F9
  8
LAYER_1
 10
106.6521341993741
 20
15.37219277110754
 30
0.0
  0
VERTEX
  5
6FA
  8
LAYER_1
 10
106.6200635720556
 20
15.39451225623666
 30
0.0
  0
VERTEX
  5
6FB
  8
LAYER_1
 10
106.5875727313392
 20
15.41658874294946
 30
0.0
  0
VERTEX
  5
6FC
  8
LAYER_1
 10
106.5546656042163
 20
15.43841977687625
 30
0.0
  0
VERTEX
  5
6FD
  8
LAYER_1
 10
106.5213461176785
 20
15.46000290364737
 30
0.0
  0
VERTEX
  5
6FE
  8
LAYER_1
 10
106.4876181987173
 20
15.48133566889317
 30
0.0
  0
VERTEX
  5
6FF
  8
LAYER_1
 10
106.453485774324
 20
15.50241561824395
 30
0.0
  0
VERTEX
  5
700
  8
LAYER_1
 10
106.4189527714902
 20
15.52324029733007
 30
0.0
  0
VERTEX
  5
701
  8
LAYER_1
 10
106.3840231172073
 20
15.54380725178185
 30
0.0
  0
VERTEX
  5
702
  8
LAYER_1
 10
106.3487007384668
 20
15.56411402722962
 30
0.0
  0
VERTEX
  5
703
  8
LAYER_1
 10
106.3129895622602
 20
15.58415816930372
 30
0.0
  0
VERTEX
  5
704
  8
LAYER_1
 10
106.276893515579
 20
15.60393722363447
 30
0.0
  0
VERTEX
  5
705
  8
LAYER_1
 10
106.2404165254145
 20
15.62344873585221
 30
0.0
  0
VERTEX
  5
706
  8
LAYER_1
 10
106.2035625187583
 20
15.64269025158728
 30
0.0
  0
VERTEX
  5
707
  8
LAYER_1
 10
106.1663354226019
 20
15.66165931647
 30
0.0
  0
VERTEX
  5
708
  8
LAYER_1
 10
106.1287391639367
 20
15.68035347613071
 30
0.0
  0
VERTEX
  5
709
  8
LAYER_1
 10
106.0907776697541
 20
15.69877027619974
 30
0.0
  0
VERTEX
  5
70A
  8
LAYER_1
 10
106.0524548670457
 20
15.71690726230741
 30
0.0
  0
VERTEX
  5
70B
  8
LAYER_1
 10
106.013774682803
 20
15.73476198008407
 30
0.0
  0
VERTEX
  5
70C
  8
LAYER_1
 10
105.9747410440173
 20
15.75233197516005
 30
0.0
  0
VERTEX
  5
70D
  8
LAYER_1
 10
105.9353578776801
 20
15.76961479316567
 30
0.0
  0
VERTEX
  5
70E
  8
LAYER_1
 10
105.895629110783
 20
15.78660797973127
 30
0.0
  0
VERTEX
  5
70F
  8
LAYER_1
 10
105.8555586703174
 20
15.80330908048719
 30
0.0
  0
VERTEX
  5
710
  8
LAYER_1
 10
105.8151504832747
 20
15.81971564106374
 30
0.0
  0
VERTEX
  5
711
  8
LAYER_1
 10
105.7744084766465
 20
15.83582520709128
 30
0.0
  0
VERTEX
  5
712
  8
LAYER_1
 10
105.7333365774241
 20
15.85163532420012
 30
0.0
  0
VERTEX
  5
713
  8
LAYER_1
 10
105.6919387125992
 20
15.8671435380206
 30
0.0
  0
VERTEX
  5
714
  8
LAYER_1
 10
105.650218809163
 20
15.88234739418306
 30
0.0
  0
VERTEX
  5
715
  8
LAYER_1
 10
105.6081807941072
 20
15.89724443831782
 30
0.0
  0
VERTEX
  5
716
  8
LAYER_1
 10
105.5658285944231
 20
15.91183221605521
 30
0.0
  0
VERTEX
  5
717
  8
LAYER_1
 10
105.5231661371023
 20
15.92610827302558
 30
0.0
  0
VERTEX
  5
718
  8
LAYER_1
 10
105.4801973491362
 20
15.94007015485925
 30
0.0
  0
VERTEX
  5
719
  8
LAYER_1
 10
105.4369261575162
 20
15.95371540718655
 30
0.0
  0
VERTEX
  5
71A
  8
LAYER_1
 10
105.3933564892339
 20
15.96704157563781
 30
0.0
  0
VERTEX
  5
71B
  8
LAYER_1
 10
105.3494922712807
 20
15.98004620584338
 30
0.0
  0
VERTEX
  5
71C
  8
LAYER_1
 10
105.3053374306481
 20
15.99272684343357
 30
0.0
  0
VERTEX
  5
71D
  8
LAYER_1
 10
105.2608958943276
 20
16.00508103403873
 30
0.0
  0
VERTEX
  5
71E
  8
LAYER_1
 10
105.2161715893105
 20
16.01710632328918
 30
0.0
  0
VERTEX
  5
71F
  8
LAYER_1
 10
105.1711684425885
 20
16.02880025681526
 30
0.0
  0
VERTEX
  5
720
  8
LAYER_1
 10
105.1258903811529
 20
16.04016038024729
 30
0.0
  0
VERTEX
  5
721
  8
LAYER_1
 10
105.0803413319952
 20
16.05118423921562
 30
0.0
  0
VERTEX
  5
722
  8
LAYER_1
 10
105.034525222107
 20
16.06186937935057
 30
0.0
  0
VERTEX
  5
723
  8
LAYER_1
 10
104.9884459784795
 20
16.07221334628248
 30
0.0
  0
VERTEX
  5
724
  8
LAYER_1
 10
104.9421075281045
 20
16.08221368564167
 30
0.0
  0
VERTEX
  5
725
  8
LAYER_1
 10
104.8955137979732
 20
16.09186794305848
 30
0.0
  0
VERTEX
  5
726
  8
LAYER_1
 10
104.8486687150772
 20
16.10117366416324
 30
0.0
  0
VERTEX
  5
727
  8
LAYER_1
 10
104.8015762064079
 20
16.11012839458629
 30
0.0
  0
VERTEX
  5
728
  8
LAYER_1
 10
104.7542401989568
 20
16.11872967995796
 30
0.0
  0
VERTEX
  5
729
  8
LAYER_1
 10
104.7066646197154
 20
16.12697506590857
 30
0.0
  0
VERTEX
  5
72A
  8
LAYER_1
 10
104.6588533956751
 20
16.13486209806846
 30
0.0
  0
VERTEX
  5
72B
  8
LAYER_1
 10
104.6108104538275
 20
16.14238832206797
 30
0.0
  0
VERTEX
  5
72C
  8
LAYER_1
 10
104.5625397211639
 20
16.14955128353742
 30
0.0
  0
VERTEX
  5
72D
  8
LAYER_1
 10
104.5140451246759
 20
16.15634852810715
 30
0.0
  0
VERTEX
  5
72E
  8
LAYER_1
 10
104.4653305913549
 20
16.16277760140748
 30
0.0
  0
VERTEX
  5
72F
  8
LAYER_1
 10
104.4164000481923
 20
16.16883604906876
 30
0.0
  0
VERTEX
  5
730
  8
LAYER_1
 10
104.3672574221798
 20
16.17452141672131
 30
0.0
  0
VERTEX
  5
731
  8
LAYER_1
 10
104.3179066403086
 20
16.17983124999547
 30
0.0
  0
VERTEX
  5
732
  8
LAYER_1
 10
104.2683516295704
 20
16.18476309452157
 30
0.0
  0
VERTEX
  5
733
  8
LAYER_1
 10
104.2185963169565
 20
16.18931449592993
 30
0.0
  0
VERTEX
  5
734
  8
LAYER_1
 10
104.1686446294584
 20
16.1934829998509
 30
0.0
  0
VERTEX
  5
735
  8
LAYER_1
 10
104.1185004940676
 20
16.19726615191481
 30
0.0
  0
VERTEX
  5
736
  8
LAYER_1
 10
104.0681678377755
 20
16.20066149775198
 30
0.0
  0
VERTEX
  5
737
  8
LAYER_1
 10
104.0176505875738
 20
16.20366658299275
 30
0.0
  0
VERTEX
  5
738
  8
LAYER_1
 10
103.9669526704537
 20
16.20627895326744
 30
0.0
  0
VERTEX
  5
739
  8
LAYER_1
 10
103.9160780134067
 20
16.20849615420641
 30
0.0
  0
VERTEX
  5
73A
  8
LAYER_1
 10
103.8650305434245
 20
16.21031573143996
 30
0.0
  0
VERTEX
  5
73B
  8
LAYER_1
 10
103.8138141874983
 20
16.21173523059845
 30
0.0
  0
VERTEX
  5
73C
  8
LAYER_1
 10
103.7624328726197
 20
16.21275219731219
 30
0.0
  0
VERTEX
  5
73D
  8
LAYER_1
 10
103.7108905257801
 20
16.21336417721153
 30
0.0
  0
VERTEX
  5
73E
  8
LAYER_1
 10
103.6591910739711
 20
16.21356871592679
 30
0.0
  0
VERTEX
  5
73F
  8
LAYER_1
 10
103.607491622162
 20
16.21336417721153
 30
0.0
  0
VERTEX
  5
740
  8
LAYER_1
 10
103.5559492753224
 20
16.21275219731219
 30
0.0
  0
VERTEX
  5
741
  8
LAYER_1
 10
103.5045679604438
 20
16.21173523059845
 30
0.0
  0
VERTEX
  5
742
  8
LAYER_1
 10
103.4533516045177
 20
16.21031573143996
 30
0.0
  0
VERTEX
  5
743
  8
LAYER_1
 10
103.4023041345354
 20
16.20849615420641
 30
0.0
  0
VERTEX
  5
744
  8
LAYER_1
 10
103.3514294774885
 20
16.20627895326744
 30
0.0
  0
VERTEX
  5
745
  8
LAYER_1
 10
103.3007315603683
 20
16.20366658299275
 30
0.0
  0
VERTEX
  5
746
  8
LAYER_1
 10
103.2502143101666
 20
16.20066149775198
 30
0.0
  0
VERTEX
  5
747
  8
LAYER_1
 10
103.1998816538745
 20
16.19726615191481
 30
0.0
  0
VERTEX
  5
748
  8
LAYER_1
 10
103.1497375184838
 20
16.1934829998509
 30
0.0
  0
VERTEX
  5
749
  8
LAYER_1
 10
103.0997858309857
 20
16.18931449592993
 30
0.0
  0
VERTEX
  5
74A
  8
LAYER_1
 10
103.0500305183718
 20
16.18476309452157
 30
0.0
  0
VERTEX
  5
74B
  8
LAYER_1
 10
103.0004755076335
 20
16.17983124999547
 30
0.0
  0
VERTEX
  5
74C
  8
LAYER_1
 10
102.9511247257624
 20
16.17452141672131
 30
0.0
  0
VERTEX
  5
74D
  8
LAYER_1
 10
102.9019820997498
 20
16.16883604906876
 30
0.0
  0
VERTEX
  5
74E
  8
LAYER_1
 10
102.8530515565872
 20
16.16277760140748
 30
0.0
  0
VERTEX
  5
74F
  8
LAYER_1
 10
102.8043370232662
 20
16.15634852810715
 30
0.0
  0
VERTEX
  5
750
  8
LAYER_1
 10
102.7558424267782
 20
16.14955128353742
 30
0.0
  0
VERTEX
  5
751
  8
LAYER_1
 10
102.7075716941146
 20
16.14238832206797
 30
0.0
  0
VERTEX
  5
752
  8
LAYER_1
 10
102.659528752267
 20
16.13486209806846
 30
0.0
  0
VERTEX
  5
753
  8
LAYER_1
 10
102.6117175282267
 20
16.12697506590857
 30
0.0
  0
VERTEX
  5
754
  8
LAYER_1
 10
102.5641419489853
 20
16.11872967995796
 30
0.0
  0
VERTEX
  5
755
  8
LAYER_1
 10
102.5168059415342
 20
16.11012839458629
 30
0.0
  0
VERTEX
  5
756
  8
LAYER_1
 10
102.4697134328649
 20
16.10117366416324
 30
0.0
  0
VERTEX
  5
757
  8
LAYER_1
 10
102.422868349969
 20
16.09186794305848
 30
0.0
  0
VERTEX
  5
758
  8
LAYER_1
 10
102.3762746198377
 20
16.08221368564167
 30
0.0
  0
VERTEX
  5
759
  8
LAYER_1
 10
102.3299361694626
 20
16.07221334628248
 30
0.0
  0
VERTEX
  5
75A
  8
LAYER_1
 10
102.2838569258352
 20
16.06186937935057
 30
0.0
  0
VERTEX
  5
75B
  8
LAYER_1
 10
102.2380408159469
 20
16.05118423921562
 30
0.0
  0
VERTEX
  5
75C
  8
LAYER_1
 10
102.1924917667892
 20
16.04016038024729
 30
0.0
  0
VERTEX
  5
75D
  8
LAYER_1
 10
102.1472137053536
 20
16.02880025681526
 30
0.0
  0
VERTEX
  5
75E
  8
LAYER_1
 10
102.1022105586316
 20
16.01710632328918
 30
0.0
  0
VERTEX
  5
75F
  8
LAYER_1
 10
102.0574862536145
 20
16.00508103403873
 30
0.0
  0
VERTEX
  5
760
  8
LAYER_1
 10
102.013044717294
 20
15.99272684343357
 30
0.0
  0
VERTEX
  5
761
  8
LAYER_1
 10
101.9688898766614
 20
15.98004620584338
 30
0.0
  0
VERTEX
  5
762
  8
LAYER_1
 10
101.9250256587082
 20
15.96704157563781
 30
0.0
  0
VERTEX
  5
763
  8
LAYER_1
 10
101.8814559904259
 20
15.95371540718655
 30
0.0
  0
VERTEX
  5
764
  8
LAYER_1
 10
101.838184798806
 20
15.94007015485925
 30
0.0
  0
VERTEX
  5
765
  8
LAYER_1
 10
101.7952160108398
 20
15.92610827302558
 30
0.0
  0
VERTEX
  5
766
  8
LAYER_1
 10
101.752553553519
 20
15.91183221605521
 30
0.0
  0
VERTEX
  5
767
  8
LAYER_1
 10
101.7102013538349
 20
15.89724443831782
 30
0.0
  0
VERTEX
  5
768
  8
LAYER_1
 10
101.6681633387791
 20
15.88234739418306
 30
0.0
  0
VERTEX
  5
769
  8
LAYER_1
 10
101.626443435343
 20
15.8671435380206
 30
0.0
  0
VERTEX
  5
76A
  8
LAYER_1
 10
101.585045570518
 20
15.85163532420012
 30
0.0
  0
VERTEX
  5
76B
  8
LAYER_1
 10
101.5439736712956
 20
15.83582520709128
 30
0.0
  0
VERTEX
  5
76C
  8
LAYER_1
 10
101.5032316646674
 20
15.81971564106374
 30
0.0
  0
VERTEX
  5
76D
  8
LAYER_1
 10
101.4628234776247
 20
15.80330908048719
 30
0.0
  0
VERTEX
  5
76E
  8
LAYER_1
 10
101.4227530371591
 20
15.78660797973127
 30
0.0
  0
VERTEX
  5
76F
  8
LAYER_1
 10
101.383024270262
 20
15.76961479316567
 30
0.0
  0
VERTEX
  5
770
  8
LAYER_1
 10
101.3436411039248
 20
15.75233197516005
 30
0.0
  0
VERTEX
  5
771
  8
LAYER_1
 10
101.3046074651392
 20
15.73476198008407
 30
0.0
  0
VERTEX
  5
772
  8
LAYER_1
 10
101.2659272808964
 20
15.71690726230741
 30
0.0
  0
VERTEX
  5
773
  8
LAYER_1
 10
101.227604478188
 20
15.69877027619974
 30
0.0
  0
VERTEX
  5
774
  8
LAYER_1
 10
101.1896429840054
 20
15.68035347613071
 30
0.0
  0
VERTEX
  5
775
  8
LAYER_1
 10
101.1520467253402
 20
15.66165931647
 30
0.0
  0
VERTEX
  5
776
  8
LAYER_1
 10
101.1148196291838
 20
15.64269025158728
 30
0.0
  0
VERTEX
  5
777
  8
LAYER_1
 10
101.0779656225276
 20
15.62344873585221
 30
0.0
  0
VERTEX
  5
778
  8
LAYER_1
 10
101.0414886323631
 20
15.60393722363447
 30
0.0
  0
VERTEX
  5
779
  8
LAYER_1
 10
101.0053925856819
 20
15.58415816930372
 30
0.0
  0
VERTEX
  5
77A
  8
LAYER_1
 10
100.9696814094753
 20
15.56411402722962
 30
0.0
  0
VERTEX
  5
77B
  8
LAYER_1
 10
100.9343590307348
 20
15.54380725178185
 30
0.0
  0
VERTEX
  5
77C
  8
LAYER_1
 10
100.8994293764519
 20
15.52324029733007
 30
0.0
  0
VERTEX
  5
77D
  8
LAYER_1
 10
100.8648963736181
 20
15.50241561824395
 30
0.0
  0
VERTEX
  5
77E
  8
LAYER_1
 10
100.8307639492249
 20
15.48133566889317
 30
0.0
  0
VERTEX
  5
77F
  8
LAYER_1
 10
100.7970360302636
 20
15.46000290364737
 30
0.0
  0
VERTEX
  5
780
  8
LAYER_1
 10
100.7637165437258
 20
15.43841977687625
 30
0.0
  0
VERTEX
  5
781
  8
LAYER_1
 10
100.730809416603
 20
15.41658874294946
 30
0.0
  0
VERTEX
  5
782
  8
LAYER_1
 10
100.6983185758865
 20
15.39451225623666
 30
0.0
  0
VERTEX
  5
783
  8
LAYER_1
 10
100.666247948568
 20
15.37219277110754
 30
0.0
  0
VERTEX
  5
784
  8
LAYER_1
 10
100.6346014616388
 20
15.34963274193175
 30
0.0
  0
VERTEX
  5
785
  8
LAYER_1
 10
100.6033830420904
 20
15.32683462307896
 30
0.0
  0
VERTEX
  5
786
  8
LAYER_1
 10
100.5725966169143
 20
15.30380086891885
 30
0.0
  0
VERTEX
  5
787
  8
LAYER_1
 10
100.5422461131019
 20
15.28053393382108
 30
0.0
  0
VERTEX
  5
788
  8
LAYER_1
 10
100.5123354576448
 20
15.25703627215531
 30
0.0
  0
VERTEX
  5
789
  8
LAYER_1
 10
100.4828685775343
 20
15.23331033829122
 30
0.0
  0
VERTEX
  5
78A
  8
LAYER_1
 10
100.453849399762
 20
15.20935858659847
 30
0.0
  0
VERTEX
  5
78B
  8
LAYER_1
 10
100.4252818513194
 20
15.18518347144673
 30
0.0
  0
VERTEX
  5
78C
  8
LAYER_1
 10
100.3971698591978
 20
15.16078744720567
 30
0.0
  0
VERTEX
  5
78D
  8
LAYER_1
 10
100.3695173503889
 20
15.13617296824496
 30
0.0
  0
VERTEX
  5
78E
  8
LAYER_1
 10
100.3423282518839
 20
15.11134248893426
 30
0.0
  0
VERTEX
  5
78F
  8
LAYER_1
 10
100.3156064906744
 20
15.08629846364325
 30
0.0
  0
VERTEX
  5
790
  8
LAYER_1
 10
100.2893559937519
 20
15.06104334674158
 30
0.0
  0
VERTEX
  5
791
  8
LAYER_1
 10
100.2635806881079
 20
15.03557959259893
 30
0.0
  0
VERTEX
  5
792
  8
LAYER_1
 10
100.2382845007337
 20
15.00990965558497
 30
0.0
  0
VERTEX
  5
793
  8
LAYER_1
 10
100.213471358621
 20
14.98403599006936
 30
0.0
  0
VERTEX
  5
794
  8
LAYER_1
 10
100.189145188761
 20
14.95796105042177
 30
0.0
  0
VERTEX
  5
795
  8
LAYER_1
 10
100.1653099181454
 20
14.93168729101187
 30
0.0
  0
VERTEX
  5
796
  8
LAYER_1
 10
100.1419694737656
 20
14.90521716620933
 30
0.0
  0
VERTEX
  5
797
  8
LAYER_1
 10
100.119127782613
 20
14.87855313038381
 30
0.0
  0
VERTEX
  5
798
  8
LAYER_1
 10
100.0967887716791
 20
14.85169763790498
 30
0.0
  0
VERTEX
  5
799
  8
LAYER_1
 10
100.0749563679555
 20
14.82465314314252
 30
0.0
  0
VERTEX
  5
79A
  8
LAYER_1
 10
100.0536344984334
 20
14.79742210046608
 30
0.0
  0
VERTEX
  5
79B
  8
LAYER_1
 10
100.0328270901045
 20
14.77000696424534
 30
0.0
  0
VERTEX
  5
79C
  8
LAYER_1
 10
100.0125380699602
 20
14.74241018884996
 30
0.0
  0
VERTEX
  5
79D
  8
LAYER_1
 10
99.99277136499194
 20
14.71463422864961
 30
0.0
  0
VERTEX
  5
79E
  8
LAYER_1
 10
99.97353090219123
 20
14.68668153801396
 30
0.0
  0
VERTEX
  5
79F
  8
LAYER_1
 10
99.95482060854951
 20
14.65855457131268
 30
0.0
  0
VERTEX
  5
7A0
  8
LAYER_1
 10
99.93664441105824
 20
14.63025578291544
 30
0.0
  0
VERTEX
  5
7A1
  8
LAYER_1
 10
99.91900623670892
 20
14.6017876271919
 30
0.0
  0
VERTEX
  5
7A2
  8
LAYER_1
 10
99.90191001249299
 20
14.57315255851173
 30
0.0
  0
VERTEX
  5
7A3
  8
LAYER_1
 10
99.88535966540195
 20
14.54435303124459
 30
0.0
  0
VERTEX
  5
7A4
  8
LAYER_1
 10
99.86935912242724
 20
14.51539149976017
 30
0.0
  0
VERTEX
  5
7A5
  8
LAYER_1
 10
99.85391231056033
 20
14.48627041842812
 30
0.0
  0
VERTEX
  5
7A6
  8
LAYER_1
 10
99.8390231567927
 20
14.4569922416181
 30
0.0
  0
VERTEX
  5
7A7
  8
LAYER_1
 10
99.82469558811583
 20
14.4275594236998
 30
0.0
  0
VERTEX
  5
7A8
  8
LAYER_1
 10
99.81093353152116
 20
14.39797441904288
 30
0.0
  0
VERTEX
  5
7A9
  8
LAYER_1
 10
99.79774091400019
 20
14.368239682017
 30
0.0
  0
VERTEX
  5
7AA
  8
LAYER_1
 10
99.78512166254436
 20
14.33835766699184
 30
0.0
  0
VERTEX
  5
7AB
  8
LAYER_1
 10
99.77307970414516
 20
14.30833082833706
 30
0.0
  0
VERTEX
  5
7AC
  8
LAYER_1
 10
99.76161896579404
 20
14.27816162042232
 30
0.0
  0
VERTEX
  5
7AD
  8
LAYER_1
 10
99.75074337448247
 20
14.24785249761731
 30
0.0
  0
VERTEX
  5
7AE
  8
LAYER_1
 10
99.74045685720193
 20
14.21740591429167
 30
0.0
  0
VERTEX
  5
7AF
  8
LAYER_1
 10
99.7307633409439
 20
14.18682432481509
 30
0.0
  0
VERTEX
  5
7B0
  8
LAYER_1
 10
99.7216667526998
 20
14.15611018355723
 30
0.0
  0
VERTEX
  5
7B1
  8
LAYER_1
 10
99.71317101946116
 20
14.12526594488776
 30
0.0
  0
VERTEX
  5
7B2
  8
LAYER_1
 10
99.7052800682194
 20
14.09429406317634
 30
0.0
  0
VERTEX
  5
7B3
  8
LAYER_1
 10
99.69799782596601
 20
14.06319699279265
 30
0.0
  0
VERTEX
  5
7B4
  8
LAYER_1
 10
99.69132821969245
 20
14.03197718810635
 30
0.0
  0
VERTEX
  5
7B5
  8
LAYER_1
 10
99.68527517639022
 20
14.00063710348711
 30
0.0
  0
VERTEX
  5
7B6
  8
LAYER_1
 10
99.67984262305075
 20
13.96917919330459
 30
0.0
  0
VERTEX
  5
7B7
  8
LAYER_1
 10
99.67503448666552
 20
13.93760591192847
 30
0.0
  0
VERTEX
  5
7B8
  8
LAYER_1
 10
99.670854694226
 20
13.90591971372842
 30
0.0
  0
VERTEX
  5
7B9
  8
LAYER_1
 10
99.66730717272367
 20
13.87412305307409
 30
0.0
  0
VERTEX
  5
7BA
  8
LAYER_1
 10
99.66439584914997
 20
13.84221838433516
 30
0.0
  0
VERTEX
  5
7BB
  8
LAYER_1
 10
99.6621246504964
 20
13.8102081618813
 30
0.0
  0
VERTEX
  5
7BC
  8
LAYER_1
 10
99.66049750375441
 20
13.77809484008217
 30
0.0
  0
VERTEX
  5
7BD
  8
LAYER_1
 10
99.65951833591546
 20
13.74588087330745
 30
0.0
  0
VERTEX
  5
7BE
  8
LAYER_1
 10
99.65919107397106
 20
13.71356871592679
 30
0.0
  0
VERTEX
  5
7BF
  8
LAYER_1
 10
99.65951833591546
 20
13.68125655854613
 30
0.0
  0
VERTEX
  5
7C0
  8
LAYER_1
 10
99.66049750375441
 20
13.64904259177141
 30
0.0
  0
VERTEX
  5
7C1
  8
LAYER_1
 10
99.6621246504964
 20
13.61692926997228
 30
0.0
  0
VERTEX
  5
7C2
  8
LAYER_1
 10
99.66439584914997
 20
13.58491904751842
 30
0.0
  0
VERTEX
  5
7C3
  8
LAYER_1
 10
99.66730717272367
 20
13.55301437877949
 30
0.0
  0
VERTEX
  5
7C4
  8
LAYER_1
 10
99.670854694226
 20
13.52121771812516
 30
0.0
  0
VERTEX
  5
7C5
  8
LAYER_1
 10
99.67503448666552
 20
13.48953151992511
 30
0.0
  0
VERTEX
  5
7C6
  8
LAYER_1
 10
99.67984262305075
 20
13.45795823854899
 30
0.0
  0
VERTEX
  5
7C7
  8
LAYER_1
 10
99.68527517639022
 20
13.42650032836647
 30
0.0
  0
VERTEX
  5
7C8
  8
LAYER_1
 10
99.69132821969245
 20
13.39516024374723
 30
0.0
  0
VERTEX
  5
7C9
  8
LAYER_1
 10
99.69799782596601
 20
13.36394043906093
 30
0.0
  0
VERTEX
  5
7CA
  8
LAYER_1
 10
99.7052800682194
 20
13.33284336867724
 30
0.0
  0
VERTEX
  5
7CB
  8
LAYER_1
 10
99.71317101946116
 20
13.30187148696582
 30
0.0
  0
VERTEX
  5
7CC
  8
LAYER_1
 10
99.7216667526998
 20
13.27102724829635
 30
0.0
  0
VERTEX
  5
7CD
  8
LAYER_1
 10
99.7307633409439
 20
13.24031310703849
 30
0.0
  0
VERTEX
  5
7CE
  8
LAYER_1
 10
99.74045685720193
 20
13.20973151756191
 30
0.0
  0
VERTEX
  5
7CF
  8
LAYER_1
 10
99.75074337448247
 20
13.17928493423628
 30
0.0
  0
VERTEX
  5
7D0
  8
LAYER_1
 10
99.76161896579404
 20
13.14897581143126
 30
0.0
  0
VERTEX
  5
7D1
  8
LAYER_1
 10
99.77307970414516
 20
13.11880660351652
 30
0.0
  0
VERTEX
  5
7D2
  8
LAYER_1
 10
99.78512166254436
 20
13.08877976486174
 30
0.0
  0
VERTEX
  5
7D3
  8
LAYER_1
 10
99.79774091400019
 20
13.05889774983658
 30
0.0
  0
VERTEX
  5
7D4
  8
LAYER_1
 10
99.81093353152116
 20
13.0291630128107
 30
0.0
  0
VERTEX
  5
7D5
  8
LAYER_1
 10
99.82469558811583
 20
12.99957800815378
 30
0.0
  0
VERTEX
  5
7D6
  8
LAYER_1
 10
99.8390231567927
 20
12.97014519023548
 30
0.0
  0
VERTEX
  5
7D7
  8
LAYER_1
 10
99.85391231056033
 20
12.94086701342546
 30
0.0
  0
VERTEX
  5
7D8
  8
LAYER_1
 10
99.86935912242724
 20
12.91174593209341
 30
0.0
  0
VERTEX
  5
7D9
  8
LAYER_1
 10
99.88535966540195
 20
12.88278440060899
 30
0.0
  0
VERTEX
  5
7DA
  8
LAYER_1
 10
99.90191001249299
 20
12.85398487334185
 30
0.0
  0
VERTEX
  5
7DB
  8
LAYER_1
 10
99.91900623670892
 20
12.82534980466168
 30
0.0
  0
VERTEX
  5
7DC
  8
LAYER_1
 10
99.93664441105824
 20
12.79688164893814
 30
0.0
  0
VERTEX
  5
7DD
  8
LAYER_1
 10
99.95482060854951
 20
12.7685828605409
 30
0.0
  0
VERTEX
  5
7DE
  8
LAYER_1
 10
99.97353090219123
 20
12.74045589383962
 30
0.0
  0
VERTEX
  5
7DF
  8
LAYER_1
 10
99.99277136499194
 20
12.71250320320397
 30
0.0
  0
VERTEX
  5
7E0
  8
LAYER_1
 10
100.0125380699602
 20
12.68472724300362
 30
0.0
  0
VERTEX
  5
7E1
  8
LAYER_1
 10
100.0328270901045
 20
12.65713046760824
 30
0.0
  0
VERTEX
  5
7E2
  8
LAYER_1
 10
100.0536344984334
 20
12.6297153313875
 30
0.0
  0
VERTEX
  5
7E3
  8
LAYER_1
 10
100.0749563679555
 20
12.60248428871106
 30
0.0
  0
VERTEX
  5
7E4
  8
LAYER_1
 10
100.0967887716791
 20
12.5754397939486
 30
0.0
  0
VERTEX
  5
7E5
  8
LAYER_1
 10
100.119127782613
 20
12.54858430146977
 30
0.0
  0
VERTEX
  5
7E6
  8
LAYER_1
 10
100.1419694737656
 20
12.52192026564425
 30
0.0
  0
VERTEX
  5
7E7
  8
LAYER_1
 10
100.1653099181454
 20
12.49545014084171
 30
0.0
  0
VERTEX
  5
7E8
  8
LAYER_1
 10
100.189145188761
 20
12.46917638143181
 30
0.0
  0
VERTEX
  5
7E9
  8
LAYER_1
 10
100.213471358621
 20
12.44310144178422
 30
0.0
  0
VERTEX
  5
7EA
  8
LAYER_1
 10
100.2382845007337
 20
12.41722777626861
 30
0.0
  0
VERTEX
  5
7EB
  8
LAYER_1
 10
100.2635806881079
 20
12.39155783925465
 30
0.0
  0
VERTEX
  5
7EC
  8
LAYER_1
 10
100.2893559937519
 20
12.366094085112
 30
0.0
  0
VERTEX
  5
7ED
  8
LAYER_1
 10
100.3156064906744
 20
12.34083896821033
 30
0.0
  0
VERTEX
  5
7EE
  8
LAYER_1
 10
100.3423282518839
 20
12.31579494291932
 30
0.0
  0
VERTEX
  5
7EF
  8
LAYER_1
 10
100.3695173503889
 20
12.29096446360862
 30
0.0
  0
VERTEX
  5
7F0
  8
LAYER_1
 10
100.3971698591978
 20
12.26634998464791
 30
0.0
  0
VERTEX
  5
7F1
  8
LAYER_1
 10
100.4252818513194
 20
12.24195396040685
 30
0.0
  0
VERTEX
  5
7F2
  8
LAYER_1
 10
100.453849399762
 20
12.21777884525511
 30
0.0
  0
VERTEX
  5
7F3
  8
LAYER_1
 10
100.4828685775343
 20
12.19382709356236
 30
0.0
  0
VERTEX
  5
7F4
  8
LAYER_1
 10
100.5123354576448
 20
12.17010115969827
 30
0.0
  0
VERTEX
  5
7F5
  8
LAYER_1
 10
100.5422461131019
 20
12.1466034980325
 30
0.0
  0
VERTEX
  5
7F6
  8
LAYER_1
 10
100.5725966169143
 20
12.12333656293473
 30
0.0
  0
VERTEX
  5
7F7
  8
LAYER_1
 10
100.6033830420904
 20
12.10030280877462
 30
0.0
  0
VERTEX
  5
7F8
  8
LAYER_1
 10
100.6346014616388
 20
12.07750468992183
 30
0.0
  0
VERTEX
  5
7F9
  8
LAYER_1
 10
100.666247948568
 20
12.05494466074604
 30
0.0
  0
VERTEX
  5
7FA
  8
LAYER_1
 10
100.6983185758865
 20
12.03262517561692
 30
0.0
  0
VERTEX
  5
7FB
  8
LAYER_1
 10
100.730809416603
 20
12.01054868890412
 30
0.0
  0
VERTEX
  5
7FC
  8
LAYER_1
 10
100.7637165437258
 20
11.98871765497733
 30
0.0
  0
VERTEX
  5
7FD
  8
LAYER_1
 10
100.7970360302636
 20
11.96713452820621
 30
0.0
  0
VERTEX
  5
7FE
  8
LAYER_1
 10
100.8307639492249
 20
11.94580176296041
 30
0.0
  0
VERTEX
  5
7FF
  8
LAYER_1
 10
100.8648963736181
 20
11.92472181360963
 30
0.0
  0
VERTEX
  5
800
  8
LAYER_1
 10
100.8994293764519
 20
11.90389713452351
 30
0.0
  0
VERTEX
  5
801
  8
LAYER_1
 10
100.9343590307348
 20
11.88333018007173
 30
0.0
  0
VERTEX
  5
802
  8
LAYER_1
 10
100.9696814094753
 20
11.86302340462396
 30
0.0
  0
VERTEX
  5
803
  8
LAYER_1
 10
101.0053925856819
 20
11.84297926254986
 30
0.0
  0
VERTEX
  5
804
  8
LAYER_1
 10
101.0414886323631
 20
11.82320020821911
 30
0.0
  0
VERTEX
  5
805
  8
LAYER_1
 10
101.0779656225276
 20
11.80368869600137
 30
0.0
  0
VERTEX
  5
806
  8
LAYER_1
 10
101.1148196291838
 20
11.7844471802663
 30
0.0
  0
VERTEX
  5
807
  8
LAYER_1
 10
101.1520467253402
 20
11.76547811538358
 30
0.0
  0
VERTEX
  5
808
  8
LAYER_1
 10
101.1896429840054
 20
11.74678395572287
 30
0.0
  0
VERTEX
  5
809
  8
LAYER_1
 10
101.227604478188
 20
11.72836715565384
 30
0.0
  0
VERTEX
  5
80A
  8
LAYER_1
 10
101.2659272808964
 20
11.71023016954617
 30
0.0
  0
VERTEX
  5
80B
  8
LAYER_1
 10
101.3046074651392
 20
11.69237545176951
 30
0.0
  0
VERTEX
  5
80C
  8
LAYER_1
 10
101.3436411039248
 20
11.67480545669353
 30
0.0
  0
VERTEX
  5
80D
  8
LAYER_1
 10
101.383024270262
 20
11.65752263868791
 30
0.0
  0
VERTEX
  5
80E
  8
LAYER_1
 10
101.4227530371591
 20
11.64052945212231
 30
0.0
  0
VERTEX
  5
80F
  8
LAYER_1
 10
101.4628234776247
 20
11.6238283513664
 30
0.0
  0
VERTEX
  5
810
  8
LAYER_1
 10
101.5032316646674
 20
11.60742179078984
 30
0.0
  0
VERTEX
  5
811
  8
LAYER_1
 10
101.5439736712956
 20
11.5913122247623
 30
0.0
  0
VERTEX
  5
812
  8
LAYER_1
 10
101.585045570518
 20
11.57550210765346
 30
0.0
  0
VERTEX
  5
813
  8
LAYER_1
 10
101.626443435343
 20
11.55999389383298
 30
0.0
  0
VERTEX
  5
814
  8
LAYER_1
 10
101.6681633387791
 20
11.54479003767052
 30
0.0
  0
VERTEX
  5
815
  8
LAYER_1
 10
101.7102013538349
 20
11.52989299353576
 30
0.0
  0
VERTEX
  5
816
  8
LAYER_1
 10
101.752553553519
 20
11.51530521579837
 30
0.0
  0
VERTEX
  5
817
  8
LAYER_1
 10
101.7952160108398
 20
11.501029158828
 30
0.0
  0
VERTEX
  5
818
  8
LAYER_1
 10
101.838184798806
 20
11.48706727699433
 30
0.0
  0
VERTEX
  5
819
  8
LAYER_1
 10
101.8814559904259
 20
11.47342202466703
 30
0.0
  0
VERTEX
  5
81A
  8
LAYER_1
 10
101.9250256587082
 20
11.46009585621577
 30
0.0
  0
VERTEX
  5
81B
  8
LAYER_1
 10
101.9688898766614
 20
11.4470912260102
 30
0.0
  0
VERTEX
  5
81C
  8
LAYER_1
 10
102.013044717294
 20
11.43441058842001
 30
0.0
  0
VERTEX
  5
81D
  8
LAYER_1
 10
102.0574862536145
 20
11.42205639781485
 30
0.0
  0
VERTEX
  5
81E
  8
LAYER_1
 10
102.1022105586316
 20
11.4100311085644
 30
0.0
  0
VERTEX
  5
81F
  8
LAYER_1
 10
102.1472137053536
 20
11.39833717503832
 30
0.0
  0
VERTEX
  5
820
  8
LAYER_1
 10
102.1924917667892
 20
11.38697705160629
 30
0.0
  0
VERTEX
  5
821
  8
LAYER_1
 10
102.2380408159469
 20
11.37595319263796
 30
0.0
  0
VERTEX
  5
822
  8
LAYER_1
 10
102.2838569258352
 20
11.36526805250301
 30
0.0
  0
VERTEX
  5
823
  8
LAYER_1
 10
102.3299361694626
 20
11.3549240855711
 30
0.0
  0
VERTEX
  5
824
  8
LAYER_1
 10
102.3762746198377
 20
11.34492374621191
 30
0.0
  0
VERTEX
  5
825
  8
LAYER_1
 10
102.422868349969
 20
11.3352694887951
 30
0.0
  0
VERTEX
  5
826
  8
LAYER_1
 10
102.4697134328649
 20
11.32596376769033
 30
0.0
  0
VERTEX
  5
827
  8
LAYER_1
 10
102.5168059415342
 20
11.31700903726728
 30
0.0
  0
VERTEX
  5
828
  8
LAYER_1
 10
102.5641419489853
 20
11.30840775189562
 30
0.0
  0
VERTEX
  5
829
  8
LAYER_1
 10
102.6117175282267
 20
11.30016236594501
 30
0.0
  0
VERTEX
  5
82A
  8
LAYER_1
 10
102.659528752267
 20
11.29227533378512
 30
0.0
  0
VERTEX
  5
82B
  8
LAYER_1
 10
102.7075716941146
 20
11.28474910978561
 30
0.0
  0
VERTEX
  5
82C
  8
LAYER_1
 10
102.7558424267782
 20
11.27758614831616
 30
0.0
  0
VERTEX
  5
82D
  8
LAYER_1
 10
102.8043370232662
 20
11.27078890374643
 30
0.0
  0
VERTEX
  5
82E
  8
LAYER_1
 10
102.8530515565872
 20
11.26435983044609
 30
0.0
  0
VERTEX
  5
82F
  8
LAYER_1
 10
102.9019820997498
 20
11.25830138278481
 30
0.0
  0
VERTEX
  5
830
  8
LAYER_1
 10
102.9511247257624
 20
11.25261601513226
 30
0.0
  0
VERTEX
  5
831
  8
LAYER_1
 10
103.0004755076335
 20
11.2473061818581
 30
0.0
  0
VERTEX
  5
832
  8
LAYER_1
 10
103.0500305183718
 20
11.24237433733201
 30
0.0
  0
VERTEX
  5
833
  8
LAYER_1
 10
103.0997858309857
 20
11.23782293592365
 30
0.0
  0
VERTEX
  5
834
  8
LAYER_1
 10
103.1497375184838
 20
11.23365443200268
 30
0.0
  0
VERTEX
  5
835
  8
LAYER_1
 10
103.1998816538745
 20
11.22987127993877
 30
0.0
  0
VERTEX
  5
836
  8
LAYER_1
 10
103.2502143101666
 20
11.2264759341016
 30
0.0
  0
VERTEX
  5
837
  8
LAYER_1
 10
103.3007315603683
 20
11.22347084886084
 30
0.0
  0
VERTEX
  5
838
  8
LAYER_1
 10
103.3514294774885
 20
11.22085847858614
 30
0.0
  0
VERTEX
  5
839
  8
LAYER_1
 10
103.4023041345354
 20
11.21864127764718
 30
0.0
  0
VERTEX
  5
83A
  8
LAYER_1
 10
103.4533516045177
 20
11.21682170041362
 30
0.0
  0
VERTEX
  5
83B
  8
LAYER_1
 10
103.5045679604438
 20
11.21540220125513
 30
0.0
  0
VERTEX
  5
83C
  8
LAYER_1
 10
103.5559492753224
 20
11.21438523454139
 30
0.0
  0
VERTEX
  5
83D
  8
LAYER_1
 10
103.607491622162
 20
11.21377325464205
 30
0.0
  0
SEQEND
  5
B08
  8
LAYER_1
  0
POLYLINE
  5
C9
  8
LAYER_1
 66
     1
 10
0.0
 20
0.0
 30
0.0
 70
     1
  0
VERTEX
  5
83E
  8
LAYER_1
 10
100.3779410739711
 20
11.41666871592679
 30
0.0
 42
0.4142135623730951
  0
VERTEX
  5
83F
  8
LAYER_1
 10
100.2373410739711
 20
11.27606871592679
 30
0.0
 42
0.4142135623730951
  0
VERTEX
  5
840
  8
LAYER_1
 10
100.3779410739711
 20
11.13546871592679
 30
0.0
 42
0.4142135623730951
  0
VERTEX
  5
841
  8
LAYER_1
 10
100.5185410739711
 20
11.27606871592679
 30
0.0
 42
0.4142135623730951
  0
SEQEND
  5
B09
  8
LAYER_1
  0
POLYLINE
  5
CA
  8
LAYER_1
 66
     1
 10
0.0
 20
0.0
 30
0.0
 70
     1
  0
VERTEX
  5
842
  8
LAYER_1
 10
100.3779410739711
 20
16.04166871592679
 30
0.0
 42
0.4142135623730951
  0
VERTEX
  5
843
  8
LAYER_1
 10
100.2373410739711
 20
15.90106871592679
 30
0.0
 42
0.4142135623730951
  0
VERTEX
  5
844
  8
LAYER_1
 10
100.3779410739711
 20
15.76046871592679
 30
0.0
 42
0.4142135623730951
  0
VERTEX
  5
845
  8
LAYER_1
 10
100.5185410739711
 20
15.90106871592679
 30
0.0
 42
0.4142135623730951
  0
SEQEND
  5
B0A
  8
LAYER_1
  0
POLYLINE
  5
CB
  8
LAYER_1
 66
     1
 10
0.0
 20
0.0
 30
0.0
 70
     1
  0
VERTEX
  5
846
  8
LAYER_1
 10
107.0029410739711
 20
16.04166871592679
 30
0.0
 42
0.4142135623730951
  0
VERTEX
  5
847
  8
LAYER_1
 10
106.8623410739711
 20
15.90106871592679
 30
0.0
 42
0.4142135623730951
  0
VERTEX
  5
848
  8
LAYER_1
 10
107.0029410739711
 20
15.76046871592679
 30
0.0
 42
0.4142135623730951
  0
VERTEX
  5
849
  8
LAYER_1
 10
107.1435410739711
 20
15.90106871592679
 30
0.0
 42
0.4142135623730951
  0
SEQEND
  5
B0B
  8
LAYER_1
  0
POLYLINE
  5
CC
  8
LAYER_1
 66
     1
 10
0.0
 20
0.0
 30
0.0
 70
     1
  0
VERTEX
  5
84A
  8
LAYER_1
 10
107.0029410739711
 20
11.41666871592679
 30
0.0
 42
0.4142135623730951
  0
VERTEX
  5
84B
  8
LAYER_1
 10
106.8623410739711
 20
11.27606871592679
 30
0.0
 42
0.4142135623730951
  0
VERTEX
  5
84C
  8
LAYER_1
 10
107.0029410739711
 20
11.13546871592679
 30
0.0
 42
0.4142135623730951
  0
VERTEX
  5
84D
  8
LAYER_1
 10
107.1435410739711
 20
11.27606871592679
 30
0.0
 42
0.4142135623730951
  0
SEQEND
  5
B0C
  8
LAYER_1
  0
POLYLINE
  5
CD
  8
LAYER_1
 66
     1
 10
0.0
 20
0.0
 30
0.0
 70
     1
  0
VERTEX
  5
84E
  8
LAYER_1
 10
115.5341910739711
 20
11.21376871592679
 30
0.0
  0
VERTEX
  5
84F
  8
LAYER_1
 10
115.5858905257801
 20
11.21397325464205
 30
0.0
  0
VERTEX
  5
850
  8
LAYER_1
 10
115.6374328726197
 20
11.21458523454139
 30
0.0
  0
VERTEX
  5
851
  8
LAYER_1
 10
115.6888141874983
 20
11.21560220125513
 30
0.0
  0
VERTEX
  5
852
  8
LAYER_1
 10
115.7400305434245
 20
11.21702170041362
 30
0.0
  0
VERTEX
  5
853
  8
LAYER_1
 10
115.7910780134067
 20
11.21884127764718
 30
0.0
  0
VERTEX
  5
854
  8
LAYER_1
 10
115.8419526704537
 20
11.22105847858614
 30
0.0
  0
VERTEX
  5
855
  8
LAYER_1
 10
115.8926505875738
 20
11.22367084886084
 30
0.0
  0
VERTEX
  5
856
  8
LAYER_1
 10
115.9431678377755
 20
11.2266759341016
 30
0.0
  0
VERTEX
  5
857
  8
LAYER_1
 10
115.9935004940676
 20
11.23007127993877
 30
0.0
  0
VERTEX
  5
858
  8
LAYER_1
 10
116.0436446294584
 20
11.23385443200268
 30
0.0
  0
VERTEX
  5
859
  8
LAYER_1
 10
116.0935963169565
 20
11.23802293592365
 30
0.0
  0
VERTEX
  5
85A
  8
LAYER_1
 10
116.1433516295704
 20
11.24257433733201
 30
0.0
  0
VERTEX
  5
85B
  8
LAYER_1
 10
116.1929066403086
 20
11.2475061818581
 30
0.0
  0
VERTEX
  5
85C
  8
LAYER_1
 10
116.2422574221798
 20
11.25281601513226
 30
0.0
  0
VERTEX
  5
85D
  8
LAYER_1
 10
116.2914000481923
 20
11.25850138278481
 30
0.0
  0
VERTEX
  5
85E
  8
LAYER_1
 10
116.3403305913549
 20
11.26455983044609
 30
0.0
  0
VERTEX
  5
85F
  8
LAYER_1
 10
116.3890451246759
 20
11.27098890374643
 30
0.0
  0
VERTEX
  5
860
  8
LAYER_1
 10
116.4375397211639
 20
11.27778614831616
 30
0.0
  0
VERTEX
  5
861
  8
LAYER_1
 10
116.4858104538275
 20
11.28494910978561
 30
0.0
  0
VERTEX
  5
862
  8
LAYER_1
 10
116.5338533956751
 20
11.29247533378511
 30
0.0
  0
VERTEX
  5
863
  8
LAYER_1
 10
116.5816646197154
 20
11.30036236594501
 30
0.0
  0
VERTEX
  5
864
  8
LAYER_1
 10
116.6292401989568
 20
11.30860775189562
 30
0.0
  0
VERTEX
  5
865
  8
LAYER_1
 10
116.6765762064079
 20
11.31720903726728
 30
0.0
  0
VERTEX
  5
866
  8
LAYER_1
 10
116.7236687150772
 20
11.32616376769033
 30
0.0
  0
VERTEX
  5
867
  8
LAYER_1
 10
116.7705137979732
 20
11.33546948879509
 30
0.0
  0
VERTEX
  5
868
  8
LAYER_1
 10
116.8171075281045
 20
11.34512374621191
 30
0.0
  0
VERTEX
  5
869
  8
LAYER_1
 10
116.8634459784795
 20
11.3551240855711
 30
0.0
  0
VERTEX
  5
86A
  8
LAYER_1
 10
116.909525222107
 20
11.36546805250301
 30
0.0
  0
VERTEX
  5
86B
  8
LAYER_1
 10
116.9553413319952
 20
11.37615319263796
 30
0.0
  0
VERTEX
  5
86C
  8
LAYER_1
 10
117.0008903811529
 20
11.38717705160629
 30
0.0
  0
VERTEX
  5
86D
  8
LAYER_1
 10
117.0461684425885
 20
11.39853717503832
 30
0.0
  0
VERTEX
  5
86E
  8
LAYER_1
 10
117.0911715893105
 20
11.4102311085644
 30
0.0
  0
VERTEX
  5
86F
  8
LAYER_1
 10
117.1358958943276
 20
11.42225639781485
 30
0.0
  0
VERTEX
  5
870
  8
LAYER_1
 10
117.1803374306481
 20
11.43461058842001
 30
0.0
  0
VERTEX
  5
871
  8
LAYER_1
 10
117.2244922712807
 20
11.4472912260102
 30
0.0
  0
VERTEX
  5
872
  8
LAYER_1
 10
117.2683564892339
 20
11.46029585621577
 30
0.0
  0
VERTEX
  5
873
  8
LAYER_1
 10
117.3119261575162
 20
11.47362202466703
 30
0.0
  0
VERTEX
  5
874
  8
LAYER_1
 10
117.3551973491362
 20
11.48726727699433
 30
0.0
  0
VERTEX
  5
875
  8
LAYER_1
 10
117.3981661371023
 20
11.501229158828
 30
0.0
  0
VERTEX
  5
876
  8
LAYER_1
 10
117.4408285944231
 20
11.51550521579837
 30
0.0
  0
VERTEX
  5
877
  8
LAYER_1
 10
117.4831807941072
 20
11.53009299353576
 30
0.0
  0
VERTEX
  5
878
  8
LAYER_1
 10
117.525218809163
 20
11.54499003767052
 30
0.0
  0
VERTEX
  5
879
  8
LAYER_1
 10
117.5669387125992
 20
11.56019389383298
 30
0.0
  0
VERTEX
  5
87A
  8
LAYER_1
 10
117.6083365774241
 20
11.57570210765346
 30
0.0
  0
VERTEX
  5
87B
  8
LAYER_1
 10
117.6494084766465
 20
11.5915122247623
 30
0.0
  0
VERTEX
  5
87C
  8
LAYER_1
 10
117.6901504832747
 20
11.60762179078984
 30
0.0
  0
VERTEX
  5
87D
  8
LAYER_1
 10
117.7305586703174
 20
11.62402835136639
 30
0.0
  0
VERTEX
  5
87E
  8
LAYER_1
 10
117.770629110783
 20
11.64072945212231
 30
0.0
  0
VERTEX
  5
87F
  8
LAYER_1
 10
117.8103578776801
 20
11.65772263868791
 30
0.0
  0
VERTEX
  5
880
  8
LAYER_1
 10
117.8497410440173
 20
11.67500545669353
 30
0.0
  0
VERTEX
  5
881
  8
LAYER_1
 10
117.888774682803
 20
11.69257545176951
 30
0.0
  0
VERTEX
  5
882
  8
LAYER_1
 10
117.9274548670458
 20
11.71043016954617
 30
0.0
  0
VERTEX
  5
883
  8
LAYER_1
 10
117.9657776697541
 20
11.72856715565385
 30
0.0
  0
VERTEX
  5
884
  8
LAYER_1
 10
118.0037391639367
 20
11.74698395572287
 30
0.0
  0
VERTEX
  5
885
  8
LAYER_1
 10
118.0413354226019
 20
11.76567811538358
 30
0.0
  0
VERTEX
  5
886
  8
LAYER_1
 10
118.0785625187584
 20
11.7846471802663
 30
0.0
  0
VERTEX
  5
887
  8
LAYER_1
 10
118.1154165254146
 20
11.80388869600137
 30
0.0
  0
VERTEX
  5
888
  8
LAYER_1
 10
118.151893515579
 20
11.82340020821911
 30
0.0
  0
VERTEX
  5
889
  8
LAYER_1
 10
118.1879895622603
 20
11.84317926254987
 30
0.0
  0
VERTEX
  5
88A
  8
LAYER_1
 10
118.2237007384669
 20
11.86322340462396
 30
0.0
  0
VERTEX
  5
88B
  8
LAYER_1
 10
118.2590231172073
 20
11.88353018007173
 30
0.0
  0
VERTEX
  5
88C
  8
LAYER_1
 10
118.2939527714902
 20
11.90409713452351
 30
0.0
  0
VERTEX
  5
88D
  8
LAYER_1
 10
118.328485774324
 20
11.92492181360963
 30
0.0
  0
VERTEX
  5
88E
  8
LAYER_1
 10
118.3626181987173
 20
11.94600176296042
 30
0.0
  0
VERTEX
  5
88F
  8
LAYER_1
 10
118.3963461176785
 20
11.96733452820621
 30
0.0
  0
VERTEX
  5
890
  8
LAYER_1
 10
118.4296656042163
 20
11.98891765497734
 30
0.0
  0
VERTEX
  5
891
  8
LAYER_1
 10
118.4625727313392
 20
12.01074868890413
 30
0.0
  0
VERTEX
  5
892
  8
LAYER_1
 10
118.4950635720556
 20
12.03282517561692
 30
0.0
  0
VERTEX
  5
893
  8
LAYER_1
 10
118.5271341993741
 20
12.05514466074605
 30
0.0
  0
VERTEX
  5
894
  8
LAYER_1
 10
118.5587806863034
 20
12.07770468992183
 30
0.0
  0
VERTEX
  5
895
  8
LAYER_1
 10
118.5899991058517
 20
12.10050280877462
 30
0.0
  0
VERTEX
  5
896
  8
LAYER_1
 10
118.6207855310278
 20
12.12353656293473
 30
0.0
  0
VERTEX
  5
897
  8
LAYER_1
 10
118.6511360348402
 20
12.14680349803251
 30
0.0
  0
VERTEX
  5
898
  8
LAYER_1
 10
118.6810466902973
 20
12.17030115969827
 30
0.0
  0
VERTEX
  5
899
  8
LAYER_1
 10
118.7105135704078
 20
12.19402709356236
 30
0.0
  0
VERTEX
  5
89A
  8
LAYER_1
 10
118.7395327481801
 20
12.21797884525511
 30
0.0
  0
VERTEX
  5
89B
  8
LAYER_1
 10
118.7681002966227
 20
12.24215396040685
 30
0.0
  0
VERTEX
  5
89C
  8
LAYER_1
 10
118.7962122887443
 20
12.26654998464791
 30
0.0
  0
VERTEX
  5
89D
  8
LAYER_1
 10
118.8238647975533
 20
12.29116446360862
 30
0.0
  0
VERTEX
  5
89E
  8
LAYER_1
 10
118.8510538960582
 20
12.31599494291932
 30
0.0
  0
VERTEX
  5
89F
  8
LAYER_1
 10
118.8777756572677
 20
12.34103896821034
 30
0.0
  0
VERTEX
  5
8A0
  8
LAYER_1
 10
118.9040261541902
 20
12.366294085112
 30
0.0
  0
VERTEX
  5
8A1
  8
LAYER_1
 10
118.9298014598342
 20
12.39175783925465
 30
0.0
  0
VERTEX
  5
8A2
  8
LAYER_1
 10
118.9550976472084
 20
12.41742777626862
 30
0.0
  0
VERTEX
  5
8A3
  8
LAYER_1
 10
118.9799107893212
 20
12.44330144178423
 30
0.0
  0
VERTEX
  5
8A4
  8
LAYER_1
 10
119.0042369591811
 20
12.46937638143181
 30
0.0
  0
VERTEX
  5
8A5
  8
LAYER_1
 10
119.0280722297967
 20
12.49565014084171
 30
0.0
  0
VERTEX
  5
8A6
  8
LAYER_1
 10
119.0514126741765
 20
12.52212026564426
 30
0.0
  0
VERTEX
  5
8A7
  8
LAYER_1
 10
119.0742543653291
 20
12.54878430146978
 30
0.0
  0
VERTEX
  5
8A8
  8
LAYER_1
 10
119.096593376263
 20
12.5756397939486
 30
0.0
  0
VERTEX
  5
8A9
  8
LAYER_1
 10
119.1184257799867
 20
12.60268428871107
 30
0.0
  0
VERTEX
  5
8AA
  8
LAYER_1
 10
119.1397476495087
 20
12.62991533138751
 30
0.0
  0
VERTEX
  5
8AB
  8
LAYER_1
 10
119.1605550578376
 20
12.65733046760825
 30
0.0
  0
VERTEX
  5
8AC
  8
LAYER_1
 10
119.1808440779819
 20
12.68492724300362
 30
0.0
  0
VERTEX
  5
8AD
  8
LAYER_1
 10
119.2006107829502
 20
12.71270320320397
 30
0.0
  0
VERTEX
  5
8AE
  8
LAYER_1
 10
119.2198512457509
 20
12.74065589383962
 30
0.0
  0
VERTEX
  5
8AF
  8
LAYER_1
 10
119.2385615393926
 20
12.7687828605409
 30
0.0
  0
VERTEX
  5
8B0
  8
LAYER_1
 10
119.2567377368839
 20
12.79708164893814
 30
0.0
  0
VERTEX
  5
8B1
  8
LAYER_1
 10
119.2743759112332
 20
12.82554980466169
 30
0.0
  0
VERTEX
  5
8B2
  8
LAYER_1
 10
119.2914721354491
 20
12.85418487334186
 30
0.0
  0
VERTEX
  5
8B3
  8
LAYER_1
 10
119.3080224825402
 20
12.88298440060899
 30
0.0
  0
VERTEX
  5
8B4
  8
LAYER_1
 10
119.3240230255149
 20
12.91194593209342
 30
0.0
  0
VERTEX
  5
8B5
  8
LAYER_1
 10
119.3394698373818
 20
12.94106701342547
 30
0.0
  0
VERTEX
  5
8B6
  8
LAYER_1
 10
119.3543589911494
 20
12.97034519023548
 30
0.0
  0
VERTEX
  5
8B7
  8
LAYER_1
 10
119.3686865598263
 20
12.99977800815378
 30
0.0
  0
VERTEX
  5
8B8
  8
LAYER_1
 10
119.382448616421
 20
13.0293630128107
 30
0.0
  0
VERTEX
  5
8B9
  8
LAYER_1
 10
119.3956412339419
 20
13.05909774983658
 30
0.0
  0
VERTEX
  5
8BA
  8
LAYER_1
 10
119.4082604853978
 20
13.08897976486175
 30
0.0
  0
VERTEX
  5
8BB
  8
LAYER_1
 10
119.420302443797
 20
13.11900660351653
 30
0.0
  0
VERTEX
  5
8BC
  8
LAYER_1
 10
119.4317631821481
 20
13.14917581143126
 30
0.0
  0
VERTEX
  5
8BD
  8
LAYER_1
 10
119.4426387734596
 20
13.17948493423628
 30
0.0
  0
VERTEX
  5
8BE
  8
LAYER_1
 10
119.4529252907402
 20
13.20993151756191
 30
0.0
  0
VERTEX
  5
8BF
  8
LAYER_1
 10
119.4626188069982
 20
13.24051310703849
 30
0.0
  0
VERTEX
  5
8C0
  8
LAYER_1
 10
119.4717153952423
 20
13.27122724829635
 30
0.0
  0
VERTEX
  5
8C1
  8
LAYER_1
 10
119.480211128481
 20
13.30207148696582
 30
0.0
  0
VERTEX
  5
8C2
  8
LAYER_1
 10
119.4881020797227
 20
13.33304336867724
 30
0.0
  0
VERTEX
  5
8C3
  8
LAYER_1
 10
119.4953843219761
 20
13.36414043906093
 30
0.0
  0
VERTEX
  5
8C4
  8
LAYER_1
 10
119.5020539282497
 20
13.39536024374723
 30
0.0
  0
VERTEX
  5
8C5
  8
LAYER_1
 10
119.5081069715519
 20
13.42670032836648
 30
0.0
  0
VERTEX
  5
8C6
  8
LAYER_1
 10
119.5135395248914
 20
13.45815823854899
 30
0.0
  0
VERTEX
  5
8C7
  8
LAYER_1
 10
119.5183476612766
 20
13.48973151992511
 30
0.0
  0
VERTEX
  5
8C8
  8
LAYER_1
 10
119.5225274537161
 20
13.52141771812517
 30
0.0
  0
VERTEX
  5
8C9
  8
LAYER_1
 10
119.5260749752184
 20
13.55321437877949
 30
0.0
  0
VERTEX
  5
8CA
  8
LAYER_1
 10
119.5289862987921
 20
13.58511904751842
 30
0.0
  0
VERTEX
  5
8CB
  8
LAYER_1
 10
119.5312574974457
 20
13.61712926997228
 30
0.0
  0
VERTEX
  5
8CC
  8
LAYER_1
 10
119.5328846441877
 20
13.64924259177141
 30
0.0
  0
VERTEX
  5
8CD
  8
LAYER_1
 10
119.5338638120267
 20
13.68145655854613
 30
0.0
  0
VERTEX
  5
8CE
  8
LAYER_1
 10
119.5341910739711
 20
13.71376871592679
 30
0.0
  0
VERTEX
  5
8CF
  8
LAYER_1
 10
119.5338638120267
 20
13.74608087330745
 30
0.0
  0
VERTEX
  5
8D0
  8
LAYER_1
 10
119.5328846441877
 20
13.77829484008217
 30
0.0
  0
VERTEX
  5
8D1
  8
LAYER_1
 10
119.5312574974457
 20
13.8104081618813
 30
0.0
  0
VERTEX
  5
8D2
  8
LAYER_1
 10
119.5289862987921
 20
13.84241838433516
 30
0.0
  0
VERTEX
  5
8D3
  8
LAYER_1
 10
119.5260749752184
 20
13.87432305307409
 30
0.0
  0
VERTEX
  5
8D4
  8
LAYER_1
 10
119.5225274537161
 20
13.90611971372841
 30
0.0
  0
VERTEX
  5
8D5
  8
LAYER_1
 10
119.5183476612766
 20
13.93780591192847
 30
0.0
  0
VERTEX
  5
8D6
  8
LAYER_1
 10
119.5135395248914
 20
13.96937919330459
 30
0.0
  0
VERTEX
  5
8D7
  8
LAYER_1
 10
119.5081069715519
 20
14.0008371034871
 30
0.0
  0
VERTEX
  5
8D8
  8
LAYER_1
 10
119.5020539282497
 20
14.03217718810635
 30
0.0
  0
VERTEX
  5
8D9
  8
LAYER_1
 10
119.4953843219761
 20
14.06339699279265
 30
0.0
  0
VERTEX
  5
8DA
  8
LAYER_1
 10
119.4881020797227
 20
14.09449406317634
 30
0.0
  0
VERTEX
  5
8DB
  8
LAYER_1
 10
119.480211128481
 20
14.12546594488776
 30
0.0
  0
VERTEX
  5
8DC
  8
LAYER_1
 10
119.4717153952423
 20
14.15631018355723
 30
0.0
  0
VERTEX
  5
8DD
  8
LAYER_1
 10
119.4626188069982
 20
14.18702432481509
 30
0.0
  0
VERTEX
  5
8DE
  8
LAYER_1
 10
119.4529252907402
 20
14.21760591429167
 30
0.0
  0
VERTEX
  5
8DF
  8
LAYER_1
 10
119.4426387734596
 20
14.2480524976173
 30
0.0
  0
VERTEX
  5
8E0
  8
LAYER_1
 10
119.4317631821481
 20
14.27836162042232
 30
0.0
  0
VERTEX
  5
8E1
  8
LAYER_1
 10
119.420302443797
 20
14.30853082833705
 30
0.0
  0
VERTEX
  5
8E2
  8
LAYER_1
 10
119.4082604853978
 20
14.33855766699183
 30
0.0
  0
VERTEX
  5
8E3
  8
LAYER_1
 10
119.3956412339419
 20
14.368439682017
 30
0.0
  0
VERTEX
  5
8E4
  8
LAYER_1
 10
119.382448616421
 20
14.39817441904288
 30
0.0
  0
VERTEX
  5
8E5
  8
LAYER_1
 10
119.3686865598263
 20
14.4277594236998
 30
0.0
  0
VERTEX
  5
8E6
  8
LAYER_1
 10
119.3543589911494
 20
14.4571922416181
 30
0.0
  0
VERTEX
  5
8E7
  8
LAYER_1
 10
119.3394698373818
 20
14.48647041842811
 30
0.0
  0
VERTEX
  5
8E8
  8
LAYER_1
 10
119.3240230255149
 20
14.51559149976016
 30
0.0
  0
VERTEX
  5
8E9
  8
LAYER_1
 10
119.3080224825402
 20
14.54455303124459
 30
0.0
  0
VERTEX
  5
8EA
  8
LAYER_1
 10
119.2914721354491
 20
14.57335255851172
 30
0.0
  0
VERTEX
  5
8EB
  8
LAYER_1
 10
119.2743759112332
 20
14.60198762719189
 30
0.0
  0
VERTEX
  5
8EC
  8
LAYER_1
 10
119.2567377368839
 20
14.63045578291544
 30
0.0
  0
VERTEX
  5
8ED
  8
LAYER_1
 10
119.2385615393926
 20
14.65875457131268
 30
0.0
  0
VERTEX
  5
8EE
  8
LAYER_1
 10
119.2198512457509
 20
14.68688153801396
 30
0.0
  0
VERTEX
  5
8EF
  8
LAYER_1
 10
119.2006107829502
 20
14.71483422864961
 30
0.0
  0
VERTEX
  5
8F0
  8
LAYER_1
 10
119.1808440779819
 20
14.74261018884996
 30
0.0
  0
VERTEX
  5
8F1
  8
LAYER_1
 10
119.1605550578376
 20
14.77020696424533
 30
0.0
  0
VERTEX
  5
8F2
  8
LAYER_1
 10
119.1397476495087
 20
14.79762210046607
 30
0.0
  0
VERTEX
  5
8F3
  8
LAYER_1
 10
119.1184257799867
 20
14.82485314314251
 30
0.0
  0
VERTEX
  5
8F4
  8
LAYER_1
 10
119.096593376263
 20
14.85189763790498
 30
0.0
  0
VERTEX
  5
8F5
  8
LAYER_1
 10
119.0742543653291
 20
14.8787531303838
 30
0.0
  0
VERTEX
  5
8F6
  8
LAYER_1
 10
119.0514126741765
 20
14.90541716620932
 30
0.0
  0
VERTEX
  5
8F7
  8
LAYER_1
 10
119.0280722297967
 20
14.93188729101186
 30
0.0
  0
VERTEX
  5
8F8
  8
LAYER_1
 10
119.0042369591811
 20
14.95816105042177
 30
0.0
  0
VERTEX
  5
8F9
  8
LAYER_1
 10
118.9799107893212
 20
14.98423599006935
 30
0.0
  0
VERTEX
  5
8FA
  8
LAYER_1
 10
118.9550976472084
 20
15.01010965558496
 30
0.0
  0
VERTEX
  5
8FB
  8
LAYER_1
 10
118.9298014598342
 20
15.03577959259893
 30
0.0
  0
VERTEX
  5
8FC
  8
LAYER_1
 10
118.9040261541902
 20
15.06124334674158
 30
0.0
  0
VERTEX
  5
8FD
  8
LAYER_1
 10
118.8777756572677
 20
15.08649846364324
 30
0.0
  0
VERTEX
  5
8FE
  8
LAYER_1
 10
118.8510538960582
 20
15.11154248893426
 30
0.0
  0
VERTEX
  5
8FF
  8
LAYER_1
 10
118.8238647975533
 20
15.13637296824496
 30
0.0
  0
VERTEX
  5
900
  8
LAYER_1
 10
118.7962122887443
 20
15.16098744720567
 30
0.0
  0
VERTEX
  5
901
  8
LAYER_1
 10
118.7681002966227
 20
15.18538347144673
 30
0.0
  0
VERTEX
  5
902
  8
LAYER_1
 10
118.7395327481801
 20
15.20955858659847
 30
0.0
  0
VERTEX
  5
903
  8
LAYER_1
 10
118.7105135704078
 20
15.23351033829122
 30
0.0
  0
VERTEX
  5
904
  8
LAYER_1
 10
118.6810466902973
 20
15.25723627215531
 30
0.0
  0
VERTEX
  5
905
  8
LAYER_1
 10
118.6511360348402
 20
15.28073393382107
 30
0.0
  0
VERTEX
  5
906
  8
LAYER_1
 10
118.6207855310278
 20
15.30400086891885
 30
0.0
  0
VERTEX
  5
907
  8
LAYER_1
 10
118.5899991058517
 20
15.32703462307896
 30
0.0
  0
VERTEX
  5
908
  8
LAYER_1
 10
118.5587806863034
 20
15.34983274193175
 30
0.0
  0
VERTEX
  5
909
  8
LAYER_1
 10
118.5271341993741
 20
15.37239277110753
 30
0.0
  0
VERTEX
  5
90A
  8
LAYER_1
 10
118.4950635720556
 20
15.39471225623666
 30
0.0
  0
VERTEX
  5
90B
  8
LAYER_1
 10
118.4625727313392
 20
15.41678874294945
 30
0.0
  0
VERTEX
  5
90C
  8
LAYER_1
 10
118.4296656042163
 20
15.43861977687624
 30
0.0
  0
VERTEX
  5
90D
  8
LAYER_1
 10
118.3963461176785
 20
15.46020290364737
 30
0.0
  0
VERTEX
  5
90E
  8
LAYER_1
 10
118.3626181987173
 20
15.48153566889316
 30
0.0
  0
VERTEX
  5
90F
  8
LAYER_1
 10
118.328485774324
 20
15.50261561824395
 30
0.0
  0
VERTEX
  5
910
  8
LAYER_1
 10
118.2939527714902
 20
15.52344029733007
 30
0.0
  0
VERTEX
  5
911
  8
LAYER_1
 10
118.2590231172073
 20
15.54400725178185
 30
0.0
  0
VERTEX
  5
912
  8
LAYER_1
 10
118.2237007384669
 20
15.56431402722962
 30
0.0
  0
VERTEX
  5
913
  8
LAYER_1
 10
118.1879895622603
 20
15.58435816930371
 30
0.0
  0
VERTEX
  5
914
  8
LAYER_1
 10
118.151893515579
 20
15.60413722363447
 30
0.0
  0
VERTEX
  5
915
  8
LAYER_1
 10
118.1154165254146
 20
15.62364873585221
 30
0.0
  0
VERTEX
  5
916
  8
LAYER_1
 10
118.0785625187584
 20
15.64289025158728
 30
0.0
  0
VERTEX
  5
917
  8
LAYER_1
 10
118.0413354226019
 20
15.66185931647
 30
0.0
  0
VERTEX
  5
918
  8
LAYER_1
 10
118.0037391639367
 20
15.68055347613071
 30
0.0
  0
VERTEX
  5
919
  8
LAYER_1
 10
117.9657776697541
 20
15.69897027619973
 30
0.0
  0
VERTEX
  5
91A
  8
LAYER_1
 10
117.9274548670458
 20
15.71710726230741
 30
0.0
  0
VERTEX
  5
91B
  8
LAYER_1
 10
117.888774682803
 20
15.73496198008407
 30
0.0
  0
VERTEX
  5
91C
  8
LAYER_1
 10
117.8497410440173
 20
15.75253197516005
 30
0.0
  0
VERTEX
  5
91D
  8
LAYER_1
 10
117.8103578776801
 20
15.76981479316567
 30
0.0
  0
VERTEX
  5
91E
  8
LAYER_1
 10
117.770629110783
 20
15.78680797973127
 30
0.0
  0
VERTEX
  5
91F
  8
LAYER_1
 10
117.7305586703174
 20
15.80350908048718
 30
0.0
  0
VERTEX
  5
920
  8
LAYER_1
 10
117.6901504832747
 20
15.81991564106374
 30
0.0
  0
VERTEX
  5
921
  8
LAYER_1
 10
117.6494084766465
 20
15.83602520709128
 30
0.0
  0
VERTEX
  5
922
  8
LAYER_1
 10
117.6083365774241
 20
15.85183532420012
 30
0.0
  0
VERTEX
  5
923
  8
LAYER_1
 10
117.5669387125992
 20
15.8673435380206
 30
0.0
  0
VERTEX
  5
924
  8
LAYER_1
 10
117.525218809163
 20
15.88254739418306
 30
0.0
  0
VERTEX
  5
925
  8
LAYER_1
 10
117.4831807941072
 20
15.89744443831782
 30
0.0
  0
VERTEX
  5
926
  8
LAYER_1
 10
117.4408285944231
 20
15.91203221605521
 30
0.0
  0
VERTEX
  5
927
  8
LAYER_1
 10
117.3981661371023
 20
15.92630827302558
 30
0.0
  0
VERTEX
  5
928
  8
LAYER_1
 10
117.3551973491362
 20
15.94027015485925
 30
0.0
  0
VERTEX
  5
929
  8
LAYER_1
 10
117.3119261575162
 20
15.95391540718655
 30
0.0
  0
VERTEX
  5
92A
  8
LAYER_1
 10
117.2683564892339
 20
15.96724157563781
 30
0.0
  0
VERTEX
  5
92B
  8
LAYER_1
 10
117.2244922712807
 20
15.98024620584338
 30
0.0
  0
VERTEX
  5
92C
  8
LAYER_1
 10
117.1803374306481
 20
15.99292684343357
 30
0.0
  0
VERTEX
  5
92D
  8
LAYER_1
 10
117.1358958943276
 20
16.00528103403873
 30
0.0
  0
VERTEX
  5
92E
  8
LAYER_1
 10
117.0911715893105
 20
16.01730632328918
 30
0.0
  0
VERTEX
  5
92F
  8
LAYER_1
 10
117.0461684425885
 20
16.02900025681526
 30
0.0
  0
VERTEX
  5
930
  8
LAYER_1
 10
117.0008903811529
 20
16.04036038024729
 30
0.0
  0
VERTEX
  5
931
  8
LAYER_1
 10
116.9553413319952
 20
16.05138423921562
 30
0.0
  0
VERTEX
  5
932
  8
LAYER_1
 10
116.909525222107
 20
16.06206937935057
 30
0.0
  0
VERTEX
  5
933
  8
LAYER_1
 10
116.8634459784795
 20
16.07241334628248
 30
0.0
  0
VERTEX
  5
934
  8
LAYER_1
 10
116.8171075281045
 20
16.08241368564167
 30
0.0
  0
VERTEX
  5
935
  8
LAYER_1
 10
116.7705137979732
 20
16.09206794305848
 30
0.0
  0
VERTEX
  5
936
  8
LAYER_1
 10
116.7236687150772
 20
16.10137366416324
 30
0.0
  0
VERTEX
  5
937
  8
LAYER_1
 10
116.6765762064079
 20
16.11032839458629
 30
0.0
  0
VERTEX
  5
938
  8
LAYER_1
 10
116.6292401989568
 20
16.11892967995796
 30
0.0
  0
VERTEX
  5
939
  8
LAYER_1
 10
116.5816646197154
 20
16.12717506590857
 30
0.0
  0
VERTEX
  5
93A
  8
LAYER_1
 10
116.5338533956751
 20
16.13506209806846
 30
0.0
  0
VERTEX
  5
93B
  8
LAYER_1
 10
116.4858104538275
 20
16.14258832206797
 30
0.0
  0
VERTEX
  5
93C
  8
LAYER_1
 10
116.4375397211639
 20
16.14975128353742
 30
0.0
  0
VERTEX
  5
93D
  8
LAYER_1
 10
116.3890451246759
 20
16.15654852810715
 30
0.0
  0
VERTEX
  5
93E
  8
LAYER_1
 10
116.3403305913549
 20
16.16297760140748
 30
0.0
  0
VERTEX
  5
93F
  8
LAYER_1
 10
116.2914000481923
 20
16.16903604906876
 30
0.0
  0
VERTEX
  5
940
  8
LAYER_1
 10
116.2422574221798
 20
16.17472141672131
 30
0.0
  0
VERTEX
  5
941
  8
LAYER_1
 10
116.1929066403086
 20
16.18003124999547
 30
0.0
  0
VERTEX
  5
942
  8
LAYER_1
 10
116.1433516295704
 20
16.18496309452157
 30
0.0
  0
VERTEX
  5
943
  8
LAYER_1
 10
116.0935963169565
 20
16.18951449592993
 30
0.0
  0
VERTEX
  5
944
  8
LAYER_1
 10
116.0436446294584
 20
16.1936829998509
 30
0.0
  0
VERTEX
  5
945
  8
LAYER_1
 10
115.9935004940676
 20
16.19746615191481
 30
0.0
  0
VERTEX
  5
946
  8
LAYER_1
 10
115.9431678377755
 20
16.20086149775198
 30
0.0
  0
VERTEX
  5
947
  8
LAYER_1
 10
115.8926505875738
 20
16.20386658299275
 30
0.0
  0
VERTEX
  5
948
  8
LAYER_1
 10
115.8419526704537
 20
16.20647895326744
 30
0.0
  0
VERTEX
  5
949
  8
LAYER_1
 10
115.7910780134067
 20
16.20869615420641
 30
0.0
  0
VERTEX
  5
94A
  8
LAYER_1
 10
115.7400305434245
 20
16.21051573143996
 30
0.0
  0
VERTEX
  5
94B
  8
LAYER_1
 10
115.6888141874983
 20
16.21193523059845
 30
0.0
  0
VERTEX
  5
94C
  8
LAYER_1
 10
115.6374328726197
 20
16.21295219731219
 30
0.0
  0
VERTEX
  5
94D
  8
LAYER_1
 10
115.5858905257801
 20
16.21356417721153
 30
0.0
  0
VERTEX
  5
94E
  8
LAYER_1
 10
115.5341910739711
 20
16.21376871592679
 30
0.0
  0
VERTEX
  5
94F
  8
LAYER_1
 10
115.482491622162
 20
16.21356417721153
 30
0.0
  0
VERTEX
  5
950
  8
LAYER_1
 10
115.4309492753224
 20
16.21295219731219
 30
0.0
  0
VERTEX
  5
951
  8
LAYER_1
 10
115.3795679604438
 20
16.21193523059845
 30
0.0
  0
VERTEX
  5
952
  8
LAYER_1
 10
115.3283516045177
 20
16.21051573143996
 30
0.0
  0
VERTEX
  5
953
  8
LAYER_1
 10
115.2773041345354
 20
16.20869615420641
 30
0.0
  0
VERTEX
  5
954
  8
LAYER_1
 10
115.2264294774885
 20
16.20647895326744
 30
0.0
  0
VERTEX
  5
955
  8
LAYER_1
 10
115.1757315603683
 20
16.20386658299275
 30
0.0
  0
VERTEX
  5
956
  8
LAYER_1
 10
115.1252143101666
 20
16.20086149775198
 30
0.0
  0
VERTEX
  5
957
  8
LAYER_1
 10
115.0748816538745
 20
16.19746615191481
 30
0.0
  0
VERTEX
  5
958
  8
LAYER_1
 10
115.0247375184838
 20
16.1936829998509
 30
0.0
  0
VERTEX
  5
959
  8
LAYER_1
 10
114.9747858309857
 20
16.18951449592993
 30
0.0
  0
VERTEX
  5
95A
  8
LAYER_1
 10
114.9250305183718
 20
16.18496309452157
 30
0.0
  0
VERTEX
  5
95B
  8
LAYER_1
 10
114.8754755076335
 20
16.18003124999547
 30
0.0
  0
VERTEX
  5
95C
  8
LAYER_1
 10
114.8261247257624
 20
16.17472141672131
 30
0.0
  0
VERTEX
  5
95D
  8
LAYER_1
 10
114.7769820997498
 20
16.16903604906876
 30
0.0
  0
VERTEX
  5
95E
  8
LAYER_1
 10
114.7280515565872
 20
16.16297760140748
 30
0.0
  0
VERTEX
  5
95F
  8
LAYER_1
 10
114.6793370232662
 20
16.15654852810715
 30
0.0
  0
VERTEX
  5
960
  8
LAYER_1
 10
114.6308424267782
 20
16.14975128353742
 30
0.0
  0
VERTEX
  5
961
  8
LAYER_1
 10
114.5825716941146
 20
16.14258832206797
 30
0.0
  0
VERTEX
  5
962
  8
LAYER_1
 10
114.534528752267
 20
16.13506209806846
 30
0.0
  0
VERTEX
  5
963
  8
LAYER_1
 10
114.4867175282267
 20
16.12717506590857
 30
0.0
  0
VERTEX
  5
964
  8
LAYER_1
 10
114.4391419489853
 20
16.11892967995796
 30
0.0
  0
VERTEX
  5
965
  8
LAYER_1
 10
114.3918059415342
 20
16.11032839458629
 30
0.0
  0
VERTEX
  5
966
  8
LAYER_1
 10
114.3447134328649
 20
16.10137366416324
 30
0.0
  0
VERTEX
  5
967
  8
LAYER_1
 10
114.297868349969
 20
16.09206794305848
 30
0.0
  0
VERTEX
  5
968
  8
LAYER_1
 10
114.2512746198377
 20
16.08241368564167
 30
0.0
  0
VERTEX
  5
969
  8
LAYER_1
 10
114.2049361694626
 20
16.07241334628248
 30
0.0
  0
VERTEX
  5
96A
  8
LAYER_1
 10
114.1588569258352
 20
16.06206937935057
 30
0.0
  0
VERTEX
  5
96B
  8
LAYER_1
 10
114.1130408159469
 20
16.05138423921562
 30
0.0
  0
VERTEX
  5
96C
  8
LAYER_1
 10
114.0674917667892
 20
16.04036038024729
 30
0.0
  0
VERTEX
  5
96D
  8
LAYER_1
 10
114.0222137053536
 20
16.02900025681526
 30
0.0
  0
VERTEX
  5
96E
  8
LAYER_1
 10
113.9772105586316
 20
16.01730632328918
 30
0.0
  0
VERTEX
  5
96F
  8
LAYER_1
 10
113.9324862536145
 20
16.00528103403873
 30
0.0
  0
VERTEX
  5
970
  8
LAYER_1
 10
113.888044717294
 20
15.99292684343357
 30
0.0
  0
VERTEX
  5
971
  8
LAYER_1
 10
113.8438898766614
 20
15.98024620584338
 30
0.0
  0
VERTEX
  5
972
  8
LAYER_1
 10
113.8000256587082
 20
15.96724157563781
 30
0.0
  0
VERTEX
  5
973
  8
LAYER_1
 10
113.7564559904259
 20
15.95391540718655
 30
0.0
  0
VERTEX
  5
974
  8
LAYER_1
 10
113.713184798806
 20
15.94027015485925
 30
0.0
  0
VERTEX
  5
975
  8
LAYER_1
 10
113.6702160108398
 20
15.92630827302558
 30
0.0
  0
VERTEX
  5
976
  8
LAYER_1
 10
113.627553553519
 20
15.91203221605521
 30
0.0
  0
VERTEX
  5
977
  8
LAYER_1
 10
113.5852013538349
 20
15.89744443831782
 30
0.0
  0
VERTEX
  5
978
  8
LAYER_1
 10
113.5431633387791
 20
15.88254739418306
 30
0.0
  0
VERTEX
  5
979
  8
LAYER_1
 10
113.501443435343
 20
15.8673435380206
 30
0.0
  0
VERTEX
  5
97A
  8
LAYER_1
 10
113.460045570518
 20
15.85183532420012
 30
0.0
  0
VERTEX
  5
97B
  8
LAYER_1
 10
113.4189736712956
 20
15.83602520709128
 30
0.0
  0
VERTEX
  5
97C
  8
LAYER_1
 10
113.3782316646674
 20
15.81991564106374
 30
0.0
  0
VERTEX
  5
97D
  8
LAYER_1
 10
113.3378234776247
 20
15.80350908048718
 30
0.0
  0
VERTEX
  5
97E
  8
LAYER_1
 10
113.2977530371591
 20
15.78680797973127
 30
0.0
  0
VERTEX
  5
97F
  8
LAYER_1
 10
113.258024270262
 20
15.76981479316567
 30
0.0
  0
VERTEX
  5
980
  8
LAYER_1
 10
113.2186411039248
 20
15.75253197516005
 30
0.0
  0
VERTEX
  5
981
  8
LAYER_1
 10
113.1796074651392
 20
15.73496198008407
 30
0.0
  0
VERTEX
  5
982
  8
LAYER_1
 10
113.1409272808964
 20
15.71710726230741
 30
0.0
  0
VERTEX
  5
983
  8
LAYER_1
 10
113.102604478188
 20
15.69897027619973
 30
0.0
  0
VERTEX
  5
984
  8
LAYER_1
 10
113.0646429840054
 20
15.68055347613071
 30
0.0
  0
VERTEX
  5
985
  8
LAYER_1
 10
113.0270467253402
 20
15.66185931647
 30
0.0
  0
VERTEX
  5
986
  8
LAYER_1
 10
112.9898196291838
 20
15.64289025158728
 30
0.0
  0
VERTEX
  5
987
  8
LAYER_1
 10
112.9529656225276
 20
15.62364873585221
 30
0.0
  0
VERTEX
  5
988
  8
LAYER_1
 10
112.9164886323631
 20
15.60413722363447
 30
0.0
  0
VERTEX
  5
989
  8
LAYER_1
 10
112.8803925856818
 20
15.58435816930371
 30
0.0
  0
VERTEX
  5
98A
  8
LAYER_1
 10
112.8446814094753
 20
15.56431402722962
 30
0.0
  0
VERTEX
  5
98B
  8
LAYER_1
 10
112.8093590307348
 20
15.54400725178185
 30
0.0
  0
VERTEX
  5
98C
  8
LAYER_1
 10
112.7744293764519
 20
15.52344029733007
 30
0.0
  0
VERTEX
  5
98D
  8
LAYER_1
 10
112.7398963736181
 20
15.50261561824395
 30
0.0
  0
VERTEX
  5
98E
  8
LAYER_1
 10
112.7057639492249
 20
15.48153566889316
 30
0.0
  0
VERTEX
  5
98F
  8
LAYER_1
 10
112.6720360302636
 20
15.46020290364737
 30
0.0
  0
VERTEX
  5
990
  8
LAYER_1
 10
112.6387165437258
 20
15.43861977687624
 30
0.0
  0
VERTEX
  5
991
  8
LAYER_1
 10
112.605809416603
 20
15.41678874294945
 30
0.0
  0
VERTEX
  5
992
  8
LAYER_1
 10
112.5733185758865
 20
15.39471225623666
 30
0.0
  0
VERTEX
  5
993
  8
LAYER_1
 10
112.541247948568
 20
15.37239277110753
 30
0.0
  0
VERTEX
  5
994
  8
LAYER_1
 10
112.5096014616388
 20
15.34983274193175
 30
0.0
  0
VERTEX
  5
995
  8
LAYER_1
 10
112.4783830420904
 20
15.32703462307896
 30
0.0
  0
VERTEX
  5
996
  8
LAYER_1
 10
112.4475966169143
 20
15.30400086891885
 30
0.0
  0
VERTEX
  5
997
  8
LAYER_1
 10
112.4172461131019
 20
15.28073393382107
 30
0.0
  0
VERTEX
  5
998
  8
LAYER_1
 10
112.3873354576448
 20
15.25723627215531
 30
0.0
  0
VERTEX
  5
999
  8
LAYER_1
 10
112.3578685775343
 20
15.23351033829122
 30
0.0
  0
VERTEX
  5
99A
  8
LAYER_1
 10
112.328849399762
 20
15.20955858659847
 30
0.0
  0
VERTEX
  5
99B
  8
LAYER_1
 10
112.3002818513194
 20
15.18538347144673
 30
0.0
  0
VERTEX
  5
99C
  8
LAYER_1
 10
112.2721698591978
 20
15.16098744720567
 30
0.0
  0
VERTEX
  5
99D
  8
LAYER_1
 10
112.2445173503889
 20
15.13637296824496
 30
0.0
  0
VERTEX
  5
99E
  8
LAYER_1
 10
112.2173282518839
 20
15.11154248893426
 30
0.0
  0
VERTEX
  5
99F
  8
LAYER_1
 10
112.1906064906744
 20
15.08649846364324
 30
0.0
  0
VERTEX
  5
9A0
  8
LAYER_1
 10
112.1643559937519
 20
15.06124334674158
 30
0.0
  0
VERTEX
  5
9A1
  8
LAYER_1
 10
112.1385806881079
 20
15.03577959259893
 30
0.0
  0
VERTEX
  5
9A2
  8
LAYER_1
 10
112.1132845007337
 20
15.01010965558496
 30
0.0
  0
VERTEX
  5
9A3
  8
LAYER_1
 10
112.088471358621
 20
14.98423599006935
 30
0.0
  0
VERTEX
  5
9A4
  8
LAYER_1
 10
112.064145188761
 20
14.95816105042177
 30
0.0
  0
VERTEX
  5
9A5
  8
LAYER_1
 10
112.0403099181454
 20
14.93188729101186
 30
0.0
  0
VERTEX
  5
9A6
  8
LAYER_1
 10
112.0169694737656
 20
14.90541716620932
 30
0.0
  0
VERTEX
  5
9A7
  8
LAYER_1
 10
111.994127782613
 20
14.8787531303838
 30
0.0
  0
VERTEX
  5
9A8
  8
LAYER_1
 10
111.9717887716791
 20
14.85189763790498
 30
0.0
  0
VERTEX
  5
9A9
  8
LAYER_1
 10
111.9499563679555
 20
14.82485314314251
 30
0.0
  0
VERTEX
  5
9AA
  8
LAYER_1
 10
111.9286344984334
 20
14.79762210046607
 30
0.0
  0
VERTEX
  5
9AB
  8
LAYER_1
 10
111.9078270901045
 20
14.77020696424533
 30
0.0
  0
VERTEX
  5
9AC
  8
LAYER_1
 10
111.8875380699602
 20
14.74261018884996
 30
0.0
  0
VERTEX
  5
9AD
  8
LAYER_1
 10
111.8677713649919
 20
14.71483422864961
 30
0.0
  0
VERTEX
  5
9AE
  8
LAYER_1
 10
111.8485309021912
 20
14.68688153801396
 30
0.0
  0
VERTEX
  5
9AF
  8
LAYER_1
 10
111.8298206085495
 20
14.65875457131268
 30
0.0
  0
VERTEX
  5
9B0
  8
LAYER_1
 10
111.8116444110582
 20
14.63045578291544
 30
0.0
  0
VERTEX
  5
9B1
  8
LAYER_1
 10
111.7940062367089
 20
14.60198762719189
 30
0.0
  0
VERTEX
  5
9B2
  8
LAYER_1
 10
111.776910012493
 20
14.57335255851172
 30
0.0
  0
VERTEX
  5
9B3
  8
LAYER_1
 10
111.7603596654019
 20
14.54455303124459
 30
0.0
  0
VERTEX
  5
9B4
  8
LAYER_1
 10
111.7443591224272
 20
14.51559149976016
 30
0.0
  0
VERTEX
  5
9B5
  8
LAYER_1
 10
111.7289123105603
 20
14.48647041842811
 30
0.0
  0
VERTEX
  5
9B6
  8
LAYER_1
 10
111.7140231567927
 20
14.4571922416181
 30
0.0
  0
VERTEX
  5
9B7
  8
LAYER_1
 10
111.6996955881158
 20
14.4277594236998
 30
0.0
  0
VERTEX
  5
9B8
  8
LAYER_1
 10
111.6859335315212
 20
14.39817441904288
 30
0.0
  0
VERTEX
  5
9B9
  8
LAYER_1
 10
111.6727409140002
 20
14.368439682017
 30
0.0
  0
VERTEX
  5
9BA
  8
LAYER_1
 10
111.6601216625444
 20
14.33855766699183
 30
0.0
  0
VERTEX
  5
9BB
  8
LAYER_1
 10
111.6480797041452
 20
14.30853082833705
 30
0.0
  0
VERTEX
  5
9BC
  8
LAYER_1
 10
111.636618965794
 20
14.27836162042232
 30
0.0
  0
VERTEX
  5
9BD
  8
LAYER_1
 10
111.6257433744825
 20
14.2480524976173
 30
0.0
  0
VERTEX
  5
9BE
  8
LAYER_1
 10
111.6154568572019
 20
14.21760591429167
 30
0.0
  0
VERTEX
  5
9BF
  8
LAYER_1
 10
111.6057633409439
 20
14.18702432481509
 30
0.0
  0
VERTEX
  5
9C0
  8
LAYER_1
 10
111.5966667526998
 20
14.15631018355723
 30
0.0
  0
VERTEX
  5
9C1
  8
LAYER_1
 10
111.5881710194612
 20
14.12546594488776
 30
0.0
  0
VERTEX
  5
9C2
  8
LAYER_1
 10
111.5802800682194
 20
14.09449406317634
 30
0.0
  0
VERTEX
  5
9C3
  8
LAYER_1
 10
111.572997825966
 20
14.06339699279265
 30
0.0
  0
VERTEX
  5
9C4
  8
LAYER_1
 10
111.5663282196925
 20
14.03217718810635
 30
0.0
  0
VERTEX
  5
9C5
  8
LAYER_1
 10
111.5602751763902
 20
14.0008371034871
 30
0.0
  0
VERTEX
  5
9C6
  8
LAYER_1
 10
111.5548426230507
 20
13.96937919330459
 30
0.0
  0
VERTEX
  5
9C7
  8
LAYER_1
 10
111.5500344866655
 20
13.93780591192847
 30
0.0
  0
VERTEX
  5
9C8
  8
LAYER_1
 10
111.545854694226
 20
13.90611971372841
 30
0.0
  0
VERTEX
  5
9C9
  8
LAYER_1
 10
111.5423071727237
 20
13.87432305307409
 30
0.0
  0
VERTEX
  5
9CA
  8
LAYER_1
 10
111.53939584915
 20
13.84241838433516
 30
0.0
  0
VERTEX
  5
9CB
  8
LAYER_1
 10
111.5371246504964
 20
13.8104081618813
 30
0.0
  0
VERTEX
  5
9CC
  8
LAYER_1
 10
111.5354975037544
 20
13.77829484008217
 30
0.0
  0
VERTEX
  5
9CD
  8
LAYER_1
 10
111.5345183359155
 20
13.74608087330745
 30
0.0
  0
VERTEX
  5
9CE
  8
LAYER_1
 10
111.5341910739711
 20
13.71376871592679
 30
0.0
  0
VERTEX
  5
9CF
  8
LAYER_1
 10
111.5345183359155
 20
13.68145655854613
 30
0.0
  0
VERTEX
  5
9D0
  8
LAYER_1
 10
111.5354975037544
 20
13.64924259177141
 30
0.0
  0
VERTEX
  5
9D1
  8
LAYER_1
 10
111.5371246504964
 20
13.61712926997228
 30
0.0
  0
VERTEX
  5
9D2
  8
LAYER_1
 10
111.53939584915
 20
13.58511904751842
 30
0.0
  0
VERTEX
  5
9D3
  8
LAYER_1
 10
111.5423071727237
 20
13.55321437877949
 30
0.0
  0
VERTEX
  5
9D4
  8
LAYER_1
 10
111.545854694226
 20
13.52141771812517
 30
0.0
  0
VERTEX
  5
9D5
  8
LAYER_1
 10
111.5500344866655
 20
13.48973151992511
 30
0.0
  0
VERTEX
  5
9D6
  8
LAYER_1
 10
111.5548426230507
 20
13.45815823854899
 30
0.0
  0
VERTEX
  5
9D7
  8
LAYER_1
 10
111.5602751763902
 20
13.42670032836648
 30
0.0
  0
VERTEX
  5
9D8
  8
LAYER_1
 10
111.5663282196925
 20
13.39536024374723
 30
0.0
  0
VERTEX
  5
9D9
  8
LAYER_1
 10
111.572997825966
 20
13.36414043906093
 30
0.0
  0
VERTEX
  5
9DA
  8
LAYER_1
 10
111.5802800682194
 20
13.33304336867724
 30
0.0
  0
VERTEX
  5
9DB
  8
LAYER_1
 10
111.5881710194612
 20
13.30207148696582
 30
0.0
  0
VERTEX
  5
9DC
  8
LAYER_1
 10
111.5966667526998
 20
13.27122724829635
 30
0.0
  0
VERTEX
  5
9DD
  8
LAYER_1
 10
111.6057633409439
 20
13.24051310703849
 30
0.0
  0
VERTEX
  5
9DE
  8
LAYER_1
 10
111.6154568572019
 20
13.20993151756191
 30
0.0
  0
VERTEX
  5
9DF
  8
LAYER_1
 10
111.6257433744825
 20
13.17948493423628
 30
0.0
  0
VERTEX
  5
9E0
  8
LAYER_1
 10
111.636618965794
 20
13.14917581143126
 30
0.0
  0
VERTEX
  5
9E1
  8
LAYER_1
 10
111.6480797041452
 20
13.11900660351653
 30
0.0
  0
VERTEX
  5
9E2
  8
LAYER_1
 10
111.6601216625444
 20
13.08897976486175
 30
0.0
  0
VERTEX
  5
9E3
  8
LAYER_1
 10
111.6727409140002
 20
13.05909774983658
 30
0.0
  0
VERTEX
  5
9E4
  8
LAYER_1
 10
111.6859335315212
 20
13.0293630128107
 30
0.0
  0
VERTEX
  5
9E5
  8
LAYER_1
 10
111.6996955881158
 20
12.99977800815378
 30
0.0
  0
VERTEX
  5
9E6
  8
LAYER_1
 10
111.7140231567927
 20
12.97034519023548
 30
0.0
  0
VERTEX
  5
9E7
  8
LAYER_1
 10
111.7289123105603
 20
12.94106701342547
 30
0.0
  0
VERTEX
  5
9E8
  8
LAYER_1
 10
111.7443591224272
 20
12.91194593209342
 30
0.0
  0
VERTEX
  5
9E9
  8
LAYER_1
 10
111.7603596654019
 20
12.88298440060899
 30
0.0
  0
VERTEX
  5
9EA
  8
LAYER_1
 10
111.776910012493
 20
12.85418487334186
 30
0.0
  0
VERTEX
  5
9EB
  8
LAYER_1
 10
111.7940062367089
 20
12.82554980466169
 30
0.0
  0
VERTEX
  5
9EC
  8
LAYER_1
 10
111.8116444110582
 20
12.79708164893814
 30
0.0
  0
VERTEX
  5
9ED
  8
LAYER_1
 10
111.8298206085495
 20
12.7687828605409
 30
0.0
  0
VERTEX
  5
9EE
  8
LAYER_1
 10
111.8485309021912
 20
12.74065589383962
 30
0.0
  0
VERTEX
  5
9EF
  8
LAYER_1
 10
111.8677713649919
 20
12.71270320320397
 30
0.0
  0
VERTEX
  5
9F0
  8
LAYER_1
 10
111.8875380699602
 20
12.68492724300362
 30
0.0
  0
VERTEX
  5
9F1
  8
LAYER_1
 10
111.9078270901045
 20
12.65733046760825
 30
0.0
  0
VERTEX
  5
9F2
  8
LAYER_1
 10
111.9286344984334
 20
12.62991533138751
 30
0.0
  0
VERTEX
  5
9F3
  8
LAYER_1
 10
111.9499563679555
 20
12.60268428871107
 30
0.0
  0
VERTEX
  5
9F4
  8
LAYER_1
 10
111.9717887716791
 20
12.5756397939486
 30
0.0
  0
VERTEX
  5
9F5
  8
LAYER_1
 10
111.994127782613
 20
12.54878430146978
 30
0.0
  0
VERTEX
  5
9F6
  8
LAYER_1
 10
112.0169694737656
 20
12.52212026564426
 30
0.0
  0
VERTEX
  5
9F7
  8
LAYER_1
 10
112.0403099181454
 20
12.49565014084171
 30
0.0
  0
VERTEX
  5
9F8
  8
LAYER_1
 10
112.064145188761
 20
12.46937638143181
 30
0.0
  0
VERTEX
  5
9F9
  8
LAYER_1
 10
112.088471358621
 20
12.44330144178423
 30
0.0
  0
VERTEX
  5
9FA
  8
LAYER_1
 10
112.1132845007337
 20
12.41742777626862
 30
0.0
  0
VERTEX
  5
9FB
  8
LAYER_1
 10
112.1385806881079
 20
12.39175783925465
 30
0.0
  0
VERTEX
  5
9FC
  8
LAYER_1
 10
112.1643559937519
 20
12.366294085112
 30
0.0
  0
VERTEX
  5
9FD
  8
LAYER_1
 10
112.1906064906744
 20
12.34103896821034
 30
0.0
  0
VERTEX
  5
9FE
  8
LAYER_1
 10
112.2173282518839
 20
12.31599494291932
 30
0.0
  0
VERTEX
  5
9FF
  8
LAYER_1
 10
112.2445173503889
 20
12.29116446360862
 30
0.0
  0
VERTEX
  5
A00
  8
LAYER_1
 10
112.2721698591978
 20
12.26654998464791
 30
0.0
  0
VERTEX
  5
A01
  8
LAYER_1
 10
112.3002818513194
 20
12.24215396040685
 30
0.0
  0
VERTEX
  5
A02
  8
LAYER_1
 10
112.328849399762
 20
12.21797884525511
 30
0.0
  0
VERTEX
  5
A03
  8
LAYER_1
 10
112.3578685775343
 20
12.19402709356236
 30
0.0
  0
VERTEX
  5
A04
  8
LAYER_1
 10
112.3873354576448
 20
12.17030115969827
 30
0.0
  0
VERTEX
  5
A05
  8
LAYER_1
 10
112.4172461131019
 20
12.14680349803251
 30
0.0
  0
VERTEX
  5
A06
  8
LAYER_1
 10
112.4475966169143
 20
12.12353656293473
 30
0.0
  0
VERTEX
  5
A07
  8
LAYER_1
 10
112.4783830420904
 20
12.10050280877462
 30
0.0
  0
VERTEX
  5
A08
  8
LAYER_1
 10
112.5096014616388
 20
12.07770468992183
 30
0.0
  0
VERTEX
  5
A09
  8
LAYER_1
 10
112.541247948568
 20
12.05514466074605
 30
0.0
  0
VERTEX
  5
A0A
  8
LAYER_1
 10
112.5733185758865
 20
12.03282517561692
 30
0.0
  0
VERTEX
  5
A0B
  8
LAYER_1
 10
112.605809416603
 20
12.01074868890413
 30
0.0
  0
VERTEX
  5
A0C
  8
LAYER_1
 10
112.6387165437258
 20
11.98891765497734
 30
0.0
  0
VERTEX
  5
A0D
  8
LAYER_1
 10
112.6720360302636
 20
11.96733452820621
 30
0.0
  0
VERTEX
  5
A0E
  8
LAYER_1
 10
112.7057639492249
 20
11.94600176296042
 30
0.0
  0
VERTEX
  5
A0F
  8
LAYER_1
 10
112.7398963736181
 20
11.92492181360963
 30
0.0
  0
VERTEX
  5
A10
  8
LAYER_1
 10
112.7744293764519
 20
11.90409713452351
 30
0.0
  0
VERTEX
  5
A11
  8
LAYER_1
 10
112.8093590307348
 20
11.88353018007173
 30
0.0
  0
VERTEX
  5
A12
  8
LAYER_1
 10
112.8446814094753
 20
11.86322340462396
 30
0.0
  0
VERTEX
  5
A13
  8
LAYER_1
 10
112.8803925856818
 20
11.84317926254987
 30
0.0
  0
VERTEX
  5
A14
  8
LAYER_1
 10
112.9164886323631
 20
11.82340020821911
 30
0.0
  0
VERTEX
  5
A15
  8
LAYER_1
 10
112.9529656225276
 20
11.80388869600137
 30
0.0
  0
VERTEX
  5
A16
  8
LAYER_1
 10
112.9898196291838
 20
11.7846471802663
 30
0.0
  0
VERTEX
  5
A17
  8
LAYER_1
 10
113.0270467253402
 20
11.76567811538358
 30
0.0
  0
VERTEX
  5
A18
  8
LAYER_1
 10
113.0646429840054
 20
11.74698395572287
 30
0.0
  0
VERTEX
  5
A19
  8
LAYER_1
 10
113.102604478188
 20
11.72856715565385
 30
0.0
  0
VERTEX
  5
A1A
  8
LAYER_1
 10
113.1409272808964
 20
11.71043016954617
 30
0.0
  0
VERTEX
  5
A1B
  8
LAYER_1
 10
113.1796074651392
 20
11.69257545176951
 30
0.0
  0
VERTEX
  5
A1C
  8
LAYER_1
 10
113.2186411039248
 20
11.67500545669353
 30
0.0
  0
VERTEX
  5
A1D
  8
LAYER_1
 10
113.258024270262
 20
11.65772263868791
 30
0.0
  0
VERTEX
  5
A1E
  8
LAYER_1
 10
113.2977530371591
 20
11.64072945212231
 30
0.0
  0
VERTEX
  5
A1F
  8
LAYER_1
 10
113.3378234776247
 20
11.62402835136639
 30
0.0
  0
VERTEX
  5
A20
  8
LAYER_1
 10
113.3782316646674
 20
11.60762179078984
 30
0.0
  0
VERTEX
  5
A21
  8
LAYER_1
 10
113.4189736712956
 20
11.5915122247623
 30
0.0
  0
VERTEX
  5
A22
  8
LAYER_1
 10
113.460045570518
 20
11.57570210765346
 30
0.0
  0
VERTEX
  5
A23
  8
LAYER_1
 10
113.501443435343
 20
11.56019389383298
 30
0.0
  0
VERTEX
  5
A24
  8
LAYER_1
 10
113.5431633387791
 20
11.54499003767052
 30
0.0
  0
VERTEX
  5
A25
  8
LAYER_1
 10
113.5852013538349
 20
11.53009299353576
 30
0.0
  0
VERTEX
  5
A26
  8
LAYER_1
 10
113.627553553519
 20
11.51550521579837
 30
0.0
  0
VERTEX
  5
A27
  8
LAYER_1
 10
113.6702160108398
 20
11.501229158828
 30
0.0
  0
VERTEX
  5
A28
  8
LAYER_1
 10
113.713184798806
 20
11.48726727699433
 30
0.0
  0
VERTEX
  5
A29
  8
LAYER_1
 10
113.7564559904259
 20
11.47362202466703
 30
0.0
  0
VERTEX
  5
A2A
  8
LAYER_1
 10
113.8000256587082
 20
11.46029585621577
 30
0.0
  0
VERTEX
  5
A2B
  8
LAYER_1
 10
113.8438898766614
 20
11.4472912260102
 30
0.0
  0
VERTEX
  5
A2C
  8
LAYER_1
 10
113.888044717294
 20
11.43461058842001
 30
0.0
  0
VERTEX
  5
A2D
  8
LAYER_1
 10
113.9324862536145
 20
11.42225639781485
 30
0.0
  0
VERTEX
  5
A2E
  8
LAYER_1
 10
113.9772105586316
 20
11.4102311085644
 30
0.0
  0
VERTEX
  5
A2F
  8
LAYER_1
 10
114.0222137053536
 20
11.39853717503832
 30
0.0
  0
VERTEX
  5
A30
  8
LAYER_1
 10
114.0674917667892
 20
11.38717705160629
 30
0.0
  0
VERTEX
  5
A31
  8
LAYER_1
 10
114.1130408159469
 20
11.37615319263796
 30
0.0
  0
VERTEX
  5
A32
  8
LAYER_1
 10
114.1588569258352
 20
11.36546805250301
 30
0.0
  0
VERTEX
  5
A33
  8
LAYER_1
 10
114.2049361694626
 20
11.3551240855711
 30
0.0
  0
VERTEX
  5
A34
  8
LAYER_1
 10
114.2512746198377
 20
11.34512374621191
 30
0.0
  0
VERTEX
  5
A35
  8
LAYER_1
 10
114.297868349969
 20
11.33546948879509
 30
0.0
  0
VERTEX
  5
A36
  8
LAYER_1
 10
114.3447134328649
 20
11.32616376769033
 30
0.0
  0
VERTEX
  5
A37
  8
LAYER_1
 10
114.3918059415342
 20
11.31720903726728
 30
0.0
  0
VERTEX
  5
A38
  8
LAYER_1
 10
114.4391419489853
 20
11.30860775189562
 30
0.0
  0
VERTEX
  5
A39
  8
LAYER_1
 10
114.4867175282267
 20
11.30036236594501
 30
0.0
  0
VERTEX
  5
A3A
  8
LAYER_1
 10
114.534528752267
 20
11.29247533378511
 30
0.0
  0
VERTEX
  5
A3B
  8
LAYER_1
 10
114.5825716941146
 20
11.28494910978561
 30
0.0
  0
VERTEX
  5
A3C
  8
LAYER_1
 10
114.6308424267782
 20
11.27778614831616
 30
0.0
  0
VERTEX
  5
A3D
  8
LAYER_1
 10
114.6793370232662
 20
11.27098890374643
 30
0.0
  0
VERTEX
  5
A3E
  8
LAYER_1
 10
114.7280515565872
 20
11.26455983044609
 30
0.0
  0
VERTEX
  5
A3F
  8
LAYER_1
 10
114.7769820997498
 20
11.25850138278481
 30
0.0
  0
VERTEX
  5
A40
  8
LAYER_1
 10
114.8261247257624
 20
11.25281601513226
 30
0.0
  0
VERTEX
  5
A41
  8
LAYER_1
 10
114.8754755076335
 20
11.2475061818581
 30
0.0
  0
VERTEX
  5
A42
  8
LAYER_1
 10
114.9250305183718
 20
11.24257433733201
 30
0.0
  0
VERTEX
  5
A43
  8
LAYER_1
 10
114.9747858309857
 20
11.23802293592365
 30
0.0
  0
VERTEX
  5
A44
  8
LAYER_1
 10
115.0247375184838
 20
11.23385443200268
 30
0.0
  0
VERTEX
  5
A45
  8
LAYER_1
 10
115.0748816538745
 20
11.23007127993877
 30
0.0
  0
VERTEX
  5
A46
  8
LAYER_1
 10
115.1252143101666
 20
11.2266759341016
 30
0.0
  0
VERTEX
  5
A47
  8
LAYER_1
 10
115.1757315603683
 20
11.22367084886084
 30
0.0
  0
VERTEX
  5
A48
  8
LAYER_1
 10
115.2264294774885
 20
11.22105847858614
 30
0.0
  0
VERTEX
  5
A49
  8
LAYER_1
 10
115.2773041345354
 20
11.21884127764718
 30
0.0
  0
VERTEX
  5
A4A
  8
LAYER_1
 10
115.3283516045177
 20
11.21702170041362
 30
0.0
  0
VERTEX
  5
A4B
  8
LAYER_1
 10
115.3795679604438
 20
11.21560220125513
 30
0.0
  0
VERTEX
  5
A4C
  8
LAYER_1
 10
115.4309492753224
 20
11.21458523454139
 30
0.0
  0
VERTEX
  5
A4D
  8
LAYER_1
 10
115.482491622162
 20
11.21397325464205
 30
0.0
  0
SEQEND
  5
B0D
  8
LAYER_1
  0
POLYLINE
  5
CE
  8
LAYER_1
 66
     1
 10
0.0
 20
0.0
 30
0.0
 70
     1
  0
VERTEX
  5
A4E
  8
LAYER_1
 10
112.2529410739711
 20
11.41686871592679
 30
0.0
 42
0.4142135623730951
  0
VERTEX
  5
A4F
  8
LAYER_1
 10
112.1123410739711
 20
11.27626871592679
 30
0.0
 42
0.4142135623730951
  0
VERTEX
  5
A50
  8
LAYER_1
 10
112.2529410739711
 20
11.13566871592679
 30
0.0
 42
0.4142135623730951
  0
VERTEX
  5
A51
  8
LAYER_1
 10
112.3935410739711
 20
11.27626871592679
 30
0.0
 42
0.4142135623730951
  0
SEQEND
  5
B0E
  8
LAYER_1
  0
POLYLINE
  5
CF
  8
LAYER_1
 66
     1
 10
0.0
 20
0.0
 30
0.0
 70
     1
  0
VERTEX
  5
A52
  8
LAYER_1
 10
112.2529410739711
 20
16.04186871592679
 30
0.0
 42
0.4142135623730951
  0
VERTEX
  5
A53
  8
LAYER_1
 10
112.1123410739711
 20
15.90126871592679
 30
0.0
 42
0.4142135623730951
  0
VERTEX
  5
A54
  8
LAYER_1
 10
112.2529410739711
 20
15.76066871592679
 30
0.0
 42
0.4142135623730951
  0
VERTEX
  5
A55
  8
LAYER_1
 10
112.3935410739711
 20
15.90126871592679
 30
0.0
 42
0.4142135623730951
  0
SEQEND
  5
B0F
  8
LAYER_1
  0
POLYLINE
  5
D0
  8
LAYER_1
 66
     1
 10
0.0
 20
0.0
 30
0.0
 70
     1
  0
VERTEX
  5
A56
  8
LAYER_1
 10
118.8779410739711
 20
16.04186871592679
 30
0.0
 42
0.4142135623730951
  0
VERTEX
  5
A57
  8
LAYER_1
 10
118.7373410739711
 20
15.90126871592679
 30
0.0
 42
0.4142135623730951
  0
VERTEX
  5
A58
  8
LAYER_1
 10
118.8779410739711
 20
15.76066871592679
 30
0.0
 42
0.4142135623730951
  0
VERTEX
  5
A59
  8
LAYER_1
 10
119.0185410739711
 20
15.90126871592679
 30
0.0
 42
0.4142135623730951
  0
SEQEND
  5
B10
  8
LAYER_1
  0
POLYLINE
  5
D1
  8
LAYER_1
 66
     1
 10
0.0
 20
0.0
 30
0.0
 70
     1
  0
VERTEX
  5
A5A
  8
LAYER_1
 10
118.8779410739711
 20
11.41686871592679
 30
0.0
 42
0.4142135623730951
  0
VERTEX
  5
A5B
  8
LAYER_1
 10
118.7373410739711
 20
11.27626871592679
 30
0.0
 42
0.4142135623730951
  0
VERTEX
  5
A5C
  8
LAYER_1
 10
118.8779410739711
 20
11.13566871592679
 30
0.0
 42
0.4142135623730951
  0
VERTEX
  5
A5D
  8
LAYER_1
 10
119.0185410739711
 20
11.27626871592679
 30
0.0
 42
0.4142135623730951
  0
SEQEND
  5
B11
  8
LAYER_1
  0
POLYLINE
  5
D2
  8
LAYER_1
 66
     1
 10
0.0
 20
0.0
 30
0.0
 70
     1
  0
VERTEX
  5
A5E
  8
LAYER_1
 10
97.78419107397106
 20
25.34376871592679
 30
0.0
  0
VERTEX
  5
A5F
  8
LAYER_1
 10
121.4091910739711
 20
25.34376871592679
 30
0.0
  0
VERTEX
  5
A60
  8
LAYER_1
 10
121.4091910739711
 20
46.46876871592679
 30
0.0
  0
VERTEX
  5
A61
  8
LAYER_1
 10
97.78419107397106
 20
46.46876871592679
 30
0.0
  0
SEQEND
  5
B12
  8
LAYER_1
  0
POLYLINE
  5
D3
  8
LAYER_1
 66
     1
 10
0.0
 20
0.0
 30
0.0
 70
     1
  0
VERTEX
  5
A62
  8
LAYER_1
 10
97.65919107397106
 20
25.21876871592679
 30
0.0
  0
VERTEX
  5
A63
  8
LAYER_1
 10
98.03419107397106
 20
25.21876871592679
 30
0.0
  0
VERTEX
  5
A64
  8
LAYER_1
 10
98.03419107397106
 20
46.59376871592679
 30
0.0
  0
VERTEX
  5
A65
  8
LAYER_1
 10
97.65919107397106
 20
46.59376871592679
 30
0.0
  0
SEQEND
  5
B13
  8
LAYER_1
  0
POLYLINE
  5
D4
  8
LAYER_1
 66
     1
 10
0.0
 20
0.0
 30
0.0
 70
     1
  0
VERTEX
  5
A66
  8
LAYER_1
 10
121.1591910739711
 20
25.21876871592679
 30
0.0
  0
VERTEX
  5
A67
  8
LAYER_1
 10
121.5341910739711
 20
25.21876871592679
 30
0.0
  0
VERTEX
  5
A68
  8
LAYER_1
 10
121.5341910739711
 20
46.59376871592679
 30
0.0
  0
VERTEX
  5
A69
  8
LAYER_1
 10
121.1591910739711
 20
46.59376871592679
 30
0.0
  0
SEQEND
  5
B14
  8
LAYER_1
  0
POLYLINE
  5
D5
  8
LAYER_1
 66
     1
 10
0.0
 20
0.0
 30
0.0
 70
     1
  0
VERTEX
  5
A6A
  8
LAYER_1
 10
122.5341910739711
 20
4.463368715926791
 30
0.0
  0
VERTEX
  5
A6B
  8
LAYER_1
 10
145.534191073971
 20
4.463368715926791
 30
0.0
  0
VERTEX
  5
A6C
  8
LAYER_1
 10
145.534191073971
 20
42.08836871592679
 30
0.0
  0
VERTEX
  5
A6D
  8
LAYER_1
 10
122.5341910739711
 20
42.08836871592679
 30
0.0
  0
SEQEND
  5
B15
  8
LAYER_1
  0
POLYLINE
  5
D6
  8
LAYER_1
 66
     1
 10
0.0
 20
0.0
 30
0.0
 70
     1
  0
VERTEX
  5
A6E
  8
LAYER_1
 10
122.4091910739711
 20
4.338368715926791
 30
0.0
  0
VERTEX
  5
A6F
  8
LAYER_1
 10
145.659191073971
 20
4.338368715926791
 30
0.0
  0
VERTEX
  5
A70
  8
LAYER_1
 10
145.659191073971
 20
4.713368715926791
 30
0.0
  0
VERTEX
  5
A71
  8
LAYER_1
 10
122.4091910739711
 20
4.713368715926791
 30
0.0
  0
SEQEND
  5
B16
  8
LAYER_1
  0
POLYLINE
  5
D7
  8
LAYER_1
 66
     1
 10
0.0
 20
0.0
 30
0.0
 70
     1
  0
VERTEX
  5
A72
  8
LAYER_1
 10
134.034191073971
 20
41.46336871592679
 30
0.0
 42
0.4142135623730951
  0
VERTEX
  5
A73
  8
LAYER_1
 10
133.659191073971
 20
41.08836871592679
 30
0.0
 42
0.4142135623730951
  0
VERTEX
  5
A74
  8
LAYER_1
 10
134.034191073971
 20
40.71336871592679
 30
0.0
 42
0.4142135623730951
  0
VERTEX
  5
A75
  8
LAYER_1
 10
134.409191073971
 20
41.08836871592679
 30
0.0
 42
0.4142135623730951
  0
SEQEND
  5
B17
  8
LAYER_1
  0
POLYLINE
  5
D8
  8
LAYER_1
 66
     1
 10
0.0
 20
0.0
 30
0.0
 70
     1
  0
VERTEX
  5
A76
  8
LAYER_1
 10
134.034191073971
 20
41.71336871592679
 30
0.0
 42
0.4142135623730951
  0
VERTEX
  5
A77
  8
LAYER_1
 10
133.409191073971
 20
41.08836871592679
 30
0.0
 42
0.4142135623730951
  0
VERTEX
  5
A78
  8
LAYER_1
 10
134.034191073971
 20
40.46336871592679
 30
0.0
 42
0.4142135623730951
  0
VERTEX
  5
A79
  8
LAYER_1
 10
134.659191073971
 20
41.08836871592679
 30
0.0
 42
0.4142135623730951
  0
SEQEND
  5
B18
  8
LAYER_1
  0
POLYLINE
  5
D9
  8
LAYER_1
 66
     1
 10
0.0
 20
0.0
 30
0.0
 70
     1
  0
VERTEX
  5
A7A
  8
LAYER_1
 10
125.5341910739711
 20
8.90086871592679
 30
0.0
 42
0.4142135623730951
  0
VERTEX
  5
A7B
  8
LAYER_1
 10
126.3466910739711
 20
8.08836871592679
 30
0.0
  0
VERTEX
  5
A7C
  8
LAYER_1
 10
129.721691073971
 20
8.08836871592679
 30
0.0
 42
0.4142135623730951
  0
VERTEX
  5
A7D
  8
LAYER_1
 10
130.534191073971
 20
8.90086871592679
 30
0.0
 42
0.4142135623730951
  0
VERTEX
  5
A7E
  8
LAYER_1
 10
129.721691073971
 20
9.71336871592679
 30
0.0
  0
VERTEX
  5
A7F
  8
LAYER_1
 10
126.3466910739711
 20
9.71336871592679
 30
0.0
 42
0.4142135623730951
  0
SEQEND
  5
B19
  8
LAYER_1
  0
POLYLINE
  5
DA
  8
LAYER_1
 66
     1
 10
0.0
 20
0.0
 30
0.0
 70
     1
  0
VERTEX
  5
A80
  8
LAYER_1
 10
125.5341910739711
 20
11.15086871592679
 30
0.0
 42
0.4142135623730951
  0
VERTEX
  5
A81
  8
LAYER_1
 10
126.3466910739711
 20
10.33836871592679
 30
0.0
  0
VERTEX
  5
A82
  8
LAYER_1
 10
129.721691073971
 20
10.33836871592679
 30
0.0
 42
0.4142135623730951
  0
VERTEX
  5
A83
  8
LAYER_1
 10
130.534191073971
 20
11.15086871592679
 30
0.0
 42
0.4142135623730951
  0
VERTEX
  5
A84
  8
LAYER_1
 10
129.721691073971
 20
11.96336871592679
 30
0.0
  0
VERTEX
  5
A85
  8
LAYER_1
 10
126.3466910739711
 20
11.96336871592679
 30
0.0
 42
0.4142135623730951
  0
SEQEND
  5
B1A
  8
LAYER_1
  0
POLYLINE
  5
DB
  8
LAYER_1
 66
     1
 10
0.0
 20
0.0
 30
0.0
 70
     1
  0
VERTEX
  5
A86
  8
LAYER_1
 10
137.534191073971
 20
8.90086871592679
 30
0.0
 42
0.4142135623730951
  0
VERTEX
  5
A87
  8
LAYER_1
 10
138.346691073971
 20
8.08836871592679
 30
0.0
  0
VERTEX
  5
A88
  8
LAYER_1
 10
141.721691073971
 20
8.08836871592679
 30
0.0
 42
0.4142135623730951
  0
VERTEX
  5
A89
  8
LAYER_1
 10
142.534191073971
 20
8.90086871592679
 30
0.0
 42
0.4142135623730951
  0
VERTEX
  5
A8A
  8
LAYER_1
 10
141.721691073971
 20
9.71336871592679
 30
0.0
  0
VERTEX
  5
A8B
  8
LAYER_1
 10
138.346691073971
 20
9.71336871592679
 30
0.0
 42
0.4142135623730951
  0
SEQEND
  5
B1B
  8
LAYER_1
  0
POLYLINE
  5
DC
  8
LAYER_1
 66
     1
 10
0.0
 20
0.0
 30
0.0
 70
     1
  0
VERTEX
  5
A8C
  8
LAYER_1
 10
137.534191073971
 20
11.15086871592679
 30
0.0
 42
0.4142135623730951
  0
VERTEX
  5
A8D
  8
LAYER_1
 10
138.346691073971
 20
10.33836871592679
 30
0.0
  0
VERTEX
  5
A8E
  8
LAYER_1
 10
141.721691073971
 20
10.33836871592679
 30
0.0
 42
0.4142135623730951
  0
VERTEX
  5
A8F
  8
LAYER_1
 10
142.534191073971
 20
11.15086871592679
 30
0.0
 42
0.4142135623730951
  0
VERTEX
  5
A90
  8
LAYER_1
 10
141.721691073971
 20
11.96336871592679
 30
0.0
  0
VERTEX
  5
A91
  8
LAYER_1
 10
138.346691073971
 20
11.96336871592679
 30
0.0
 42
0.4142135623730951
  0
SEQEND
  5
B1C
  8
LAYER_1
  0
POLYLINE
  5
DD
  8
LAYER_1
 66
     1
 10
0.0
 20
0.0
 30
0.0
 70
     1
  0
VERTEX
  5
A92
  8
LAYER_1
 10
125.5341910739711
 20
35.65086871592679
 30
0.0
 42
0.4142135623730951
  0
VERTEX
  5
A93
  8
LAYER_1
 10
126.3466910739711
 20
34.83836871592679
 30
0.0
  0
VERTEX
  5
A94
  8
LAYER_1
 10
129.721691073971
 20
34.83836871592679
 30
0.0
 42
0.4142135623730951
  0
VERTEX
  5
A95
  8
LAYER_1
 10
130.534191073971
 20
35.65086871592679
 30
0.0
 42
0.4142135623730951
  0
VERTEX
  5
A96
  8
LAYER_1
 10
129.721691073971
 20
36.46336871592679
 30
0.0
  0
VERTEX
  5
A97
  8
LAYER_1
 10
126.3466910739711
 20
36.46336871592679
 30
0.0
 42
0.4142135623730951
  0
SEQEND
  5
B1D
  8
LAYER_1
  0
POLYLINE
  5
DE
  8
LAYER_1
 66
     1
 10
0.0
 20
0.0
 30
0.0
 70
     1
  0
VERTEX
  5
A98
  8
LAYER_1
 10
125.5341910739711
 20
37.90086871592679
 30
0.0
 42
0.4142135623730951
  0
VERTEX
  5
A99
  8
LAYER_1
 10
126.3466910739711
 20
37.08836871592679
 30
0.0
  0
VERTEX
  5
A9A
  8
LAYER_1
 10
129.721691073971
 20
37.08836871592679
 30
0.0
 42
0.4142135623730951
  0
VERTEX
  5
A9B
  8
LAYER_1
 10
130.534191073971
 20
37.90086871592679
 30
0.0
 42
0.4142135623730951
  0
VERTEX
  5
A9C
  8
LAYER_1
 10
129.721691073971
 20
38.71336871592679
 30
0.0
  0
VERTEX
  5
A9D
  8
LAYER_1
 10
126.3466910739711
 20
38.71336871592679
 30
0.0
 42
0.4142135623730951
  0
SEQEND
  5
B1E
  8
LAYER_1
  0
POLYLINE
  5
DF
  8
LAYER_1
 66
     1
 10
0.0
 20
0.0
 30
0.0
 70
     1
  0
VERTEX
  5
A9E
  8
LAYER_1
 10
137.534191073971
 20
35.65086871592679
 30
0.0
 42
0.4142135623730951
  0
VERTEX
  5
A9F
  8
LAYER_1
 10
138.346691073971
 20
34.83836871592679
 30
0.0
  0
VERTEX
  5
AA0
  8
LAYER_1
 10
141.721691073971
 20
34.83836871592679
 30
0.0
 42
0.4142135623730951
  0
VERTEX
  5
AA1
  8
LAYER_1
 10
142.534191073971
 20
35.65086871592679
 30
0.0
 42
0.4142135623730951
  0
VERTEX
  5
AA2
  8
LAYER_1
 10
141.721691073971
 20
36.46336871592679
 30
0.0
  0
VERTEX
  5
AA3
  8
LAYER_1
 10
138.346691073971
 20
36.46336871592679
 30
0.0
 42
0.4142135623730951
  0
SEQEND
  5
B1F
  8
LAYER_1
  0
POLYLINE
  5
E0
  8
LAYER_1
 66
     1
 10
0.0
 20
0.0
 30
0.0
 70
     1
  0
VERTEX
  5
AA4
  8
LAYER_1
 10
137.534191073971
 20
37.90086871592679
 30
0.0
 42
0.4142135623730951
  0
VERTEX
  5
AA5
  8
LAYER_1
 10
138.346691073971
 20
37.08836871592679
 30
0.0
  0
VERTEX
  5
AA6
  8
LAYER_1
 10
141.721691073971
 20
37.08836871592679
 30
0.0
 42
0.4142135623730951
  0
VERTEX
  5
AA7
  8
LAYER_1
 10
142.534191073971
 20
37.90086871592679
 30
0.0
 42
0.4142135623730951
  0
VERTEX
  5
AA8
  8
LAYER_1
 10
141.721691073971
 20
38.71336871592679
 30
0.0
  0
VERTEX
  5
AA9
  8
LAYER_1
 10
138.346691073971
 20
38.71336871592679
 30
0.0
 42
0.4142135623730951
  0
SEQEND
  5
B20
  8
LAYER_1
  0
ENDSEC
  0
EOF
