  0
SECTION
  2
HEADER
  9
$ACADVER
  1
AC1009
  9
$DWGCODEPAGE
  3
ansi_1252
  9
$INSBASE
 10
0.0
 20
0.0
 30
0.0
  9
$EXTMIN
 10
0.8697410754689372
 20
0.9459056167973259
 30
0.0
  9
$EXTMAX
 10
125.1707258494693
 20
46.49342440201962
 30
0.0
  9
$LIMMIN
 10
0.0
 20
0.0
  9
$LIMMAX
 10
12.0
 20
9.0
  9
$ORTHOMODE
 70
     0
  9
$REGENMODE
 70
     1
  9
$FILLMODE
 70
     1
  9
$QTEXTMODE
 70
     0
  9
$MIRRTEXT
 70
     1
  9
$DRAGMODE
 70
     2
  9
$LTSCALE
 40
1.0
  9
$OSMODE
 70
    37
  9
$ATTMODE
 70
     1
  9
$TEXTSIZE
 40
0.2
  9
$TRACEWID
 40
0.05
  9
$TEXTSTYLE
  7
STANDARD
  9
$CLAYER
  8
0
  9
$CELTYPE
  6
BYLAYER
  9
$CECOLOR
 62
   256
  9
$DIMSCALE
 40
1.0
  9
$DIMASZ
 40
0.18
  9
$DIMEXO
 40
0.0625
  9
$DIMDLI
 40
0.38
  9
$DIMRND
 40
0.0
  9
$DIMDLE
 40
0.0
  9
$DIMEXE
 40
0.18
  9
$DIMTP
 40
0.0
  9
$DIMTM
 40
0.0
  9
$DIMTXT
 40
0.18
  9
$DIMCEN
 40
0.09
  9
$DIMTSZ
 40
0.0
  9
$DIMTOL
 70
     0
  9
$DIMLIM
 70
     0
  9
$DIMTIH
 70
     1
  9
$DIMTOH
 70
     1
  9
$DIMSE1
 70
     0
  9
$DIMSE2
 70
     0
  9
$DIMTAD
 70
     0
  9
$DIMZIN
 70
     0
  9
$DIMBLK
  1

  9
$DIMASO
 70
     1
  9
$DIMSHO
 70
     1
  9
$DIMPOST
  1

  9
$DIMAPOST
  1

  9
$DIMALT
 70
     0
  9
$DIMALTD
 70
     2
  9
$DIMALTF
 40
25.4
  9
$DIMLFAC
 40
1.0
  9
$DIMTOFL
 70
     0
  9
$DIMTVP
 40
0.0
  9
$DIMTIX
 70
     0
  9
$DIMSOXD
 70
     0
  9
$DIMSAH
 70
     0
  9
$DIMBLK1
  1

  9
$DIMBLK2
  1

  9
$DIMSTYLE
  2
STANDARD
  9
$DIMCLRD
 70
     0
  9
$DIMCLRE
 70
     0
  9
$DIMCLRT
 70
     0
  9
$DIMTFAC
 40
1.0
  9
$DIMGAP
 40
0.09
  9
$LUNITS
 70
     2
  9
$LUPREC
 70
     4
  9
$SKETCHINC
 40
0.1
  9
$FILLETRAD
 40
0.5
  9
$AUNITS
 70
     0
  9
$AUPREC
 70
     0
  9
$MENU
  1
.
  9
$ELEVATION
 40
0.0
  9
$PELEVATION
 40
0.0
  9
$THICKNESS
 40
0.0
  9
$LIMCHECK
 70
     0
  9
$CHAMFERA
 40
0.0
  9
$CHAMFERB
 40
0.0
  9
$SKPOLY
 70
     0
  9
$TDCREATE
 40
2454910.5
  9
$TDUPDATE
 40
2457528.565523298
  9
$TDINDWG
 40
0.0000000116
  9
$TDUSRTIMER
 40
0.0000000116
  9
$USRTIMER
 70
     1
  9
$ANGBASE
 50
0.0
  9
$ANGDIR
 70
     0
  9
$PDMODE
 70
     0
  9
$PDSIZE
 40
0.0
  9
$PLINEWID
 40
0.0
  9
$COORDS
 70
     1
  9
$SPLFRAME
 70
     0
  9
$SPLINETYPE
 70
     6
  9
$SPLINESEGS
 70
     8
  9
$ATTDIA
 70
     0
  9
$ATTREQ
 70
     1
  9
$HANDLING
 70
     1
  9
$HANDSEED
  5
28A
  9
$SURFTAB1
 70
     6
  9
$SURFTAB2
 70
     6
  9
$SURFTYPE
 70
     6
  9
$SURFU
 70
     6
  9
$SURFV
 70
     6
  9
$UCSNAME
  2

  9
$UCSORG
 10
0.0
 20
0.0
 30
0.0
  9
$UCSXDIR
 10
1.0
 20
0.0
 30
0.0
  9
$UCSYDIR
 10
0.0
 20
1.0
 30
0.0
  9
$PUCSNAME
  2

  9
$PUCSORG
 10
0.0
 20
0.0
 30
0.0
  9
$PUCSXDIR
 10
1.0
 20
0.0
 30
0.0
  9
$PUCSYDIR
 10
0.0
 20
1.0
 30
0.0
  9
$USERI1
 70
     0
  9
$USERI2
 70
     0
  9
$USERI3
 70
     0
  9
$USERI4
 70
     0
  9
$USERI5
 70
     0
  9
$USERR1
 40
0.0
  9
$USERR2
 40
0.0
  9
$USERR3
 40
0.0
  9
$USERR4
 40
0.0
  9
$USERR5
 40
0.0
  9
$WORLDVIEW
 70
     1
  9
$SHADEDGE
 70
     3
  9
$SHADEDIF
 70
    70
  9
$TILEMODE
 70
     1
  9
$MAXACTVP
 70
    64
  9
$PLIMCHECK
 70
     0
  9
$PEXTMIN
 10
1.000000000000000E+20
 20
1.000000000000000E+20
 30
1.000000000000000E+20
  9
$PEXTMAX
 10
-1.000000000000000E+20
 20
-1.000000000000000E+20
 30
-1.000000000000000E+20
  9
$PLIMMIN
 10
0.0
 20
0.0
  9
$PLIMMAX
 10
12.0
 20
9.0
  9
$UNITMODE
 70
     0
  9
$VISRETAIN
 70
     1
  9
$PLINEGEN
 70
     0
  9
$PSLTSCALE
 70
     1
  0
ENDSEC
  0
SECTION
  2
TABLES
  0
TABLE
  2
VPORT
 70
     1
  0
VPORT
  2
*ACTIVE
 70
     0
 10
0.0
 20
0.0
 11
1.0
 21
1.0
 12
10.42990654205607
 22
4.5
 13
0.0
 23
0.0
 14
0.5
 24
0.5
 15
0.5
 25
0.5
 16
0.0
 26
0.0
 36
1.0
 17
0.0
 27
0.0
 37
0.0
 40
9.0
 41
1.972972972850329
 42
50.0
 43
0.0
 44
0.0
 50
0.0
 51
0.0
 71
     0
 72
   100
 73
     1
 74
     3
 75
     0
 76
     0
 77
     0
 78
     0
  0
ENDTAB
  0
TABLE
  2
LTYPE
 70
     2
  0
LTYPE
  2
CONTINUOUS
 70
     0
  3
Solid line
 72
    65
 73
     0
 40
0.0
  0
LTYPE
  2
CONTINUOUS2
 70
     0
  3
Solid Line
 72
    65
 73
     0
 40
0.0
  0
ENDTAB
  0
TABLE
  2
LAYER
 70
     2
  0
LAYER
  2
0
 70
     0
 62
     7
  6
CONTINUOUS
  0
LAYER
  2
LAYER_1
 70
     0
 62
    18
  6
CONTINUOUS
  0
ENDTAB
  0
TABLE
  2
STYLE
 70
     1
  0
STYLE
  2
STANDARD
 70
     0
 40
0.0
 41
1.0
 50
0.0
 71
     0
 42
0.2
  3
txt
  4

  0
ENDTAB
  0
TABLE
  2
VIEW
 70
     0
  0
ENDTAB
  0
TABLE
  2
UCS
 70
     0
  0
ENDTAB
  0
TABLE
  2
APPID
 70
     1
  0
APPID
  2
ACAD
 70
     0
  0
ENDTAB
  0
TABLE
  2
DIMSTYLE
 70
     1
  0
DIMSTYLE
  2
STANDARD
 70
     0
  3

  4

  5

  6

  7

 40
1.0
 41
0.18
 42
0.0625
 43
0.38
 44
0.18
 45
0.0
 46
0.0
 47
0.0
 48
0.0
140
0.18
141
0.09
142
0.0
143
25.4
144
1.0
145
0.0
146
1.0
147
0.09
 71
     0
 72
     0
 73
     1
 74
     1
 75
     0
 76
     0
 77
     0
 78
     0
170
     0
171
     2
172
     0
173
     0
174
     0
175
     0
176
     0
177
     0
178
     0
  0
ENDTAB
  0
ENDSEC
  0
SECTION
  2
BLOCKS
  0
BLOCK
  8
0
  2
$MODEL_SPACE
 70
     0
 10
0.0
 20
0.0
 30
0.0
  3
$MODEL_SPACE
  1

  0
ENDBLK
  5
21
  8
0
  0
BLOCK
 67
     1
  8
0
  2
$PAPER_SPACE
 70
     0
 10
0.0
 20
0.0
 30
0.0
  3
$PAPER_SPACE
  1

  0
ENDBLK
  5
1D
 67
     1
  8
0
  0
ENDSEC
  0
SECTION
  2
ENTITIES
  0
POLYLINE
  5
70
  8
LAYER_1
 66
     1
 10
0.0
 20
0.0
 30
0.0
 70
     1
  0
VERTEX
  5
C3
  8
LAYER_1
 10
0.9044879331016524
 20
0.9459056167973259
 30
0.0
  0
VERTEX
  5
C4
  8
LAYER_1
 10
52.40448793310333
 20
0.9459056167973259
 30
0.0
  0
VERTEX
  5
C5
  8
LAYER_1
 10
52.40448793310334
 20
16.6334056167986
 30
0.0
  0
VERTEX
  5
C6
  8
LAYER_1
 10
7.654487933103042
 20
22.57090561680153
 30
0.0
  0
VERTEX
  5
C7
  8
LAYER_1
 10
0.9044879331016507
 20
22.57090561679731
 30
0.0
  0
SEQEND
  5
23E
  8
LAYER_1
  0
POLYLINE
  5
71
  8
LAYER_1
 66
     1
 10
0.0
 20
0.0
 30
0.0
 70
     1
  0
VERTEX
  5
C8
  8
LAYER_1
 10
9.716987933101652
 20
21.57090561679733
 30
0.0
 42
0.4142135623730951
  0
VERTEX
  5
C9
  8
LAYER_1
 10
9.466987933101652
 20
21.32090561679733
 30
0.0
 42
0.4142135623730951
  0
VERTEX
  5
CA
  8
LAYER_1
 10
9.716987933101652
 20
21.07090561679733
 30
0.0
 42
0.4142135623730951
  0
VERTEX
  5
CB
  8
LAYER_1
 10
9.966987933101652
 20
21.32090561679733
 30
0.0
 42
0.4142135623730951
  0
SEQEND
  5
23F
  8
LAYER_1
  0
POLYLINE
  5
72
  8
LAYER_1
 66
     1
 10
0.0
 20
0.0
 30
0.0
 70
     1
  0
VERTEX
  5
CC
  8
LAYER_1
 10
9.716987933101652
 20
21.85215561679733
 30
0.0
 42
0.4142135623730951
  0
VERTEX
  5
CD
  8
LAYER_1
 10
9.185737933101652
 20
21.32090561679733
 30
0.0
 42
0.4142135623730951
  0
VERTEX
  5
CE
  8
LAYER_1
 10
9.716987933101652
 20
20.78965561679733
 30
0.0
 42
0.4142135623730951
  0
VERTEX
  5
CF
  8
LAYER_1
 10
10.24823793310165
 20
21.32090561679733
 30
0.0
 42
0.4142135623730951
  0
SEQEND
  5
240
  8
LAYER_1
  0
POLYLINE
  5
73
  8
LAYER_1
 66
     1
 10
0.0
 20
0.0
 30
0.0
 70
     1
  0
VERTEX
  5
D0
  8
LAYER_1
 10
48.90448793310165
 20
15.82090561679733
 30
0.0
 42
0.4142135623730951
  0
VERTEX
  5
D1
  8
LAYER_1
 10
48.52948793310165
 20
15.44590561679733
 30
0.0
 42
0.4142135623730951
  0
VERTEX
  5
D2
  8
LAYER_1
 10
48.90448793310165
 20
15.07090561679733
 30
0.0
 42
0.4142135623730951
  0
VERTEX
  5
D3
  8
LAYER_1
 10
49.27948793310165
 20
15.44590561679733
 30
0.0
 42
0.4142135623730951
  0
SEQEND
  5
241
  8
LAYER_1
  0
POLYLINE
  5
74
  8
LAYER_1
 66
     1
 10
0.0
 20
0.0
 30
0.0
 70
     1
  0
VERTEX
  5
D4
  8
LAYER_1
 10
48.90448793310165
 20
16.07090561679733
 30
0.0
 42
0.4142135623730951
  0
VERTEX
  5
D5
  8
LAYER_1
 10
48.27948793310165
 20
15.44590561679733
 30
0.0
 42
0.4142135623730951
  0
VERTEX
  5
D6
  8
LAYER_1
 10
48.90448793310165
 20
14.82090561679733
 30
0.0
 42
0.4142135623730951
  0
VERTEX
  5
D7
  8
LAYER_1
 10
49.52948793310165
 20
15.44590561679733
 30
0.0
 42
0.4142135623730951
  0
SEQEND
  5
242
  8
LAYER_1
  0
POLYLINE
  5
75
  8
LAYER_1
 66
     1
 10
0.0
 20
0.0
 30
0.0
 70
     1
  0
VERTEX
  5
D8
  8
LAYER_1
 10
18.02948793310165
 20
14.22715561679733
 30
0.0
 42
0.4142135623730951
  0
VERTEX
  5
D9
  8
LAYER_1
 10
17.93573793310165
 20
14.13340561679733
 30
0.0
 42
0.4142135623730951
  0
VERTEX
  5
DA
  8
LAYER_1
 10
18.02948793310165
 20
14.03965561679733
 30
0.0
 42
0.4142135623730951
  0
VERTEX
  5
DB
  8
LAYER_1
 10
18.12323793310165
 20
14.13340561679733
 30
0.0
 42
0.4142135623730951
  0
SEQEND
  5
243
  8
LAYER_1
  0
POLYLINE
  5
76
  8
LAYER_1
 66
     1
 10
0.0
 20
0.0
 30
0.0
 70
     1
  0
VERTEX
  5
DC
  8
LAYER_1
 10
18.02948793310165
 20
15.41465561679733
 30
0.0
 42
0.4142135623730951
  0
VERTEX
  5
DD
  8
LAYER_1
 10
17.93573793310165
 20
15.32090561679733
 30
0.0
 42
0.4142135623730951
  0
VERTEX
  5
DE
  8
LAYER_1
 10
18.02948793310165
 20
15.22715561679733
 30
0.0
 42
0.4142135623730951
  0
VERTEX
  5
DF
  8
LAYER_1
 10
18.12323793310165
 20
15.32090561679733
 30
0.0
 42
0.4142135623730951
  0
SEQEND
  5
244
  8
LAYER_1
  0
POLYLINE
  5
77
  8
LAYER_1
 66
     1
 10
0.0
 20
0.0
 30
0.0
 70
     1
  0
VERTEX
  5
E0
  8
LAYER_1
 10
1.154487933101652
 20
1.320905616797326
 30
0.0
  0
VERTEX
  5
E1
  8
LAYER_1
 10
52.15448793310165
 20
1.320905616797326
 30
0.0
  0
VERTEX
  5
E2
  8
LAYER_1
 10
52.15448793310165
 20
1.620905616797323
 30
0.0
  0
VERTEX
  5
E3
  8
LAYER_1
 10
1.154487933101652
 20
1.620905616797323
 30
0.0
  0
SEQEND
  5
245
  8
LAYER_1
  0
POLYLINE
  5
78
  8
LAYER_1
 66
     1
 10
0.0
 20
0.0
 30
0.0
 70
     1
  0
VERTEX
  5
E4
  8
LAYER_1
 10
0.8697410754689372
 20
46.33509693466765
 30
0.0
  0
VERTEX
  5
E5
  8
LAYER_1
 10
52.36974107547063
 20
46.33509693466764
 30
0.0
  0
VERTEX
  5
E6
  8
LAYER_1
 10
52.36974107547064
 20
30.64759693466637
 30
0.0
  0
VERTEX
  5
E7
  8
LAYER_1
 10
7.61974107547033
 20
24.71009693466345
 30
0.0
  0
VERTEX
  5
E8
  8
LAYER_1
 10
0.8697410754689372
 20
24.71009693466767
 30
0.0
  0
SEQEND
  5
246
  8
LAYER_1
  0
POLYLINE
  5
79
  8
LAYER_1
 66
     1
 10
0.0
 20
0.0
 30
0.0
 70
     1
  0
VERTEX
  5
E9
  8
LAYER_1
 10
9.682241075468951
 20
25.71009693466765
 30
0.0
 42
-0.4142135623730951
  0
VERTEX
  5
EA
  8
LAYER_1
 10
9.432241075468951
 20
25.96009693466765
 30
0.0
 42
-0.4142135623730951
  0
VERTEX
  5
EB
  8
LAYER_1
 10
9.682241075468951
 20
26.21009693466765
 30
0.0
 42
-0.4142135623730951
  0
VERTEX
  5
EC
  8
LAYER_1
 10
9.932241075468951
 20
25.96009693466765
 30
0.0
 42
-0.4142135623730951
  0
SEQEND
  5
247
  8
LAYER_1
  0
POLYLINE
  5
7A
  8
LAYER_1
 66
     1
 10
0.0
 20
0.0
 30
0.0
 70
     1
  0
VERTEX
  5
ED
  8
LAYER_1
 10
9.682241075468951
 20
25.42884693466765
 30
0.0
 42
-0.4142135623730951
  0
VERTEX
  5
EE
  8
LAYER_1
 10
9.150991075468951
 20
25.96009693466765
 30
0.0
 42
-0.4142135623730951
  0
VERTEX
  5
EF
  8
LAYER_1
 10
9.682241075468951
 20
26.49134693466765
 30
0.0
 42
-0.4142135623730951
  0
VERTEX
  5
F0
  8
LAYER_1
 10
10.21349107546895
 20
25.96009693466765
 30
0.0
 42
-0.4142135623730951
  0
SEQEND
  5
248
  8
LAYER_1
  0
POLYLINE
  5
7B
  8
LAYER_1
 66
     1
 10
0.0
 20
0.0
 30
0.0
 70
     1
  0
VERTEX
  5
F1
  8
LAYER_1
 10
48.86974107546895
 20
31.46009693466764
 30
0.0
 42
-0.4142135623730951
  0
VERTEX
  5
F2
  8
LAYER_1
 10
48.49474107546895
 20
31.83509693466764
 30
0.0
 42
-0.4142135623730951
  0
VERTEX
  5
F3
  8
LAYER_1
 10
48.86974107546895
 20
32.21009693466764
 30
0.0
 42
-0.4142135623730951
  0
VERTEX
  5
F4
  8
LAYER_1
 10
49.24474107546895
 20
31.83509693466764
 30
0.0
 42
-0.4142135623730951
  0
SEQEND
  5
249
  8
LAYER_1
  0
POLYLINE
  5
7C
  8
LAYER_1
 66
     1
 10
0.0
 20
0.0
 30
0.0
 70
     1
  0
VERTEX
  5
F5
  8
LAYER_1
 10
48.86974107546895
 20
31.21009693466764
 30
0.0
 42
-0.4142135623730951
  0
VERTEX
  5
F6
  8
LAYER_1
 10
48.24474107546895
 20
31.83509693466764
 30
0.0
 42
-0.4142135623730951
  0
VERTEX
  5
F7
  8
LAYER_1
 10
48.86974107546895
 20
32.46009693466764
 30
0.0
 42
-0.4142135623730951
  0
VERTEX
  5
F8
  8
LAYER_1
 10
49.49474107546895
 20
31.83509693466764
 30
0.0
 42
-0.4142135623730951
  0
SEQEND
  5
24A
  8
LAYER_1
  0
POLYLINE
  5
7D
  8
LAYER_1
 66
     1
 10
0.0
 20
0.0
 30
0.0
 70
     1
  0
VERTEX
  5
F9
  8
LAYER_1
 10
17.99474107546895
 20
33.05384693466765
 30
0.0
 42
-0.4142135623730951
  0
VERTEX
  5
FA
  8
LAYER_1
 10
17.90099107546895
 20
33.14759693466765
 30
0.0
 42
-0.4142135623730951
  0
VERTEX
  5
FB
  8
LAYER_1
 10
17.99474107546895
 20
33.24134693466765
 30
0.0
 42
-0.4142135623730951
  0
VERTEX
  5
FC
  8
LAYER_1
 10
18.08849107546895
 20
33.14759693466765
 30
0.0
 42
-0.4142135623730951
  0
SEQEND
  5
24B
  8
LAYER_1
  0
POLYLINE
  5
7E
  8
LAYER_1
 66
     1
 10
0.0
 20
0.0
 30
0.0
 70
     1
  0
VERTEX
  5
FD
  8
LAYER_1
 10
17.99474107546895
 20
31.86634693466765
 30
0.0
 42
-0.4142135623730951
  0
VERTEX
  5
FE
  8
LAYER_1
 10
17.90099107546895
 20
31.96009693466765
 30
0.0
 42
-0.4142135623730951
  0
VERTEX
  5
FF
  8
LAYER_1
 10
17.99474107546895
 20
32.05384693466765
 30
0.0
 42
-0.4142135623730951
  0
VERTEX
  5
100
  8
LAYER_1
 10
18.08849107546895
 20
31.96009693466765
 30
0.0
 42
-0.4142135623730951
  0
SEQEND
  5
24C
  8
LAYER_1
  0
POLYLINE
  5
7F
  8
LAYER_1
 66
     1
 10
0.0
 20
0.0
 30
0.0
 70
     1
  0
VERTEX
  5
101
  8
LAYER_1
 10
1.119741075468937
 20
45.96009693466765
 30
0.0
  0
VERTEX
  5
102
  8
LAYER_1
 10
52.11974107546895
 20
45.96009693466764
 30
0.0
  0
VERTEX
  5
103
  8
LAYER_1
 10
52.11974107546895
 20
45.66009693466764
 30
0.0
  0
VERTEX
  5
104
  8
LAYER_1
 10
1.119741075468937
 20
45.66009693466764
 30
0.0
  0
SEQEND
  5
24D
  8
LAYER_1
  0
POLYLINE
  5
80
  8
LAYER_1
 66
     1
 10
0.0
 20
0.0
 30
0.0
 70
     1
  0
VERTEX
  5
105
  8
LAYER_1
 10
72.27856878510364
 20
0.9889104831377509
 30
0.0
  0
VERTEX
  5
106
  8
LAYER_1
 10
94.27856878510364
 20
0.9889104831377509
 30
0.0
  0
VERTEX
  5
107
  8
LAYER_1
 10
94.27856878510364
 20
22.67641048313775
 30
0.0
  0
VERTEX
  5
108
  8
LAYER_1
 10
72.27856878510364
 20
22.67641048313775
 30
0.0
  0
SEQEND
  5
24E
  8
LAYER_1
  0
POLYLINE
  5
81
  8
LAYER_1
 66
     1
 10
0.0
 20
0.0
 30
0.0
 70
     1
  0
VERTEX
  5
109
  8
LAYER_1
 10
72.52856878510364
 20
1.363910483137751
 30
0.0
  0
VERTEX
  5
10A
  8
LAYER_1
 10
94.02856878510364
 20
1.363910483137751
 30
0.0
  0
VERTEX
  5
10B
  8
LAYER_1
 10
94.02856878510364
 20
1.663910483137748
 30
0.0
  0
VERTEX
  5
10C
  8
LAYER_1
 10
72.52856878510364
 20
1.663910483137748
 30
0.0
  0
SEQEND
  5
24F
  8
LAYER_1
  0
POLYLINE
  5
82
  8
LAYER_1
 66
     1
 10
0.0
 20
0.0
 30
0.0
 70
     1
  0
VERTEX
  5
10D
  8
LAYER_1
 10
90.59106878510364
 20
4.863910483137751
 30
0.0
 42
0.4142135623730951
  0
VERTEX
  5
10E
  8
LAYER_1
 10
89.46606878510364
 20
3.738910483137751
 30
0.0
 42
0.4142135623730951
  0
VERTEX
  5
10F
  8
LAYER_1
 10
90.59106878510364
 20
2.613910483137751
 30
0.0
 42
0.4142135623730951
  0
VERTEX
  5
110
  8
LAYER_1
 10
91.71606878510364
 20
3.738910483137751
 30
0.0
 42
0.4142135623730951
  0
SEQEND
  5
250
  8
LAYER_1
  0
POLYLINE
  5
83
  8
LAYER_1
 66
     1
 10
0.0
 20
0.0
 30
0.0
 70
     1
  0
VERTEX
  5
111
  8
LAYER_1
 10
76.77856878510364
 20
17.17641048313775
 30
0.0
 42
0.4142135623730951
  0
VERTEX
  5
112
  8
LAYER_1
 10
75.90356878510364
 20
16.30141048313775
 30
0.0
 42
0.4142135623730951
  0
VERTEX
  5
113
  8
LAYER_1
 10
76.77856878510364
 20
15.42641048313775
 30
0.0
 42
0.4142135623730951
  0
VERTEX
  5
114
  8
LAYER_1
 10
77.65356878510364
 20
16.30141048313775
 30
0.0
 42
0.4142135623730951
  0
SEQEND
  5
251
  8
LAYER_1
  0
POLYLINE
  5
84
  8
LAYER_1
 66
     1
 10
0.0
 20
0.0
 30
0.0
 70
     1
  0
VERTEX
  5
115
  8
LAYER_1
 10
81.15356878510364
 20
17.17641048313775
 30
0.0
 42
0.4142135623730951
  0
VERTEX
  5
116
  8
LAYER_1
 10
80.27856878510364
 20
16.30141048313775
 30
0.0
 42
0.4142135623730951
  0
VERTEX
  5
117
  8
LAYER_1
 10
81.15356878510364
 20
15.42641048313775
 30
0.0
 42
0.4142135623730951
  0
VERTEX
  5
118
  8
LAYER_1
 10
82.02856878510364
 20
16.30141048313775
 30
0.0
 42
0.4142135623730951
  0
SEQEND
  5
252
  8
LAYER_1
  0
POLYLINE
  5
85
  8
LAYER_1
 66
     1
 10
0.0
 20
0.0
 30
0.0
 70
     1
  0
VERTEX
  5
119
  8
LAYER_1
 10
85.59106878510364
 20
17.17641048313775
 30
0.0
 42
0.4142135623730951
  0
VERTEX
  5
11A
  8
LAYER_1
 10
84.71606878510364
 20
16.30141048313775
 30
0.0
 42
0.4142135623730951
  0
VERTEX
  5
11B
  8
LAYER_1
 10
85.59106878510364
 20
15.42641048313775
 30
0.0
 42
0.4142135623730951
  0
VERTEX
  5
11C
  8
LAYER_1
 10
86.46606878510364
 20
16.30141048313775
 30
0.0
 42
0.4142135623730951
  0
SEQEND
  5
253
  8
LAYER_1
  0
POLYLINE
  5
86
  8
LAYER_1
 66
     1
 10
0.0
 20
0.0
 30
0.0
 70
     1
  0
VERTEX
  5
11D
  8
LAYER_1
 10
89.84106878510364
 20
17.17641048313775
 30
0.0
 42
0.4142135623730951
  0
VERTEX
  5
11E
  8
LAYER_1
 10
88.96606878510364
 20
16.30141048313775
 30
0.0
 42
0.4142135623730951
  0
VERTEX
  5
11F
  8
LAYER_1
 10
89.84106878510364
 20
15.42641048313775
 30
0.0
 42
0.4142135623730951
  0
VERTEX
  5
120
  8
LAYER_1
 10
90.71606878510364
 20
16.30141048313775
 30
0.0
 42
0.4142135623730951
  0
SEQEND
  5
254
  8
LAYER_1
  0
POLYLINE
  5
87
  8
LAYER_1
 66
     1
 10
0.0
 20
0.0
 30
0.0
 70
     1
  0
VERTEX
  5
121
  8
LAYER_1
 10
82.15356878510364
 20
21.70766048313775
 30
0.0
 42
0.4142135623730951
  0
VERTEX
  5
122
  8
LAYER_1
 10
82.05981878510364
 20
21.61391048313775
 30
0.0
 42
0.4142135623730951
  0
VERTEX
  5
123
  8
LAYER_1
 10
82.15356878510364
 20
21.52016048313775
 30
0.0
 42
0.4142135623730951
  0
VERTEX
  5
124
  8
LAYER_1
 10
82.24731878510364
 20
21.61391048313775
 30
0.0
 42
0.4142135623730951
  0
SEQEND
  5
255
  8
LAYER_1
  0
POLYLINE
  5
88
  8
LAYER_1
 66
     1
 10
0.0
 20
0.0
 30
0.0
 70
     1
  0
VERTEX
  5
125
  8
LAYER_1
 10
84.40356878510364
 20
21.70766048313775
 30
0.0
 42
0.4142135623730951
  0
VERTEX
  5
126
  8
LAYER_1
 10
84.30981878510364
 20
21.61391048313775
 30
0.0
 42
0.4142135623730951
  0
VERTEX
  5
127
  8
LAYER_1
 10
84.40356878510364
 20
21.52016048313775
 30
0.0
 42
0.4142135623730951
  0
VERTEX
  5
128
  8
LAYER_1
 10
84.49731878510364
 20
21.61391048313775
 30
0.0
 42
0.4142135623730951
  0
SEQEND
  5
256
  8
LAYER_1
  0
POLYLINE
  5
89
  8
LAYER_1
 66
     1
 10
0.0
 20
0.0
 30
0.0
 70
     1
  0
VERTEX
  5
129
  8
LAYER_1
 10
83.27856878510364
 20
22.80141048313775
 30
0.0
 42
0.4142135623730951
  0
VERTEX
  5
12A
  8
LAYER_1
 10
83.02856878510364
 20
22.55141048313775
 30
0.0
 42
0.4142135623730951
  0
VERTEX
  5
12B
  8
LAYER_1
 10
83.27856878510364
 20
22.30141048313775
 30
0.0
 42
0.4142135623730951
  0
VERTEX
  5
12C
  8
LAYER_1
 10
83.52856878510364
 20
22.55141048313775
 30
0.0
 42
0.4142135623730951
  0
SEQEND
  5
257
  8
LAYER_1
  0
POLYLINE
  5
8A
  8
LAYER_1
 66
     1
 10
0.0
 20
0.0
 30
0.0
 70
     1
  0
VERTEX
  5
12D
  8
LAYER_1
 10
62.30466092081517
 20
24.19138964637788
 30
0.0
  0
VERTEX
  5
12E
  8
LAYER_1
 10
62.30466092081517
 20
46.19138964637788
 30
0.0
  0
VERTEX
  5
12F
  8
LAYER_1
 10
55.55466092081517
 20
46.19138964637788
 30
0.0
  0
VERTEX
  5
130
  8
LAYER_1
 10
55.55466092081517
 20
24.19138964637788
 30
0.0
  0
SEQEND
  5
258
  8
LAYER_1
  0
POLYLINE
  5
8B
  8
LAYER_1
 66
     1
 10
0.0
 20
0.0
 30
0.0
 70
     1
  0
VERTEX
  5
131
  8
LAYER_1
 10
62.42966092081517
 20
24.12888964637788
 30
0.0
  0
VERTEX
  5
132
  8
LAYER_1
 10
62.42966092081517
 20
24.94138964637788
 30
0.0
  0
VERTEX
  5
133
  8
LAYER_1
 10
55.42966092081517
 20
24.94138964637788
 30
0.0
  0
VERTEX
  5
134
  8
LAYER_1
 10
55.42966092081517
 20
24.12888964637788
 30
0.0
  0
SEQEND
  5
259
  8
LAYER_1
  0
POLYLINE
  5
8C
  8
LAYER_1
 66
     1
 10
0.0
 20
0.0
 30
0.0
 70
     1
  0
VERTEX
  5
135
  8
LAYER_1
 10
62.42966092081517
 20
45.44138964637788
 30
0.0
  0
VERTEX
  5
136
  8
LAYER_1
 10
62.42966092081517
 20
46.25388964637788
 30
0.0
  0
VERTEX
  5
137
  8
LAYER_1
 10
55.42966092081517
 20
46.25388964637788
 30
0.0
  0
VERTEX
  5
138
  8
LAYER_1
 10
55.42966092081517
 20
45.44138964637788
 30
0.0
  0
SEQEND
  5
25A
  8
LAYER_1
  0
POLYLINE
  5
8D
  8
LAYER_1
 66
     1
 10
0.0
 20
0.0
 30
0.0
 70
     1
  0
VERTEX
  5
139
  8
LAYER_1
 10
59.67966092081517
 20
28.25388964637788
 30
0.0
 42
0.4142135623730951
  0
VERTEX
  5
13A
  8
LAYER_1
 10
60.05466092081517
 20
27.87888964637788
 30
0.0
 42
0.4142135623730951
  0
VERTEX
  5
13B
  8
LAYER_1
 10
60.42966092081517
 20
28.25388964637788
 30
0.0
 42
0.4142135623730951
  0
VERTEX
  5
13C
  8
LAYER_1
 10
60.05466092081517
 20
28.62888964637788
 30
0.0
 42
0.4142135623730951
  0
SEQEND
  5
25B
  8
LAYER_1
  0
POLYLINE
  5
8E
  8
LAYER_1
 66
     1
 10
0.0
 20
0.0
 30
0.0
 70
     1
  0
VERTEX
  5
13D
  8
LAYER_1
 10
59.67966092081517
 20
42.12888964637788
 30
0.0
 42
0.4142135623730951
  0
VERTEX
  5
13E
  8
LAYER_1
 10
60.05466092081517
 20
41.75388964637788
 30
0.0
 42
0.4142135623730951
  0
VERTEX
  5
13F
  8
LAYER_1
 10
60.42966092081517
 20
42.12888964637788
 30
0.0
 42
0.4142135623730951
  0
VERTEX
  5
140
  8
LAYER_1
 10
60.05466092081517
 20
42.50388964637788
 30
0.0
 42
0.4142135623730951
  0
SEQEND
  5
25C
  8
LAYER_1
  0
POLYLINE
  5
8F
  8
LAYER_1
 66
     1
 10
0.0
 20
0.0
 30
0.0
 70
     1
  0
VERTEX
  5
141
  8
LAYER_1
 10
60.80466092081517
 20
39.06638964637788
 30
0.0
 42
0.4142135623730951
  0
VERTEX
  5
142
  8
LAYER_1
 10
60.30466092081517
 20
39.56638964637788
 30
0.0
  0
VERTEX
  5
143
  8
LAYER_1
 10
57.55466092081517
 20
39.56638964637788
 30
0.0
 42
0.4142135623730951
  0
VERTEX
  5
144
  8
LAYER_1
 10
57.05466092081517
 20
39.06638964637788
 30
0.0
  0
VERTEX
  5
145
  8
LAYER_1
 10
57.05466092081517
 20
31.37888964637788
 30
0.0
 42
0.4142135623730951
  0
VERTEX
  5
146
  8
LAYER_1
 10
57.55466092081517
 20
30.87888964637788
 30
0.0
  0
VERTEX
  5
147
  8
LAYER_1
 10
60.30466092081517
 20
30.87888964637788
 30
0.0
 42
0.4142135623730951
  0
VERTEX
  5
148
  8
LAYER_1
 10
60.80466092081517
 20
31.37888964637788
 30
0.0
  0
VERTEX
  5
149
  8
LAYER_1
 10
60.80466092081517
 20
32.97258964637788
 30
0.0
  0
VERTEX
  5
14A
  8
LAYER_1
 10
61.55466092081517
 20
32.97258964637788
 30
0.0
  0
VERTEX
  5
14B
  8
LAYER_1
 10
61.55466092081517
 20
37.47258964637788
 30
0.0
  0
VERTEX
  5
14C
  8
LAYER_1
 10
60.80466092081517
 20
37.47258964637788
 30
0.0
  0
SEQEND
  5
25D
  8
LAYER_1
  0
POLYLINE
  5
90
  8
LAYER_1
 66
     1
 10
0.0
 20
0.0
 30
0.0
 70
     1
  0
VERTEX
  5
14D
  8
LAYER_1
 10
62.36716092081517
 20
24.06638964637788
 30
0.0
  0
VERTEX
  5
14E
  8
LAYER_1
 10
62.36716092081517
 20
46.31638964637788
 30
0.0
  0
VERTEX
  5
14F
  8
LAYER_1
 10
61.55466092081517
 20
46.31638964637788
 30
0.0
  0
VERTEX
  5
150
  8
LAYER_1
 10
61.55466092081517
 20
24.06638964637788
 30
0.0
  0
SEQEND
  5
25E
  8
LAYER_1
  0
POLYLINE
  5
91
  8
LAYER_1
 66
     1
 10
0.0
 20
0.0
 30
0.0
 70
     1
  0
VERTEX
  5
151
  8
LAYER_1
 10
70.49611821063154
 20
1.012709918219976
 30
0.0
  0
VERTEX
  5
152
  8
LAYER_1
 10
70.49611821063154
 20
23.01270991821998
 30
0.0
  0
VERTEX
  5
153
  8
LAYER_1
 10
54.68361821063154
 20
23.01270991821998
 30
0.0
  0
VERTEX
  5
154
  8
LAYER_1
 10
54.68361821063154
 20
1.012709918219976
 30
0.0
  0
SEQEND
  5
25F
  8
LAYER_1
  0
POLYLINE
  5
92
  8
LAYER_1
 66
     1
 10
0.0
 20
0.0
 30
0.0
 70
     1
  0
VERTEX
  5
155
  8
LAYER_1
 10
56.12564218908521
 20
20.09677062732381
 30
0.0
 42
0.3511175546169663
  0
VERTEX
  5
156
  8
LAYER_1
 10
56.30861821063154
 20
19.95020991821998
 30
0.0
 42
0.1231605970474158
  0
VERTEX
  5
157
  8
LAYER_1
 10
56.40151556346154
 20
19.97477692547327
 30
0.0
  0
VERTEX
  5
158
  8
LAYER_1
 10
57.70090179805977
 20
20.80495352596554
 30
0.0
  0
VERTEX
  5
159
  8
LAYER_1
 10
57.70843829767281
 20
20.8104648799886
 30
0.0
  0
VERTEX
  5
15A
  8
LAYER_1
 10
57.71545265790662
 20
20.81667456987323
 30
0.0
  0
VERTEX
  5
15B
  8
LAYER_1
 10
57.72896803154092
 20
20.82973194545783
 30
0.0
 42
0.2082138699060532
  0
VERTEX
  5
15C
  8
LAYER_1
 10
57.80861821063154
 20
21.01270991821998
 30
0.0
 42
0.2155827746181178
  0
VERTEX
  5
15D
  8
LAYER_1
 10
57.72373933449769
 20
21.20041983925021
 30
0.0
  0
VERTEX
  5
15E
  8
LAYER_1
 10
57.71176441959279
 20
21.21062831244829
 30
0.0
  0
VERTEX
  5
15F
  8
LAYER_1
 10
57.70553966244168
 20
21.2154305825338
 30
0.0
  0
VERTEX
  5
160
  8
LAYER_1
 10
57.69906586491953
 20
21.21987441566201
 30
0.0
  0
VERTEX
  5
161
  8
LAYER_1
 10
56.41569698153369
 20
22.03909062499569
 30
0.0
 42
0.1418510514874018
  0
VERTEX
  5
162
  8
LAYER_1
 10
56.30861821063154
 20
22.07270991821998
 30
0.0
 42
0.3686560517059201
  0
VERTEX
  5
163
  8
LAYER_1
 10
56.1234539328471
 20
21.91471314232459
 30
0.0
  0
VERTEX
  5
164
  8
LAYER_1
 10
56.12104886583059
 20
21.89610729248884
 30
0.0
  0
VERTEX
  5
165
  8
LAYER_1
 10
55.99611821063154
 20
21.01270991821998
 30
0.0
  0
VERTEX
  5
166
  8
LAYER_1
 10
56.12058107006645
 20
20.11870296637689
 30
0.0
  0
SEQEND
  5
260
  8
LAYER_1
  0
POLYLINE
  5
93
  8
LAYER_1
 66
     1
 10
0.0
 20
0.0
 30
0.0
 70
     1
  0
VERTEX
  5
167
  8
LAYER_1
 10
65.38361821063154
 20
3.450209918219976
 30
0.0
 42
0.4142135623730951
  0
VERTEX
  5
168
  8
LAYER_1
 10
65.68361821063154
 20
3.150209918219993
 30
0.0
 42
0.4142135623730951
  0
VERTEX
  5
169
  8
LAYER_1
 10
65.98361821063153
 20
3.450209918219976
 30
0.0
 42
0.4142135623730951
  0
VERTEX
  5
16A
  8
LAYER_1
 10
65.68361821063154
 20
3.750209918219987
 30
0.0
 42
0.4142135623730951
  0
SEQEND
  5
261
  8
LAYER_1
  0
POLYLINE
  5
94
  8
LAYER_1
 66
     1
 10
0.0
 20
0.0
 30
0.0
 70
     1
  0
VERTEX
  5
16B
  8
LAYER_1
 10
65.30861821063154
 20
3.450209918219976
 30
0.0
 42
0.4142135623730951
  0
VERTEX
  5
16C
  8
LAYER_1
 10
65.68361821063154
 20
3.075209918219976
 30
0.0
 42
0.4142135623730951
  0
VERTEX
  5
16D
  8
LAYER_1
 10
66.05861821063154
 20
3.450209918219976
 30
0.0
 42
0.4142135623730951
  0
VERTEX
  5
16E
  8
LAYER_1
 10
65.68361821063154
 20
3.825209918219976
 30
0.0
 42
0.4142135623730951
  0
SEQEND
  5
262
  8
LAYER_1
  0
POLYLINE
  5
95
  8
LAYER_1
 66
     1
 10
0.0
 20
0.0
 30
0.0
 70
     1
  0
VERTEX
  5
16F
  8
LAYER_1
 10
65.30861821063154
 20
4.512709918219976
 30
0.0
 42
0.4142135623730951
  0
VERTEX
  5
170
  8
LAYER_1
 10
65.68361821063154
 20
4.137709918219976
 30
0.0
 42
0.4142135623730951
  0
VERTEX
  5
171
  8
LAYER_1
 10
66.05861821063154
 20
4.512709918219976
 30
0.0
 42
0.4142135623730951
  0
VERTEX
  5
172
  8
LAYER_1
 10
65.68361821063154
 20
4.887709918219976
 30
0.0
 42
0.4142135623730951
  0
SEQEND
  5
263
  8
LAYER_1
  0
POLYLINE
  5
96
  8
LAYER_1
 66
     1
 10
0.0
 20
0.0
 30
0.0
 70
     1
  0
VERTEX
  5
173
  8
LAYER_1
 10
65.38361821063154
 20
4.512709918219976
 30
0.0
 42
0.4142135623730951
  0
VERTEX
  5
174
  8
LAYER_1
 10
65.68361821063154
 20
4.212709918219993
 30
0.0
 42
0.4142135623730951
  0
VERTEX
  5
175
  8
LAYER_1
 10
65.98361821063153
 20
4.512709918219976
 30
0.0
 42
0.4142135623730951
  0
VERTEX
  5
176
  8
LAYER_1
 10
65.68361821063154
 20
4.812709918219987
 30
0.0
 42
0.4142135623730951
  0
SEQEND
  5
264
  8
LAYER_1
  0
POLYLINE
  5
97
  8
LAYER_1
 66
     1
 10
0.0
 20
0.0
 30
0.0
 70
     1
  0
VERTEX
  5
177
  8
LAYER_1
 10
66.87111821063154
 20
5.887709918219976
 30
0.0
  0
VERTEX
  5
178
  8
LAYER_1
 10
66.87111821063154
 20
18.10640991821997
 30
0.0
  0
VERTEX
  5
179
  8
LAYER_1
 10
56.46491821063154
 20
18.10640991821997
 30
0.0
  0
VERTEX
  5
17A
  8
LAYER_1
 10
56.46491821063154
 20
5.887709918219976
 30
0.0
  0
SEQEND
  5
265
  8
LAYER_1
  0
POLYLINE
  5
98
  8
LAYER_1
 66
     1
 10
0.0
 20
0.0
 30
0.0
 70
     1
  0
VERTEX
  5
17B
  8
LAYER_1
 10
61.54251821063153
 20
5.559559918219982
 30
0.0
 42
0.4142135623730951
  0
VERTEX
  5
17C
  8
LAYER_1
 10
61.66801821063153
 20
5.43405991821998
 30
0.0
 42
0.4142135623730951
  0
VERTEX
  5
17D
  8
LAYER_1
 10
61.79351821063153
 20
5.559559918219982
 30
0.0
 42
0.4142135623730951
  0
VERTEX
  5
17E
  8
LAYER_1
 10
61.66801821063153
 20
5.685059918219984
 30
0.0
 42
0.4142135623730951
  0
SEQEND
  5
266
  8
LAYER_1
  0
POLYLINE
  5
99
  8
LAYER_1
 66
     1
 10
0.0
 20
0.0
 30
0.0
 70
     1
  0
VERTEX
  5
17F
  8
LAYER_1
 10
61.54251821063153
 20
18.43455991821997
 30
0.0
 42
0.4142135623730951
  0
VERTEX
  5
180
  8
LAYER_1
 10
61.66801821063153
 20
18.30905991821998
 30
0.0
 42
0.4142135623730951
  0
VERTEX
  5
181
  8
LAYER_1
 10
61.79351821063153
 20
18.43455991821997
 30
0.0
 42
0.4142135623730951
  0
VERTEX
  5
182
  8
LAYER_1
 10
61.66801821063153
 20
18.56005991821998
 30
0.0
 42
0.4142135623730951
  0
SEQEND
  5
267
  8
LAYER_1
  0
POLYLINE
  5
9A
  8
LAYER_1
 66
     1
 10
0.0
 20
0.0
 30
0.0
 70
     1
  0
VERTEX
  5
183
  8
LAYER_1
 10
67.07376821063154
 20
11.99705991821998
 30
0.0
 42
0.4142135623730951
  0
VERTEX
  5
184
  8
LAYER_1
 10
67.19926821063153
 20
11.87155991821999
 30
0.0
 42
0.4142135623730951
  0
VERTEX
  5
185
  8
LAYER_1
 10
67.32476821063153
 20
11.99705991821998
 30
0.0
 42
0.4142135623730951
  0
VERTEX
  5
186
  8
LAYER_1
 10
67.19926821063153
 20
12.12255991821997
 30
0.0
 42
0.4142135623730951
  0
SEQEND
  5
268
  8
LAYER_1
  0
POLYLINE
  5
9B
  8
LAYER_1
 66
     1
 10
0.0
 20
0.0
 30
0.0
 70
     1
  0
VERTEX
  5
187
  8
LAYER_1
 10
56.01126821063153
 20
11.99705991821998
 30
0.0
 42
0.4142135623730951
  0
VERTEX
  5
188
  8
LAYER_1
 10
56.13676821063153
 20
11.87155991821999
 30
0.0
 42
0.4142135623730951
  0
VERTEX
  5
189
  8
LAYER_1
 10
56.26226821063153
 20
11.99705991821998
 30
0.0
 42
0.4142135623730951
  0
VERTEX
  5
18A
  8
LAYER_1
 10
56.13676821063153
 20
12.12255991821997
 30
0.0
 42
0.4142135623730951
  0
SEQEND
  5
269
  8
LAYER_1
  0
POLYLINE
  5
9C
  8
LAYER_1
 66
     1
 10
0.0
 20
0.0
 30
0.0
 70
     1
  0
VERTEX
  5
18B
  8
LAYER_1
 10
58.15236821063154
 20
3.325209918219976
 30
0.0
 42
0.4142135623730951
  0
VERTEX
  5
18C
  8
LAYER_1
 10
58.87111821063154
 20
2.606459918219976
 30
0.0
 42
0.4142135623730951
  0
VERTEX
  5
18D
  8
LAYER_1
 10
59.58986821063154
 20
3.325209918219976
 30
0.0
 42
0.4142135623730951
  0
VERTEX
  5
18E
  8
LAYER_1
 10
58.87111821063154
 20
4.043959918219976
 30
0.0
 42
0.4142135623730951
  0
SEQEND
  5
26A
  8
LAYER_1
  0
POLYLINE
  5
9D
  8
LAYER_1
 66
     1
 10
0.0
 20
0.0
 30
0.0
 70
     1
  0
VERTEX
  5
18F
  8
LAYER_1
 10
58.27736821063154
 20
3.325209918219976
 30
0.0
 42
0.4142135623730951
  0
VERTEX
  5
190
  8
LAYER_1
 10
58.87111821063154
 20
2.731459918219976
 30
0.0
 42
0.4142135623730951
  0
VERTEX
  5
191
  8
LAYER_1
 10
59.46486821063154
 20
3.325209918219976
 30
0.0
 42
0.4142135623730951
  0
VERTEX
  5
192
  8
LAYER_1
 10
58.87111821063154
 20
3.918959918219976
 30
0.0
 42
0.4142135623730951
  0
SEQEND
  5
26B
  8
LAYER_1
  0
POLYLINE
  5
9E
  8
LAYER_1
 66
     1
 10
0.0
 20
0.0
 30
0.0
 70
     1
  0
VERTEX
  5
193
  8
LAYER_1
 10
40.62950323811279
 20
25.14963915377536
 30
0.0
  0
VERTEX
  5
194
  8
LAYER_1
 10
40.62950323811279
 20
22.08713915377536
 30
0.0
  0
VERTEX
  5
195
  8
LAYER_1
 10
19.69200323811279
 20
22.08713915377536
 30
0.0
  0
VERTEX
  5
196
  8
LAYER_1
 10
19.69200323811279
 20
25.14963915377536
 30
0.0
  0
VERTEX
  5
197
  8
LAYER_1
 10
21.19200323811279
 20
25.14963915377536
 30
0.0
  0
VERTEX
  5
198
  8
LAYER_1
 10
21.19200323811279
 20
24.39963915377536
 30
0.0
  0
VERTEX
  5
199
  8
LAYER_1
 10
22.37950323811279
 20
24.39963915377536
 30
0.0
  0
VERTEX
  5
19A
  8
LAYER_1
 10
22.37950323811279
 20
25.14963915377536
 30
0.0
  0
SEQEND
  5
26C
  8
LAYER_1
  0
POLYLINE
  5
9F
  8
LAYER_1
 66
     1
 10
0.0
 20
0.0
 30
0.0
 70
     1
  0
VERTEX
  5
19B
  8
LAYER_1
 10
51.45130692020591
 20
24.14269423841748
 30
0.0
 42
0.4142135623730951
  0
VERTEX
  5
19C
  8
LAYER_1
 10
51.07630692020591
 20
23.76769423841748
 30
0.0
 42
0.4142135623730951
  0
VERTEX
  5
19D
  8
LAYER_1
 10
51.45130692020591
 20
23.39269423841748
 30
0.0
 42
0.4142135623730951
  0
VERTEX
  5
19E
  8
LAYER_1
 10
51.82630692020591
 20
23.76769423841748
 30
0.0
 42
0.4142135623730951
  0
SEQEND
  5
26D
  8
LAYER_1
  0
POLYLINE
  5
A0
  8
LAYER_1
 66
     1
 10
0.0
 20
0.0
 30
0.0
 70
     1
  0
VERTEX
  5
19F
  8
LAYER_1
 10
51.45130692020591
 20
24.51769423841748
 30
0.0
 42
0.4142135623730951
  0
VERTEX
  5
1A0
  8
LAYER_1
 10
50.70130692020591
 20
23.76769423841748
 30
0.0
 42
0.4142135623730951
  0
VERTEX
  5
1A1
  8
LAYER_1
 10
51.45130692020591
 20
23.01769423841748
 30
0.0
 42
0.4142135623730951
  0
VERTEX
  5
1A2
  8
LAYER_1
 10
52.20130692020591
 20
23.76769423841748
 30
0.0
 42
0.4142135623730951
  0
SEQEND
  5
26E
  8
LAYER_1
  0
POLYLINE
  5
A1
  8
LAYER_1
 66
     1
 10
0.0
 20
0.0
 30
0.0
 70
     1
  0
VERTEX
  5
1A3
  8
LAYER_1
 10
52.38950562876181
 20
28.76769423841748
 30
0.0
  0
VERTEX
  5
1A4
  8
LAYER_1
 10
48.51380692020591
 20
28.76769423841748
 30
0.0
  0
VERTEX
  5
1A5
  8
LAYER_1
 10
48.51380692020591
 20
18.01769423841748
 30
0.0
  0
VERTEX
  5
1A6
  8
LAYER_1
 10
53.63880692020591
 20
18.01769423841748
 30
0.0
  0
VERTEX
  5
1A7
  8
LAYER_1
 10
53.63880692020591
 20
27.5040343665598
 30
0.0
  0
SEQEND
  5
26F
  8
LAYER_1
  0
POLYLINE
  5
A2
  8
LAYER_1
 66
     1
 10
0.0
 20
0.0
 30
0.0
 70
     1
  0
VERTEX
  5
1A8
  8
LAYER_1
 10
61.65459788534326
 20
7.368319498396716
 30
0.0
  0
VERTEX
  5
1A9
  8
LAYER_1
 10
63.15459788534326
 20
7.368319498396716
 30
0.0
  0
VERTEX
  5
1AA
  8
LAYER_1
 10
63.15459788534326
 20
9.368319498396716
 30
0.0
  0
VERTEX
  5
1AB
  8
LAYER_1
 10
61.65459788534326
 20
9.368319498396716
 30
0.0
  0
SEQEND
  5
270
  8
LAYER_1
  0
POLYLINE
  5
A3
  8
LAYER_1
 66
     1
 10
0.0
 20
0.0
 30
0.0
 70
     1
  0
VERTEX
  5
1AC
  8
LAYER_1
 10
64.31353150272787
 20
7.431002141151517
 30
0.0
  0
VERTEX
  5
1AD
  8
LAYER_1
 10
65.81353150272787
 20
7.431002141151517
 30
0.0
  0
VERTEX
  5
1AE
  8
LAYER_1
 10
65.81353150272787
 20
9.431002141151517
 30
0.0
  0
VERTEX
  5
1AF
  8
LAYER_1
 10
64.31353150272787
 20
9.431002141151517
 30
0.0
  0
SEQEND
  5
271
  8
LAYER_1
  0
POLYLINE
  5
A4
  8
LAYER_1
 66
     1
 10
0.0
 20
0.0
 30
0.0
 70
     1
  0
VERTEX
  5
1B0
  8
LAYER_1
 10
57.57596087845202
 20
7.19590327098706
 30
0.0
  0
VERTEX
  5
1B1
  8
LAYER_1
 10
60.32596087845202
 20
7.19590327098706
 30
0.0
  0
VERTEX
  5
1B2
  8
LAYER_1
 10
60.32596087845202
 20
9.19590327098706
 30
0.0
  0
VERTEX
  5
1B3
  8
LAYER_1
 10
57.57596087845202
 20
9.19590327098706
 30
0.0
  0
SEQEND
  5
272
  8
LAYER_1
  0
POLYLINE
  5
A5
  8
LAYER_1
 66
     1
 10
0.0
 20
0.0
 30
0.0
 70
     1
  0
VERTEX
  5
1B4
  8
LAYER_1
 10
67.38068546288488
 20
34.86667729470605
 30
0.0
  0
VERTEX
  5
1B5
  8
LAYER_1
 10
86.06818546288488
 20
34.86667729470605
 30
0.0
  0
VERTEX
  5
1B6
  8
LAYER_1
 10
86.06818546288488
 20
35.61667729470605
 30
0.0
  0
VERTEX
  5
1B7
  8
LAYER_1
 10
67.38068546288488
 20
35.61667729470605
 30
0.0
  0
SEQEND
  5
273
  8
LAYER_1
  0
POLYLINE
  5
A6
  8
LAYER_1
 66
     1
 10
0.0
 20
0.0
 30
0.0
 70
     1
  0
VERTEX
  5
1B8
  8
LAYER_1
 10
75.00568546288488
 20
34.74167729470605
 30
0.0
  0
VERTEX
  5
1B9
  8
LAYER_1
 10
78.63068546288488
 20
34.74167729470605
 30
0.0
  0
VERTEX
  5
1BA
  8
LAYER_1
 10
78.63068546288488
 20
35.74167729470605
 30
0.0
  0
VERTEX
  5
1BB
  8
LAYER_1
 10
75.00568546288488
 20
35.74167729470605
 30
0.0
  0
SEQEND
  5
274
  8
LAYER_1
  0
POLYLINE
  5
A7
  8
LAYER_1
 66
     1
 10
0.0
 20
0.0
 30
0.0
 70
     1
  0
VERTEX
  5
1BC
  8
LAYER_1
 10
64.10750090619386
 20
38.99342440201962
 30
0.0
  0
VERTEX
  5
1BD
  8
LAYER_1
 10
64.10750090619386
 20
46.36842440201962
 30
0.0
  0
VERTEX
  5
1BE
  8
LAYER_1
 10
94.10750090619435
 20
46.36842440201962
 30
0.0
  0
VERTEX
  5
1BF
  8
LAYER_1
 10
94.10750090620554
 20
36.11842440201556
 30
0.0
  0
SEQEND
  5
275
  8
LAYER_1
  0
POLYLINE
  5
A8
  8
LAYER_1
 66
     1
 10
0.0
 20
0.0
 30
0.0
 70
     1
  0
VERTEX
  5
1C0
  8
LAYER_1
 10
93.35665998919242
 20
45.61742440201962
 30
0.0
  0
VERTEX
  5
1C1
  8
LAYER_1
 10
64.8585136551768
 20
45.61742440201962
 30
0.0
  0
VERTEX
  5
1C2
  8
LAYER_1
 10
64.85750090619386
 20
45.6156026063611
 30
0.0
  0
VERTEX
  5
1C3
  8
LAYER_1
 10
64.85750090619386
 20
38.74342440201962
 30
0.0
  0
VERTEX
  5
1C4
  8
LAYER_1
 10
64.60650090619386
 20
38.74342440201962
 30
0.0
  0
VERTEX
  5
1C5
  8
LAYER_1
 10
64.60650090619386
 20
45.61711147489731
 30
0.0
  0
VERTEX
  5
1C6
  8
LAYER_1
 10
64.59654426629523
 20
45.61739476792331
 30
0.0
  0
VERTEX
  5
1C7
  8
LAYER_1
 10
64.0042301259339
 20
45.61739476792331
 30
0.0
  0
VERTEX
  5
1C8
  8
LAYER_1
 10
64.0042301259339
 20
45.86839476792331
 30
0.0
  0
VERTEX
  5
1C9
  8
LAYER_1
 10
64.60550600193211
 20
45.86839476792331
 30
0.0
  0
VERTEX
  5
1CA
  8
LAYER_1
 10
64.60650090619386
 20
45.86941554772732
 30
0.0
  0
VERTEX
  5
1CB
  8
LAYER_1
 10
64.60650090619386
 20
46.49342440201962
 30
0.0
  0
VERTEX
  5
1CC
  8
LAYER_1
 10
64.85750090619386
 20
46.49342440201962
 30
0.0
  0
VERTEX
  5
1CD
  8
LAYER_1
 10
64.85750090619386
 20
45.86957164953497
 30
0.0
  0
VERTEX
  5
1CE
  8
LAYER_1
 10
64.85924136017157
 20
45.86842440201962
 30
0.0
  0
VERTEX
  5
1CF
  8
LAYER_1
 10
93.85750090619386
 20
45.86842440201962
 30
0.0
  0
VERTEX
  5
1D0
  8
LAYER_1
 10
93.85750090619386
 20
45.61742440201962
 30
0.0
  0
VERTEX
  5
1D1
  8
LAYER_1
 10
93.60890000529872
 20
45.61742440201962
 30
0.0
  0
VERTEX
  5
1D2
  8
LAYER_1
 10
93.60850090620555
 20
45.61657882305929
 30
0.0
  0
VERTEX
  5
1D3
  8
LAYER_1
 10
93.60850090620553
 20
35.86842440201962
 30
0.0
  0
VERTEX
  5
1D4
  8
LAYER_1
 10
93.35750090620554
 20
35.86842440201962
 30
0.0
  0
VERTEX
  5
1D5
  8
LAYER_1
 10
93.35750090620554
 20
45.61435804365632
 30
0.0
  0
SEQEND
  5
276
  8
LAYER_1
  0
POLYLINE
  5
A9
  8
LAYER_1
 66
     1
 10
0.0
 20
0.0
 30
0.0
 70
     1
  0
VERTEX
  5
1D6
  8
LAYER_1
 10
64.07594173274363
 20
31.64103554791817
 30
0.0
  0
VERTEX
  5
1D7
  8
LAYER_1
 10
64.07594173274363
 20
24.26603554791818
 30
0.0
  0
VERTEX
  5
1D8
  8
LAYER_1
 10
94.07594173274411
 20
24.26603554791818
 30
0.0
  0
VERTEX
  5
1D9
  8
LAYER_1
 10
94.07594173275531
 20
34.51603554792224
 30
0.0
  0
SEQEND
  5
277
  8
LAYER_1
  0
POLYLINE
  5
AA
  8
LAYER_1
 66
     1
 10
0.0
 20
0.0
 30
0.0
 70
     1
  0
VERTEX
  5
1DA
  8
LAYER_1
 10
93.32510081574219
 20
25.01703554791818
 30
0.0
  0
VERTEX
  5
1DB
  8
LAYER_1
 10
64.82695448172656
 20
25.01703554791818
 30
0.0
  0
VERTEX
  5
1DC
  8
LAYER_1
 10
64.82594173274363
 20
25.01885734357669
 30
0.0
  0
VERTEX
  5
1DD
  8
LAYER_1
 10
64.82594173274363
 20
31.89103554791817
 30
0.0
  0
VERTEX
  5
1DE
  8
LAYER_1
 10
64.57494173274362
 20
31.89103554791817
 30
0.0
  0
VERTEX
  5
1DF
  8
LAYER_1
 10
64.57494173274362
 20
25.01734847504049
 30
0.0
  0
VERTEX
  5
1E0
  8
LAYER_1
 10
64.56498509284499
 20
25.01706518201449
 30
0.0
  0
VERTEX
  5
1E1
  8
LAYER_1
 10
63.97267095248367
 20
25.01706518201449
 30
0.0
  0
VERTEX
  5
1E2
  8
LAYER_1
 10
63.97267095248367
 20
24.76606518201448
 30
0.0
  0
VERTEX
  5
1E3
  8
LAYER_1
 10
64.57394682848188
 20
24.76606518201448
 30
0.0
  0
VERTEX
  5
1E4
  8
LAYER_1
 10
64.57494173274362
 20
24.76504440221047
 30
0.0
  0
VERTEX
  5
1E5
  8
LAYER_1
 10
64.57494173274362
 20
24.14103554791818
 30
0.0
  0
VERTEX
  5
1E6
  8
LAYER_1
 10
64.82594173274363
 20
24.14103554791818
 30
0.0
  0
VERTEX
  5
1E7
  8
LAYER_1
 10
64.82594173274363
 20
24.76488830040283
 30
0.0
  0
VERTEX
  5
1E8
  8
LAYER_1
 10
64.82768218672133
 20
24.76603554791818
 30
0.0
  0
VERTEX
  5
1E9
  8
LAYER_1
 10
93.82594173274363
 20
24.76603554791818
 30
0.0
  0
VERTEX
  5
1EA
  8
LAYER_1
 10
93.82594173274363
 20
25.01703554791818
 30
0.0
  0
VERTEX
  5
1EB
  8
LAYER_1
 10
93.57734083184849
 20
25.01703554791818
 30
0.0
  0
VERTEX
  5
1EC
  8
LAYER_1
 10
93.57694173275532
 20
25.0178811268785
 30
0.0
  0
VERTEX
  5
1ED
  8
LAYER_1
 10
93.5769417327553
 20
34.76603554791817
 30
0.0
  0
VERTEX
  5
1EE
  8
LAYER_1
 10
93.32594173275531
 20
34.76603554791817
 30
0.0
  0
VERTEX
  5
1EF
  8
LAYER_1
 10
93.32594173275531
 20
25.02010190628148
 30
0.0
  0
SEQEND
  5
278
  8
LAYER_1
  0
POLYLINE
  5
AB
  8
LAYER_1
 66
     1
 10
0.0
 20
0.0
 30
0.0
 70
     1
  0
VERTEX
  5
1F0
  8
LAYER_1
 10
57.95911944722531
 20
12.13972844522383
 30
0.0
 42
0.4142135623730951
  0
VERTEX
  5
1F1
  8
LAYER_1
 10
58.67786944722531
 20
11.42097844522383
 30
0.0
 42
0.4142135623730951
  0
VERTEX
  5
1F2
  8
LAYER_1
 10
59.39661944722531
 20
12.13972844522383
 30
0.0
 42
0.4142135623730951
  0
VERTEX
  5
1F3
  8
LAYER_1
 10
58.67786944722531
 20
12.85847844522383
 30
0.0
 42
0.4142135623730951
  0
SEQEND
  5
279
  8
LAYER_1
  0
POLYLINE
  5
AC
  8
LAYER_1
 66
     1
 10
0.0
 20
0.0
 30
0.0
 70
     1
  0
VERTEX
  5
1F4
  8
LAYER_1
 10
57.80287568648386
 20
10.07691534320956
 30
0.0
  0
VERTEX
  5
1F5
  8
LAYER_1
 10
59.55287568648386
 20
10.07691534320956
 30
0.0
  0
VERTEX
  5
1F6
  8
LAYER_1
 10
59.55287568648386
 20
13.07691534320956
 30
0.0
  0
VERTEX
  5
1F7
  8
LAYER_1
 10
57.80287568648386
 20
13.07691534320956
 30
0.0
  0
SEQEND
  5
27A
  8
LAYER_1
  0
POLYLINE
  5
AD
  8
LAYER_1
 66
     1
 10
0.0
 20
0.0
 30
0.0
 70
     1
  0
VERTEX
  5
1F8
  8
LAYER_1
 10
98.17072584946932
 20
13.51669863849372
 30
0.0
  0
VERTEX
  5
1F9
  8
LAYER_1
 10
124.9832258494693
 20
13.51669863849372
 30
0.0
  0
VERTEX
  5
1FA
  8
LAYER_1
 10
124.9832258494693
 20
20.51669863849372
 30
0.0
  0
VERTEX
  5
1FB
  8
LAYER_1
 10
98.17072584946932
 20
20.51669863849372
 30
0.0
  0
SEQEND
  5
27B
  8
LAYER_1
  0
POLYLINE
  5
AE
  8
LAYER_1
 66
     1
 10
0.0
 20
0.0
 30
0.0
 70
     1
  0
VERTEX
  5
1FC
  8
LAYER_1
 10
97.98322584946932
 20
13.39169863849372
 30
0.0
  0
VERTEX
  5
1FD
  8
LAYER_1
 10
98.48322584946932
 20
13.39169863849372
 30
0.0
  0
VERTEX
  5
1FE
  8
LAYER_1
 10
98.48322584946932
 20
20.64169863849372
 30
0.0
  0
VERTEX
  5
1FF
  8
LAYER_1
 10
97.98322584946932
 20
20.64169863849372
 30
0.0
  0
SEQEND
  5
27C
  8
LAYER_1
  0
POLYLINE
  5
AF
  8
LAYER_1
 66
     1
 10
0.0
 20
0.0
 30
0.0
 70
     1
  0
VERTEX
  5
200
  8
LAYER_1
 10
124.6707258494693
 20
13.39169863849372
 30
0.0
  0
VERTEX
  5
201
  8
LAYER_1
 10
125.1707258494693
 20
13.39169863849372
 30
0.0
  0
VERTEX
  5
202
  8
LAYER_1
 10
125.1707258494693
 20
20.64169863849372
 30
0.0
  0
VERTEX
  5
203
  8
LAYER_1
 10
124.6707258494693
 20
20.64169863849372
 30
0.0
  0
SEQEND
  5
27D
  8
LAYER_1
  0
POLYLINE
  5
B0
  8
LAYER_1
 66
     1
 10
0.0
 20
0.0
 30
0.0
 70
     1
  0
VERTEX
  5
204
  8
LAYER_1
 10
99.85822584946932
 20
16.48544863849372
 30
0.0
 42
0.4142135623730951
  0
VERTEX
  5
205
  8
LAYER_1
 10
99.76447584946932
 20
16.39169863849372
 30
0.0
 42
0.4142135623730951
  0
VERTEX
  5
206
  8
LAYER_1
 10
99.85822584946932
 20
16.29794863849372
 30
0.0
 42
0.4142135623730951
  0
VERTEX
  5
207
  8
LAYER_1
 10
99.95197584946932
 20
16.39169863849372
 30
0.0
 42
0.4142135623730951
  0
SEQEND
  5
27E
  8
LAYER_1
  0
POLYLINE
  5
B1
  8
LAYER_1
 66
     1
 10
0.0
 20
0.0
 30
0.0
 70
     1
  0
VERTEX
  5
208
  8
LAYER_1
 10
99.85822584946932
 20
18.70414863849372
 30
0.0
 42
0.4142135623730951
  0
VERTEX
  5
209
  8
LAYER_1
 10
99.76447584946932
 20
18.61039863849372
 30
0.0
 42
0.4142135623730951
  0
VERTEX
  5
20A
  8
LAYER_1
 10
99.85822584946932
 20
18.51664863849372
 30
0.0
 42
0.4142135623730951
  0
VERTEX
  5
20B
  8
LAYER_1
 10
99.95197584946932
 20
18.61039863849372
 30
0.0
 42
0.4142135623730951
  0
SEQEND
  5
27F
  8
LAYER_1
  0
POLYLINE
  5
B2
  8
LAYER_1
 66
     1
 10
0.0
 20
0.0
 30
0.0
 70
     1
  0
VERTEX
  5
20C
  8
LAYER_1
 10
123.2957258494693
 20
18.70414863849372
 30
0.0
 42
0.4142135623730951
  0
VERTEX
  5
20D
  8
LAYER_1
 10
123.2019758494693
 20
18.61039863849372
 30
0.0
 42
0.4142135623730951
  0
VERTEX
  5
20E
  8
LAYER_1
 10
123.2957258494693
 20
18.51664863849372
 30
0.0
 42
0.4142135623730951
  0
VERTEX
  5
20F
  8
LAYER_1
 10
123.3894758494693
 20
18.61039863849372
 30
0.0
 42
0.4142135623730951
  0
SEQEND
  5
280
  8
LAYER_1
  0
POLYLINE
  5
B3
  8
LAYER_1
 66
     1
 10
0.0
 20
0.0
 30
0.0
 70
     1
  0
VERTEX
  5
210
  8
LAYER_1
 10
123.2957258494693
 20
16.48544863849372
 30
0.0
 42
0.4142135623730951
  0
VERTEX
  5
211
  8
LAYER_1
 10
123.2019758494693
 20
16.39169863849372
 30
0.0
 42
0.4142135623730951
  0
VERTEX
  5
212
  8
LAYER_1
 10
123.2957258494693
 20
16.29794863849372
 30
0.0
 42
0.4142135623730951
  0
VERTEX
  5
213
  8
LAYER_1
 10
123.3894758494693
 20
16.39169863849372
 30
0.0
 42
0.4142135623730951
  0
SEQEND
  5
281
  8
LAYER_1
  0
POLYLINE
  5
B4
  8
LAYER_1
 66
     1
 10
0.0
 20
0.0
 30
0.0
 70
     1
  0
VERTEX
  5
214
  8
LAYER_1
 10
104.6707258494693
 20
16.36044863849372
 30
0.0
 42
0.4142135623730951
  0
VERTEX
  5
215
  8
LAYER_1
 10
104.5769758494693
 20
16.26669863849372
 30
0.0
 42
0.4142135623730951
  0
VERTEX
  5
216
  8
LAYER_1
 10
104.6707258494693
 20
16.17294863849372
 30
0.0
 42
0.4142135623730951
  0
VERTEX
  5
217
  8
LAYER_1
 10
104.7644758494693
 20
16.26669863849372
 30
0.0
 42
0.4142135623730951
  0
SEQEND
  5
282
  8
LAYER_1
  0
POLYLINE
  5
B5
  8
LAYER_1
 66
     1
 10
0.0
 20
0.0
 30
0.0
 70
     1
  0
VERTEX
  5
218
  8
LAYER_1
 10
115.4520778926212
 20
14.51659900338977
 30
0.0
 42
0.4142135623730951
  0
VERTEX
  5
219
  8
LAYER_1
 10
115.9520778926212
 20
15.01659900338977
 30
0.0
  0
VERTEX
  5
21A
  8
LAYER_1
 10
115.9520778926212
 20
17.76659900338977
 30
0.0
 42
0.4142135623730951
  0
VERTEX
  5
21B
  8
LAYER_1
 10
115.4520778926212
 20
18.26659900338977
 30
0.0
  0
VERTEX
  5
21C
  8
LAYER_1
 10
107.7645778926212
 20
18.26659900338977
 30
0.0
 42
0.4142135623730951
  0
VERTEX
  5
21D
  8
LAYER_1
 10
107.2645778926212
 20
17.76659900338977
 30
0.0
  0
VERTEX
  5
21E
  8
LAYER_1
 10
107.2645778926212
 20
15.01659900338977
 30
0.0
 42
0.4142135623730951
  0
VERTEX
  5
21F
  8
LAYER_1
 10
107.7645778926212
 20
14.51659900338977
 30
0.0
  0
VERTEX
  5
220
  8
LAYER_1
 10
109.3582778926212
 20
14.51659900338977
 30
0.0
  0
VERTEX
  5
221
  8
LAYER_1
 10
109.3582778926212
 20
13.76659900338977
 30
0.0
  0
VERTEX
  5
222
  8
LAYER_1
 10
113.8582778926212
 20
13.76659900338977
 30
0.0
  0
VERTEX
  5
223
  8
LAYER_1
 10
113.8582778926212
 20
14.51659900338977
 30
0.0
  0
SEQEND
  5
283
  8
LAYER_1
  0
POLYLINE
  5
B6
  8
LAYER_1
 66
     1
 10
0.0
 20
0.0
 30
0.0
 70
     1
  0
VERTEX
  5
224
  8
LAYER_1
 10
104.6708778926212
 20
15.64159900338977
 30
0.0
 42
0.4142135623730951
  0
VERTEX
  5
225
  8
LAYER_1
 10
104.2958778926212
 20
15.26659900338977
 30
0.0
 42
0.4142135623730951
  0
VERTEX
  5
226
  8
LAYER_1
 10
104.6708778926212
 20
14.89159900338977
 30
0.0
 42
0.4142135623730951
  0
VERTEX
  5
227
  8
LAYER_1
 10
105.0458778926212
 20
15.26659900338977
 30
0.0
 42
0.4142135623730951
  0
SEQEND
  5
284
  8
LAYER_1
  0
POLYLINE
  5
B7
  8
LAYER_1
 66
     1
 10
0.0
 20
0.0
 30
0.0
 70
     1
  0
VERTEX
  5
228
  8
LAYER_1
 10
118.5458778926212
 20
15.64159900338977
 30
0.0
 42
0.4142135623730951
  0
VERTEX
  5
229
  8
LAYER_1
 10
118.1708778926212
 20
15.26659900338977
 30
0.0
 42
0.4142135623730951
  0
VERTEX
  5
22A
  8
LAYER_1
 10
118.5458778926212
 20
14.89159900338977
 30
0.0
 42
0.4142135623730951
  0
VERTEX
  5
22B
  8
LAYER_1
 10
118.9208778926212
 20
15.26659900338977
 30
0.0
 42
0.4142135623730951
  0
SEQEND
  5
285
  8
LAYER_1
  0
POLYLINE
  5
B8
  8
LAYER_1
 66
     1
 10
0.0
 20
0.0
 30
0.0
 70
     1
  0
VERTEX
  5
22C
  8
LAYER_1
 10
97.98402495385474
 20
1.126990485312746
 30
0.0
  0
VERTEX
  5
22D
  8
LAYER_1
 10
124.7340249538547
 20
1.126990485312746
 30
0.0
  0
VERTEX
  5
22E
  8
LAYER_1
 10
124.7340249538547
 20
11.37699048531275
 30
0.0
  0
VERTEX
  5
22F
  8
LAYER_1
 10
97.98402495385474
 20
11.37699048531275
 30
0.0
  0
SEQEND
  5
286
  8
LAYER_1
  0
POLYLINE
  5
B9
  8
LAYER_1
 66
     1
 10
0.0
 20
0.0
 30
0.0
 70
     1
  0
VERTEX
  5
230
  8
LAYER_1
 10
98.48402495385474
 20
1.376990485312746
 30
0.0
  0
VERTEX
  5
231
  8
LAYER_1
 10
124.2340249538547
 20
1.376990485312746
 30
0.0
  0
VERTEX
  5
232
  8
LAYER_1
 10
124.2340249538547
 20
1.676990485312743
 30
0.0
  0
VERTEX
  5
233
  8
LAYER_1
 10
98.48402495385474
 20
1.676990485312743
 30
0.0
  0
SEQEND
  5
287
  8
LAYER_1
  0
POLYLINE
  5
BA
  8
LAYER_1
 66
     1
 10
0.0
 20
0.0
 30
0.0
 70
     1
  0
VERTEX
  5
234
  8
LAYER_1
 10
97.85902495385474
 20
1.001990485312746
 30
0.0
  0
VERTEX
  5
235
  8
LAYER_1
 10
98.23402495385474
 20
1.001990485312746
 30
0.0
  0
VERTEX
  5
236
  8
LAYER_1
 10
98.23402495385474
 20
11.50199048531275
 30
0.0
  0
VERTEX
  5
237
  8
LAYER_1
 10
97.85902495385474
 20
11.50199048531275
 30
0.0
  0
SEQEND
  5
288
  8
LAYER_1
  0
POLYLINE
  5
BB
  8
LAYER_1
 66
     1
 10
0.0
 20
0.0
 30
0.0
 70
     1
  0
VERTEX
  5
238
  8
LAYER_1
 10
124.4840249538547
 20
1.001990485312746
 30
0.0
  0
VERTEX
  5
239
  8
LAYER_1
 10
124.8590249538547
 20
1.001990485312746
 30
0.0
  0
VERTEX
  5
23A
  8
LAYER_1
 10
124.8590249538547
 20
11.50199048531275
 30
0.0
  0
VERTEX
  5
23B
  8
LAYER_1
 10
124.4840249538547
 20
11.50199048531275
 30
0.0
  0
SEQEND
  5
289
  8
LAYER_1
  0
ENDSEC
  0
EOF
