  0
SECTION
  2
HEADER
  9
$ACADVER
  1
AC1009
  9
$DWGCODEPAGE
  3
ansi_1252
  9
$INSBASE
 10
0.0
 20
0.0
 30
0.0
  9
$EXTMIN
 10
0.5
 20
-31.52487117687351
 30
0.0
  9
$EXTMAX
 10
151.4415919587312
 20
47.78426402143295
 30
0.0
  9
$LIMMIN
 10
0.0
 20
0.0
  9
$LIMMAX
 10
12.0
 20
9.0
  9
$ORTHOMODE
 70
     0
  9
$REGENMODE
 70
     1
  9
$FILLMODE
 70
     1
  9
$QTEXTMODE
 70
     0
  9
$MIRRTEXT
 70
     1
  9
$DRAGMODE
 70
     2
  9
$LTSCALE
 40
1.0
  9
$OSMODE
 70
    37
  9
$ATTMODE
 70
     1
  9
$TEXTSIZE
 40
0.2
  9
$TRACEWID
 40
0.05
  9
$TEXTSTYLE
  7
STANDARD
  9
$CLAYER
  8
0
  9
$CELTYPE
  6
BYLAYER
  9
$CECOLOR
 62
   256
  9
$DIMSCALE
 40
1.0
  9
$DIMASZ
 40
0.18
  9
$DIMEXO
 40
0.0625
  9
$DIMDLI
 40
0.38
  9
$DIMRND
 40
0.0
  9
$DIMDLE
 40
0.0
  9
$DIMEXE
 40
0.18
  9
$DIMTP
 40
0.0
  9
$DIMTM
 40
0.0
  9
$DIMTXT
 40
0.18
  9
$DIMCEN
 40
0.09
  9
$DIMTSZ
 40
0.0
  9
$DIMTOL
 70
     0
  9
$DIMLIM
 70
     0
  9
$DIMTIH
 70
     1
  9
$DIMTOH
 70
     1
  9
$DIMSE1
 70
     0
  9
$DIMSE2
 70
     0
  9
$DIMTAD
 70
     0
  9
$DIMZIN
 70
     0
  9
$DIMBLK
  1

  9
$DIMASO
 70
     1
  9
$DIMSHO
 70
     1
  9
$DIMPOST
  1

  9
$DIMAPOST
  1

  9
$DIMALT
 70
     0
  9
$DIMALTD
 70
     2
  9
$DIMALTF
 40
25.4
  9
$DIMLFAC
 40
1.0
  9
$DIMTOFL
 70
     0
  9
$DIMTVP
 40
0.0
  9
$DIMTIX
 70
     0
  9
$DIMSOXD
 70
     0
  9
$DIMSAH
 70
     0
  9
$DIMBLK1
  1

  9
$DIMBLK2
  1

  9
$DIMSTYLE
  2
STANDARD
  9
$DIMCLRD
 70
     0
  9
$DIMCLRE
 70
     0
  9
$DIMCLRT
 70
     0
  9
$DIMTFAC
 40
1.0
  9
$DIMGAP
 40
0.09
  9
$LUNITS
 70
     2
  9
$LUPREC
 70
     4
  9
$SKETCHINC
 40
0.1
  9
$FILLETRAD
 40
0.5
  9
$AUNITS
 70
     0
  9
$AUPREC
 70
     0
  9
$MENU
  1
.
  9
$ELEVATION
 40
0.0
  9
$PELEVATION
 40
0.0
  9
$THICKNESS
 40
0.0
  9
$LIMCHECK
 70
     0
  9
$CHAMFERA
 40
0.0
  9
$CHAMFERB
 40
0.0
  9
$SKPOLY
 70
     0
  9
$TDCREATE
 40
2454910.5
  9
$TDUPDATE
 40
2457522.639108646
  9
$TDINDWG
 40
0.0000000116
  9
$TDUSRTIMER
 40
0.0000000116
  9
$USRTIMER
 70
     1
  9
$ANGBASE
 50
0.0
  9
$ANGDIR
 70
     0
  9
$PDMODE
 70
     0
  9
$PDSIZE
 40
0.0
  9
$PLINEWID
 40
0.0
  9
$COORDS
 70
     1
  9
$SPLFRAME
 70
     0
  9
$SPLINETYPE
 70
     6
  9
$SPLINESEGS
 70
     8
  9
$ATTDIA
 70
     0
  9
$ATTREQ
 70
     1
  9
$HANDLING
 70
     1
  9
$HANDSEED
  5
A39
  9
$SURFTAB1
 70
     6
  9
$SURFTAB2
 70
     6
  9
$SURFTYPE
 70
     6
  9
$SURFU
 70
     6
  9
$SURFV
 70
     6
  9
$UCSNAME
  2

  9
$UCSORG
 10
0.0
 20
0.0
 30
0.0
  9
$UCSXDIR
 10
1.0
 20
0.0
 30
0.0
  9
$UCSYDIR
 10
0.0
 20
1.0
 30
0.0
  9
$PUCSNAME
  2

  9
$PUCSORG
 10
0.0
 20
0.0
 30
0.0
  9
$PUCSXDIR
 10
1.0
 20
0.0
 30
0.0
  9
$PUCSYDIR
 10
0.0
 20
1.0
 30
0.0
  9
$USERI1
 70
     0
  9
$USERI2
 70
     0
  9
$USERI3
 70
     0
  9
$USERI4
 70
     0
  9
$USERI5
 70
     0
  9
$USERR1
 40
0.0
  9
$USERR2
 40
0.0
  9
$USERR3
 40
0.0
  9
$USERR4
 40
0.0
  9
$USERR5
 40
0.0
  9
$WORLDVIEW
 70
     1
  9
$SHADEDGE
 70
     3
  9
$SHADEDIF
 70
    70
  9
$TILEMODE
 70
     1
  9
$MAXACTVP
 70
    64
  9
$PLIMCHECK
 70
     0
  9
$PEXTMIN
 10
1.000000000000000E+20
 20
1.000000000000000E+20
 30
1.000000000000000E+20
  9
$PEXTMAX
 10
-1.000000000000000E+20
 20
-1.000000000000000E+20
 30
-1.000000000000000E+20
  9
$PLIMMIN
 10
0.0
 20
0.0
  9
$PLIMMAX
 10
12.0
 20
9.0
  9
$UNITMODE
 70
     0
  9
$VISRETAIN
 70
     1
  9
$PLINEGEN
 70
     0
  9
$PSLTSCALE
 70
     1
  0
ENDSEC
  0
SECTION
  2
TABLES
  0
TABLE
  2
VPORT
 70
     1
  0
VPORT
  2
*ACTIVE
 70
     0
 10
0.0
 20
0.0
 11
1.0
 21
1.0
 12
10.42990654205607
 22
4.5
 13
0.0
 23
0.0
 14
0.5
 24
0.5
 15
0.5
 25
0.5
 16
0.0
 26
0.0
 36
1.0
 17
0.0
 27
0.0
 37
0.0
 40
9.0
 41
1.972972972850329
 42
50.0
 43
0.0
 44
0.0
 50
0.0
 51
0.0
 71
     0
 72
   100
 73
     1
 74
     3
 75
     0
 76
     0
 77
     0
 78
     0
  0
ENDTAB
  0
TABLE
  2
LTYPE
 70
     2
  0
LTYPE
  2
CONTINUOUS
 70
     0
  3
Solid line
 72
    65
 73
     0
 40
0.0
  0
LTYPE
  2
CONTINUOUS2
 70
     0
  3
Solid Line
 72
    65
 73
     0
 40
0.0
  0
ENDTAB
  0
TABLE
  2
LAYER
 70
     2
  0
LAYER
  2
0
 70
     0
 62
     7
  6
CONTINUOUS
  0
LAYER
  2
LAYER_1
 70
     0
 62
    18
  6
CONTINUOUS
  0
ENDTAB
  0
TABLE
  2
STYLE
 70
     1
  0
STYLE
  2
STANDARD
 70
     0
 40
0.0
 41
1.0
 50
0.0
 71
     0
 42
0.2
  3
txt
  4

  0
ENDTAB
  0
TABLE
  2
VIEW
 70
     0
  0
ENDTAB
  0
TABLE
  2
UCS
 70
     0
  0
ENDTAB
  0
TABLE
  2
APPID
 70
     1
  0
APPID
  2
ACAD
 70
     0
  0
ENDTAB
  0
TABLE
  2
DIMSTYLE
 70
     1
  0
DIMSTYLE
  2
STANDARD
 70
     0
  3

  4

  5

  6

  7

 40
1.0
 41
0.18
 42
0.0625
 43
0.38
 44
0.18
 45
0.0
 46
0.0
 47
0.0
 48
0.0
140
0.18
141
0.09
142
0.0
143
25.4
144
1.0
145
0.0
146
1.0
147
0.09
 71
     0
 72
     0
 73
     1
 74
     1
 75
     0
 76
     0
 77
     0
 78
     0
170
     0
171
     2
172
     0
173
     0
174
     0
175
     0
176
     0
177
     0
178
     0
  0
ENDTAB
  0
ENDSEC
  0
SECTION
  2
BLOCKS
  0
BLOCK
  8
0
  2
$MODEL_SPACE
 70
     0
 10
0.0
 20
0.0
 30
0.0
  3
$MODEL_SPACE
  1

  0
ENDBLK
  5
21
  8
0
  0
BLOCK
 67
     1
  8
0
  2
$PAPER_SPACE
 70
     0
 10
0.0
 20
0.0
 30
0.0
  3
$PAPER_SPACE
  1

  0
ENDBLK
  5
1D
 67
     1
  8
0
  0
ENDSEC
  0
SECTION
  2
ENTITIES
  0
POLYLINE
  5
70
  8
LAYER_1
 66
     1
 10
0.0
 20
0.0
 30
0.0
 70
     1
  0
VERTEX
  5
DD
  8
LAYER_1
 10
71.9776123591254
 20
44.44969704354641
 30
0.0
  0
VERTEX
  5
DE
  8
LAYER_1
 10
95.3526123591254
 20
44.44969704354641
 30
0.0
  0
VERTEX
  5
DF
  8
LAYER_1
 10
95.3526123591254
 20
45.07469704354641
 30
0.0
  0
VERTEX
  5
E0
  8
LAYER_1
 10
71.9776123591254
 20
45.07469704354641
 30
0.0
  0
SEQEND
  5
9D3
  8
LAYER_1
  0
POLYLINE
  5
71
  8
LAYER_1
 66
     1
 10
0.0
 20
0.0
 30
0.0
 70
     1
  0
VERTEX
  5
E1
  8
LAYER_1
 10
84.5668439439838
 20
45.01219704354641
 30
0.0
  0
VERTEX
  5
E2
  8
LAYER_1
 10
95.2276123591254
 20
45.01219704354641
 30
0.0
  0
VERTEX
  5
E3
  8
LAYER_1
 10
95.2276123591254
 20
40.01219704354641
 30
0.0
  0
VERTEX
  5
E4
  8
LAYER_1
 10
72.1026123591254
 20
40.01219704354641
 30
0.0
  0
VERTEX
  5
E5
  8
LAYER_1
 10
72.1026123591254
 20
45.01219704354641
 30
0.0
  0
VERTEX
  5
E6
  8
LAYER_1
 10
82.19145217290404
 20
45.01219704354641
 30
0.0
  0
VERTEX
  5
E7
  8
LAYER_1
 10
82.2901123591254
 20
45.01219704354641
 30
0.0
  0
VERTEX
  5
E8
  8
LAYER_1
 10
82.2901123591254
 20
44.6962636974152
 30
0.0
  0
VERTEX
  5
E9
  8
LAYER_1
 10
82.2901123591254
 20
44.60594704354641
 30
0.0
 42
0.4142135623730951
  0
VERTEX
  5
EA
  8
LAYER_1
 10
83.3838623591254
 20
43.51219704354641
 30
0.0
 42
0.4142135623730951
  0
VERTEX
  5
EB
  8
LAYER_1
 10
84.4776123591254
 20
44.60594704354641
 30
0.0
  0
VERTEX
  5
EC
  8
LAYER_1
 10
84.4776123591254
 20
44.68311577248303
 30
0.0
  0
VERTEX
  5
ED
  8
LAYER_1
 10
84.4776123591254
 20
45.01219704354641
 30
0.0
  0
SEQEND
  5
9D4
  8
LAYER_1
  0
POLYLINE
  5
72
  8
LAYER_1
 66
     1
 10
0.0
 20
0.0
 30
0.0
 70
     1
  0
VERTEX
  5
EE
  8
LAYER_1
 10
47.50158430848373
 20
27.05192783957022
 30
0.0
  0
VERTEX
  5
EF
  8
LAYER_1
 10
70.62658430848373
 20
27.05192783957022
 30
0.0
  0
VERTEX
  5
F0
  8
LAYER_1
 10
70.62658430848373
 20
44.33312783957021
 30
0.0
  0
VERTEX
  5
F1
  8
LAYER_1
 10
47.50158430848373
 20
44.33312783957021
 30
0.0
  0
SEQEND
  5
9D5
  8
LAYER_1
  0
POLYLINE
  5
73
  8
LAYER_1
 66
     1
 10
0.0
 20
0.0
 30
0.0
 70
     1
  0
VERTEX
  5
F2
  8
LAYER_1
 10
72.25
 20
0.746305348634241
 30
0.0
  0
VERTEX
  5
F3
  8
LAYER_1
 10
95.3125
 20
0.746305348634241
 30
0.0
  0
VERTEX
  5
F4
  8
LAYER_1
 10
95.3125
 20
37.87130534863425
 30
0.0
  0
VERTEX
  5
F5
  8
LAYER_1
 10
72.25
 20
37.87130534863425
 30
0.0
  0
SEQEND
  5
9D6
  8
LAYER_1
  0
POLYLINE
  5
74
  8
LAYER_1
 66
     1
 10
0.0
 20
0.0
 30
0.0
 70
     1
  0
VERTEX
  5
F6
  8
LAYER_1
 10
84.1713
 20
37.15130534863425
 30
0.0
 42
0.4142135623730951
  0
VERTEX
  5
F7
  8
LAYER_1
 10
83.78130000000002
 20
36.76130534863425
 30
0.0
 42
0.4142135623730951
  0
VERTEX
  5
F8
  8
LAYER_1
 10
84.1713
 20
36.37130534863425
 30
0.0
 42
0.4142135623730951
  0
VERTEX
  5
F9
  8
LAYER_1
 10
84.56129999999999
 20
36.76130534863425
 30
0.0
 42
0.4142135623730951
  0
SEQEND
  5
9D7
  8
LAYER_1
  0
POLYLINE
  5
75
  8
LAYER_1
 66
     1
 10
0.0
 20
0.0
 30
0.0
 70
     1
  0
VERTEX
  5
FA
  8
LAYER_1
 10
72.125
 20
0.5963053486342424
 30
0.0
  0
VERTEX
  5
FB
  8
LAYER_1
 10
95.5
 20
0.5963053486342424
 30
0.0
  0
VERTEX
  5
FC
  8
LAYER_1
 10
95.5
 20
1.121305348634241
 30
0.0
  0
VERTEX
  5
FD
  8
LAYER_1
 10
72.125
 20
1.121305348634241
 30
0.0
  0
SEQEND
  5
9D8
  8
LAYER_1
  0
POLYLINE
  5
76
  8
LAYER_1
 66
     1
 10
0.0
 20
0.0
 30
0.0
 70
     1
  0
VERTEX
  5
FE
  8
LAYER_1
 10
15.48330737489627
 20
32.04274443220481
 30
0.0
  0
VERTEX
  5
FF
  8
LAYER_1
 10
38.60830737489627
 20
32.04274443220481
 30
0.0
  0
VERTEX
  5
100
  8
LAYER_1
 10
38.60830737489627
 20
47.04274443220481
 30
0.0
  0
VERTEX
  5
101
  8
LAYER_1
 10
15.48330737489627
 20
47.04274443220481
 30
0.0
  0
SEQEND
  5
9D9
  8
LAYER_1
  0
POLYLINE
  5
77
  8
LAYER_1
 66
     1
 10
0.0
 20
0.0
 30
0.0
 70
     1
  0
VERTEX
  5
102
  8
LAYER_1
 10
45.83097096287364
 20
24.15369465136576
 30
0.0
  0
VERTEX
  5
103
  8
LAYER_1
 10
45.83097096287364
 20
47.27869465136575
 30
0.0
  0
VERTEX
  5
104
  8
LAYER_1
 10
42.83097096287364
 20
47.27869465136575
 30
0.0
  0
VERTEX
  5
105
  8
LAYER_1
 10
42.83097096287364
 20
24.15369465136576
 30
0.0
  0
SEQEND
  5
9DA
  8
LAYER_1
  0
POLYLINE
  5
78
  8
LAYER_1
 66
     1
 10
0.0
 20
0.0
 30
0.0
 70
     1
  0
VERTEX
  5
106
  8
LAYER_1
 10
46.01847096287364
 20
24.02869465136576
 30
0.0
  0
VERTEX
  5
107
  8
LAYER_1
 10
46.01847096287364
 20
47.40369465136575
 30
0.0
  0
VERTEX
  5
108
  8
LAYER_1
 10
45.26847096287364
 20
47.40369465136575
 30
0.0
  0
VERTEX
  5
109
  8
LAYER_1
 10
45.26847096287364
 20
24.02869465136576
 30
0.0
  0
SEQEND
  5
9DB
  8
LAYER_1
  0
POLYLINE
  5
79
  8
LAYER_1
 66
     1
 10
0.0
 20
0.0
 30
0.0
 70
     1
  0
VERTEX
  5
10A
  8
LAYER_1
 10
47.50158430848373
 20
27.05192783957022
 30
0.0
  0
VERTEX
  5
10B
  8
LAYER_1
 10
70.62658430848373
 20
27.05192783957022
 30
0.0
  0
VERTEX
  5
10C
  8
LAYER_1
 10
70.62658430848373
 20
44.33312783957021
 30
0.0
  0
VERTEX
  5
10D
  8
LAYER_1
 10
47.50158430848373
 20
44.33312783957021
 30
0.0
  0
SEQEND
  5
9DC
  8
LAYER_1
  0
POLYLINE
  5
7A
  8
LAYER_1
 66
     1
 10
0.0
 20
0.0
 30
0.0
 70
     1
  0
VERTEX
  5
10E
  8
LAYER_1
 10
66.34533430848373
 20
31.73942783957022
 30
0.0
 42
0.4142135623730951
  0
VERTEX
  5
10F
  8
LAYER_1
 10
65.62658430848373
 20
31.02067783957022
 30
0.0
 42
0.4142135623730951
  0
VERTEX
  5
110
  8
LAYER_1
 10
66.34533430848373
 20
30.30192783957022
 30
0.0
 42
0.4142135623730951
  0
VERTEX
  5
111
  8
LAYER_1
 10
67.06408430848373
 20
31.02067783957022
 30
0.0
 42
0.4142135623730951
  0
SEQEND
  5
9DD
  8
LAYER_1
  0
POLYLINE
  5
7B
  8
LAYER_1
 66
     1
 10
0.0
 20
0.0
 30
0.0
 70
     1
  0
VERTEX
  5
112
  8
LAYER_1
 10
36.40619999999998
 20
29.62800534863424
 30
0.0
 42
0.4142135623730951
  0
VERTEX
  5
113
  8
LAYER_1
 10
36.2807
 20
29.50250534863424
 30
0.0
 42
0.4142135623730951
  0
VERTEX
  5
114
  8
LAYER_1
 10
36.40619999999998
 20
29.37700534863424
 30
0.0
 42
0.4142135623730951
  0
VERTEX
  5
115
  8
LAYER_1
 10
36.5317
 20
29.50250534863424
 30
0.0
 42
0.4142135623730951
  0
SEQEND
  5
9DE
  8
LAYER_1
  0
POLYLINE
  5
7C
  8
LAYER_1
 66
     1
 10
0.0
 20
0.0
 30
0.0
 70
     1
  0
VERTEX
  5
116
  8
LAYER_1
 10
38.40619999999998
 20
29.62800534863424
 30
0.0
 42
0.4142135623730951
  0
VERTEX
  5
117
  8
LAYER_1
 10
38.2807
 20
29.50250534863424
 30
0.0
 42
0.4142135623730951
  0
VERTEX
  5
118
  8
LAYER_1
 10
38.40619999999998
 20
29.37700534863424
 30
0.0
 42
0.4142135623730951
  0
VERTEX
  5
119
  8
LAYER_1
 10
38.5317
 20
29.50250534863424
 30
0.0
 42
0.4142135623730951
  0
SEQEND
  5
9DF
  8
LAYER_1
  0
POLYLINE
  5
7D
  8
LAYER_1
 66
     1
 10
0.0
 20
0.0
 30
0.0
 70
     1
  0
VERTEX
  5
11A
  8
LAYER_1
 10
38.40619999999998
 20
24.62800534863424
 30
0.0
 42
0.4142135623730951
  0
VERTEX
  5
11B
  8
LAYER_1
 10
38.2807
 20
24.50250534863424
 30
0.0
 42
0.4142135623730951
  0
VERTEX
  5
11C
  8
LAYER_1
 10
38.40619999999998
 20
24.37700534863424
 30
0.0
 42
0.4142135623730951
  0
VERTEX
  5
11D
  8
LAYER_1
 10
38.5317
 20
24.50250534863424
 30
0.0
 42
0.4142135623730951
  0
SEQEND
  5
9E0
  8
LAYER_1
  0
POLYLINE
  5
7E
  8
LAYER_1
 66
     1
 10
0.0
 20
0.0
 30
0.0
 70
     1
  0
VERTEX
  5
11E
  8
LAYER_1
 10
36.40619999999998
 20
24.62800534863424
 30
0.0
 42
0.4142135623730951
  0
VERTEX
  5
11F
  8
LAYER_1
 10
36.2807
 20
24.50250534863424
 30
0.0
 42
0.4142135623730951
  0
VERTEX
  5
120
  8
LAYER_1
 10
36.40619999999998
 20
24.37700534863424
 30
0.0
 42
0.4142135623730951
  0
VERTEX
  5
121
  8
LAYER_1
 10
36.5317
 20
24.50250534863424
 30
0.0
 42
0.4142135623730951
  0
SEQEND
  5
9E1
  8
LAYER_1
  0
POLYLINE
  5
7F
  8
LAYER_1
 66
     1
 10
0.0
 20
0.0
 30
0.0
 70
     1
  0
VERTEX
  5
122
  8
LAYER_1
 10
69.43749999962793
 20
24.78380534850485
 30
0.0
  0
VERTEX
  5
123
  8
LAYER_1
 10
60.37500000018355
 20
25.56500534871105
 30
0.0
  0
VERTEX
  5
124
  8
LAYER_1
 10
60.35881606153757
 20
25.56612237580539
 30
0.0
  0
VERTEX
  5
125
  8
LAYER_1
 10
60.34239789224228
 20
25.56669008684613
 30
0.0
  0
VERTEX
  5
126
  8
LAYER_1
 10
60.32581165425529
 20
25.56668267021349
 30
0.0
  0
VERTEX
  5
127
  8
LAYER_1
 10
60.30912350953417
 20
25.5660743142877
 30
0.0
  0
VERTEX
  5
128
  8
LAYER_1
 10
60.29239962003656
 20
25.56483920744896
 30
0.0
  0
VERTEX
  5
129
  8
LAYER_1
 10
60.27570614772003
 20
25.56295153807751
 30
0.0
  0
VERTEX
  5
12A
  8
LAYER_1
 10
60.2591092545422
 20
25.56038549455357
 30
0.0
  0
VERTEX
  5
12B
  8
LAYER_1
 10
60.24267510246067
 20
25.55711526525736
 30
0.0
  0
VERTEX
  5
12C
  8
LAYER_1
 10
60.22646985343302
 20
25.55311503856909
 30
0.0
  0
VERTEX
  5
12D
  8
LAYER_1
 10
60.21055966941687
 20
25.54835900286899
 30
0.0
  0
VERTEX
  5
12E
  8
LAYER_1
 10
60.19501071236982
 20
25.54282134653728
 30
0.0
  0
VERTEX
  5
12F
  8
LAYER_1
 10
60.17988914424947
 20
25.53647625795419
 30
0.0
  0
VERTEX
  5
130
  8
LAYER_1
 10
60.16526112701342
 20
25.52929792549993
 30
0.0
  0
VERTEX
  5
131
  8
LAYER_1
 10
60.15119282261927
 20
25.52126053755472
 30
0.0
  0
VERTEX
  5
132
  8
LAYER_1
 10
60.1377503930246
 20
25.51233828249879
 30
0.0
  0
VERTEX
  5
133
  8
LAYER_1
 10
60.12500000018704
 20
25.50250534871236
 30
0.0
  0
VERTEX
  5
134
  8
LAYER_1
 10
54.18750000008427
 20
20.56500534866759
 30
0.0
  0
VERTEX
  5
135
  8
LAYER_1
 10
54.1646131797012
 20
20.54621079030677
 30
0.0
  0
VERTEX
  5
136
  8
LAYER_1
 10
54.14133150737321
 20
20.52756512495233
 30
0.0
  0
VERTEX
  5
137
  8
LAYER_1
 10
54.11766571391009
 20
20.50908022255111
 30
0.0
  0
VERTEX
  5
138
  8
LAYER_1
 10
54.09362653012167
 20
20.49076795304992
 30
0.0
  0
VERTEX
  5
139
  8
LAYER_1
 10
54.06922468681777
 20
20.47264018639561
 30
0.0
  0
VERTEX
  5
13A
  8
LAYER_1
 10
54.04447091480819
 20
20.454708792535
 30
0.0
  0
VERTEX
  5
13B
  8
LAYER_1
 10
54.01937594490275
 20
20.43698564141493
 30
0.0
  0
VERTEX
  5
13C
  8
LAYER_1
 10
53.99395050791127
 20
20.41948260298222
 30
0.0
  0
VERTEX
  5
13D
  8
LAYER_1
 10
53.96820533464356
 20
20.40221154718371
 30
0.0
  0
VERTEX
  5
13E
  8
LAYER_1
 10
53.94215115590941
 20
20.38518434396623
 30
0.0
  0
VERTEX
  5
13F
  8
LAYER_1
 10
53.91579870251867
 20
20.36841286327661
 30
0.0
  0
VERTEX
  5
140
  8
LAYER_1
 10
53.88915870528113
 20
20.35190897506168
 30
0.0
  0
VERTEX
  5
141
  8
LAYER_1
 10
53.86224189500662
 20
20.33568454926827
 30
0.0
  0
VERTEX
  5
142
  8
LAYER_1
 10
53.83505900250494
 20
20.31975145584321
 30
0.0
  0
VERTEX
  5
143
  8
LAYER_1
 10
53.80762075858591
 20
20.30412156473334
 30
0.0
  0
VERTEX
  5
144
  8
LAYER_1
 10
53.77993789405934
 20
20.28880674588547
 30
0.0
  0
VERTEX
  5
145
  8
LAYER_1
 10
53.75202113973506
 20
20.27381886924645
 30
0.0
  0
VERTEX
  5
146
  8
LAYER_1
 10
53.72388122642285
 20
20.25916980476311
 30
0.0
  0
VERTEX
  5
147
  8
LAYER_1
 10
53.69552888493256
 20
20.24487142238228
 30
0.0
  0
VERTEX
  5
148
  8
LAYER_1
 10
53.66697484607398
 20
20.23093559205078
 30
0.0
  0
VERTEX
  5
149
  8
LAYER_1
 10
53.63822984065693
 20
20.21737418371546
 30
0.0
  0
VERTEX
  5
14A
  8
LAYER_1
 10
53.60930459949122
 20
20.20419906732313
 30
0.0
  0
VERTEX
  5
14B
  8
LAYER_1
 10
53.58020985338668
 20
20.19142211282063
 30
0.0
  0
VERTEX
  5
14C
  8
LAYER_1
 10
53.55095633315311
 20
20.1790551901548
 30
0.0
  0
VERTEX
  5
14D
  8
LAYER_1
 10
53.52155476960033
 20
20.16711016927245
 30
0.0
  0
VERTEX
  5
14E
  8
LAYER_1
 10
53.49201589353814
 20
20.15559892012044
 30
0.0
  0
VERTEX
  5
14F
  8
LAYER_1
 10
53.46235043577636
 20
20.14453331264557
 30
0.0
  0
VERTEX
  5
150
  8
LAYER_1
 10
53.43256912712481
 20
20.13392521679469
 30
0.0
  0
VERTEX
  5
151
  8
LAYER_1
 10
53.40268269839331
 20
20.12378650251463
 30
0.0
  0
VERTEX
  5
152
  8
LAYER_1
 10
53.37270188039165
 20
20.11412903975222
 30
0.0
  0
VERTEX
  5
153
  8
LAYER_1
 10
53.34263740392966
 20
20.10496469845428
 30
0.0
  0
VERTEX
  5
154
  8
LAYER_1
 10
53.31249999981716
 20
20.09630534856765
 30
0.0
  0
VERTEX
  5
155
  8
LAYER_1
 10
53.28476015086883
 20
20.08880871297943
 30
0.0
  0
VERTEX
  5
156
  8
LAYER_1
 10
53.25697670379235
 20
20.08175974163193
 30
0.0
  0
VERTEX
  5
157
  8
LAYER_1
 10
53.22915657387767
 20
20.07516203349202
 30
0.0
  0
VERTEX
  5
158
  8
LAYER_1
 10
53.20130667641476
 20
20.06901918752651
 30
0.0
  0
VERTEX
  5
159
  8
LAYER_1
 10
53.17343392669359
 20
20.06333480270226
 30
0.0
  0
VERTEX
  5
15A
  8
LAYER_1
 10
53.14554524000413
 20
20.0581124779861
 30
0.0
  0
VERTEX
  5
15B
  8
LAYER_1
 10
53.11764753163632
 20
20.05335581234488
 30
0.0
  0
VERTEX
  5
15C
  8
LAYER_1
 10
53.08974771688013
 20
20.04906840474544
 30
0.0
  0
VERTEX
  5
15D
  8
LAYER_1
 10
53.06185271102551
 20
20.04525385415462
 30
0.0
  0
VERTEX
  5
15E
  8
LAYER_1
 10
53.03396942936244
 20
20.04191575953926
 30
0.0
  0
VERTEX
  5
15F
  8
LAYER_1
 10
53.00610478718088
 20
20.03905771986621
 30
0.0
  0
VERTEX
  5
160
  8
LAYER_1
 10
52.97826569977079
 20
20.0366833341023
 30
0.0
  0
VERTEX
  5
161
  8
LAYER_1
 10
52.95045908242213
 20
20.03479620121438
 30
0.0
  0
VERTEX
  5
162
  8
LAYER_1
 10
52.92269185042485
 20
20.03339992016928
 30
0.0
  0
VERTEX
  5
163
  8
LAYER_1
 10
52.89497091906894
 20
20.03249808993385
 30
0.0
  0
VERTEX
  5
164
  8
LAYER_1
 10
52.86730320364433
 20
20.03209430947494
 30
0.0
  0
VERTEX
  5
165
  8
LAYER_1
 10
52.83969561944101
 20
20.03219217775937
 30
0.0
  0
VERTEX
  5
166
  8
LAYER_1
 10
52.81215508174893
 20
20.032795293754
 30
0.0
  0
VERTEX
  5
167
  8
LAYER_1
 10
52.78468850585804
 20
20.03390725642566
 30
0.0
  0
VERTEX
  5
168
  8
LAYER_1
 10
52.75730280705832
 20
20.0355316647412
 30
0.0
  0
VERTEX
  5
169
  8
LAYER_1
 10
52.73000490063971
 20
20.03767211766746
 30
0.0
  0
VERTEX
  5
16A
  8
LAYER_1
 10
52.70280170189221
 20
20.04033221417127
 30
0.0
  0
VERTEX
  5
16B
  8
LAYER_1
 10
52.67570012610575
 20
20.04351555321948
 30
0.0
  0
VERTEX
  5
16C
  8
LAYER_1
 10
52.6487070885703
 20
20.04722573377894
 30
0.0
  0
VERTEX
  5
16D
  8
LAYER_1
 10
52.62182950457583
 20
20.05146635481648
 30
0.0
  0
VERTEX
  5
16E
  8
LAYER_1
 10
52.59507428941228
 20
20.05624101529894
 30
0.0
  0
VERTEX
  5
16F
  8
LAYER_1
 10
52.56844835836964
 20
20.06155331419318
 30
0.0
  0
VERTEX
  5
170
  8
LAYER_1
 10
52.54195862673785
 20
20.06740685046602
 30
0.0
  0
VERTEX
  5
171
  8
LAYER_1
 10
52.51561200980689
 20
20.07380522308431
 30
0.0
  0
VERTEX
  5
172
  8
LAYER_1
 10
52.4894154228667
 20
20.08075203101489
 30
0.0
  0
VERTEX
  5
173
  8
LAYER_1
 10
52.46337578120726
 20
20.0882508732246
 30
0.0
  0
VERTEX
  5
174
  8
LAYER_1
 10
52.43750000011852
 20
20.09630534868029
 30
0.0
  0
VERTEX
  5
175
  8
LAYER_1
 10
39.18750000007475
 20
24.37750534868034
 30
0.0
  0
VERTEX
  5
176
  8
LAYER_1
 10
39.15972471022033
 20
24.37899044819306
 30
0.0
 42
-0.3300106339593533
  0
VERTEX
  5
177
  8
LAYER_1
 10
38.99322117703522
 20
24.60378643132861
 30
0.0
 42
-0.3519260222810296
  0
VERTEX
  5
178
  8
LAYER_1
 10
39.17757087194093
 20
24.83326311117616
 30
0.0
  0
VERTEX
  5
179
  8
LAYER_1
 10
39.17952922629052
 20
24.83393751799203
 30
0.0
  0
VERTEX
  5
17A
  8
LAYER_1
 10
39.18137297725291
 20
24.83502944905173
 30
0.0
  0
VERTEX
  5
17B
  8
LAYER_1
 10
39.18305696747417
 20
24.83646669550085
 30
0.0
  0
VERTEX
  5
17C
  8
LAYER_1
 10
39.18453603960037
 20
24.83817704848495
 30
0.0
  0
VERTEX
  5
17D
  8
LAYER_1
 10
39.1857650362776
 20
24.84008829914961
 30
0.0
  0
VERTEX
  5
17E
  8
LAYER_1
 10
39.18669880015192
 20
24.8421282386404
 30
0.0
  0
VERTEX
  5
17F
  8
LAYER_1
 10
39.18729217386941
 20
24.8442246581029
 30
0.0
  0
VERTEX
  5
180
  8
LAYER_1
 10
39.18750000007614
 20
24.84630534868267
 30
0.0
  0
VERTEX
  5
181
  8
LAYER_1
 10
39.18750000021046
 20
30.2213053487939
 30
0.0
  0
VERTEX
  5
182
  8
LAYER_1
 10
39.13265455038876
 20
30.28629504581319
 30
0.0
  0
VERTEX
  5
183
  8
LAYER_1
 10
39.10150145770066
 20
30.31668830697231
 30
0.0
  0
VERTEX
  5
184
  8
LAYER_1
 10
39.06249999982052
 20
30.34630534849743
 30
0.0
  0
VERTEX
  5
185
  8
LAYER_1
 10
39.04793690813129
 20
30.35860075686331
 30
0.0
  0
VERTEX
  5
186
  8
LAYER_1
 10
39.03312542764652
 20
30.37028037138248
 30
0.0
  0
VERTEX
  5
187
  8
LAYER_1
 10
39.01807094541796
 20
30.38136424864373
 30
0.0
  0
VERTEX
  5
188
  8
LAYER_1
 10
39.0027788484974
 20
30.39187244523582
 30
0.0
  0
VERTEX
  5
189
  8
LAYER_1
 10
38.98725452393658
 20
30.40182501774755
 30
0.0
  0
VERTEX
  5
18A
  8
LAYER_1
 10
38.97150335878729
 20
30.41124202276769
 30
0.0
  0
VERTEX
  5
18B
  8
LAYER_1
 10
38.95553074010128
 20
30.42014351688502
 30
0.0
  0
VERTEX
  5
18C
  8
LAYER_1
 10
38.93934205493034
 20
30.42854955668832
 30
0.0
  0
VERTEX
  5
18D
  8
LAYER_1
 10
38.92294269032622
 20
30.43648019876638
 30
0.0
  0
VERTEX
  5
18E
  8
LAYER_1
 10
38.90633803334069
 20
30.44395549970797
 30
0.0
  0
VERTEX
  5
18F
  8
LAYER_1
 10
38.88953347102552
 20
30.45099551610188
 30
0.0
  0
VERTEX
  5
190
  8
LAYER_1
 10
38.87253439043248
 20
30.45762030453687
 30
0.0
  0
VERTEX
  5
191
  8
LAYER_1
 10
38.85534617861335
 20
30.46384992160175
 30
0.0
  0
VERTEX
  5
192
  8
LAYER_1
 10
38.83797422261986
 20
30.46970442388528
 30
0.0
  0
VERTEX
  5
193
  8
LAYER_1
 10
38.82042390950382
 20
30.47520386797623
 30
0.0
  0
VERTEX
  5
194
  8
LAYER_1
 10
38.80270062631698
 20
30.4803683104634
 30
0.0
  0
VERTEX
  5
195
  8
LAYER_1
 10
38.7848097601111
 20
30.48521780793557
 30
0.0
  0
VERTEX
  5
196
  8
LAYER_1
 10
38.76675669793797
 20
30.48977241698151
 30
0.0
  0
VERTEX
  5
197
  8
LAYER_1
 10
38.73018553389697
 20
30.49807719614983
 30
0.0
  0
VERTEX
  5
198
  8
LAYER_1
 10
38.69303023060814
 20
30.50544310067861
 30
0.0
  0
VERTEX
  5
199
  8
LAYER_1
 10
38.65533388448561
 20
30.51203058327809
 30
0.0
  0
VERTEX
  5
19A
  8
LAYER_1
 10
38.61713959194354
 20
30.5180000966585
 30
0.0
  0
VERTEX
  5
19B
  8
LAYER_1
 10
38.57849044939606
 20
30.5235120935301
 30
0.0
  0
VERTEX
  5
19C
  8
LAYER_1
 10
38.49999999994142
 20
30.5338053485878
 30
0.0
  0
VERTEX
  5
19D
  8
LAYER_1
 10
38.40894594117738
 20
30.54527047361755
 30
0.0
  0
VERTEX
  5
19E
  8
LAYER_1
 10
38.31610633293081
 20
30.55650839420273
 30
0.0
  0
VERTEX
  5
19F
  8
LAYER_1
 10
38.22316096022865
 20
30.56715429718258
 30
0.0
  0
VERTEX
  5
1A0
  8
LAYER_1
 10
38.13178960809779
 20
30.57684336939631
 30
0.0
  0
VERTEX
  5
1A1
  8
LAYER_1
 10
38.05010906181325
 20
30.58460241008835
 30
0.0
  0
VERTEX
  5
1A2
  8
LAYER_1
 10
38.0100981237167
 20
30.58791595547248
 30
0.0
  0
VERTEX
  5
1A3
  8
LAYER_1
 10
37.97044551619526
 20
30.59076823141147
 30
0.0
  0
VERTEX
  5
1A4
  8
LAYER_1
 10
37.93100531965734
 20
30.59309627330242
 30
0.0
  0
VERTEX
  5
1A5
  8
LAYER_1
 10
37.89163161451144
 20
30.5948371165424
 30
0.0
  0
VERTEX
  5
1A6
  8
LAYER_1
 10
37.85217848116599
 20
30.59592779652851
 30
0.0
  0
VERTEX
  5
1A7
  8
LAYER_1
 10
37.81250000002947
 20
30.59630534865785
 30
0.0
  0
VERTEX
  5
1A8
  8
LAYER_1
 10
0.5
 20
30.59630534863423
 30
0.0
  0
VERTEX
  5
1A9
  8
LAYER_1
 10
0.5
 20
0.5963053486342424
 30
0.0
  0
VERTEX
  5
1AA
  8
LAYER_1
 10
60.49999999999923
 20
0.5963053486342424
 30
0.0
  0
VERTEX
  5
1AB
  8
LAYER_1
 10
69.49999999995231
 20
16.34630534862236
 30
0.0
  0
VERTEX
  5
1AC
  8
LAYER_1
 10
69.50478826178077
 20
16.35501566530154
 30
0.0
  0
VERTEX
  5
1AD
  8
LAYER_1
 10
69.50927952364903
 20
16.36385085298041
 30
0.0
  0
VERTEX
  5
1AE
  8
LAYER_1
 10
69.5174166826677
 20
16.3818731267005
 30
0.0
  0
VERTEX
  5
1AF
  8
LAYER_1
 10
69.52450274733391
 20
16.40032674050917
 30
0.0
  0
VERTEX
  5
1B0
  8
LAYER_1
 10
69.53062898797323
 20
16.41916626513293
 30
0.0
  0
VERTEX
  5
1B1
  8
LAYER_1
 10
69.53588667491123
 20
16.43834627129828
 30
0.0
  0
VERTEX
  5
1B2
  8
LAYER_1
 10
69.54036707847345
 20
16.45782132973175
 30
0.0
  0
VERTEX
  5
1B3
  8
LAYER_1
 10
69.5441614689855
 20
16.47754601115986
 30
0.0
  0
VERTEX
  5
1B4
  8
LAYER_1
 10
69.54736111677292
 20
16.49747488630913
 30
0.0
  0
VERTEX
  5
1B5
  8
LAYER_1
 10
69.5500572921613
 20
16.51756252590607
 30
0.0
  0
VERTEX
  5
1B6
  8
LAYER_1
 10
69.5523412654762
 20
16.53776350067719
 30
0.0
  0
VERTEX
  5
1B7
  8
LAYER_1
 10
69.55603768718785
 20
16.57832373864808
 30
0.0
  0
VERTEX
  5
1B8
  8
LAYER_1
 10
69.55918054451243
 20
16.61879216603393
 30
0.0
  0
VERTEX
  5
1B9
  8
LAYER_1
 10
69.56250000005448
 20
16.65880534864689
 30
0.0
  0
VERTEX
  5
1BA
  8
LAYER_1
 10
70.24999999973005
 20
24.12750534854258
 30
0.0
  0
VERTEX
  5
1BB
  8
LAYER_1
 10
70.25181073135903
 20
24.15306973914916
 30
0.0
  0
VERTEX
  5
1BC
  8
LAYER_1
 10
70.25257202789655
 20
24.17928649388006
 30
0.0
  0
VERTEX
  5
1BD
  8
LAYER_1
 10
70.2522338188165
 20
24.20601094497733
 30
0.0
  0
VERTEX
  5
1BE
  8
LAYER_1
 10
70.25074603359282
 20
24.23309842468301
 30
0.0
  0
VERTEX
  5
1BF
  8
LAYER_1
 10
70.24955540288771
 20
24.24673309158964
 30
0.0
  0
VERTEX
  5
1C0
  8
LAYER_1
 10
70.24805860169943
 20
24.26040426523912
 30
0.0
  0
VERTEX
  5
1C1
  8
LAYER_1
 10
70.24624937121217
 20
24.27409386216173
 30
0.0
  0
VERTEX
  5
1C2
  8
LAYER_1
 10
70.24412145261022
 20
24.28778379888772
 30
0.0
  0
VERTEX
  5
1C3
  8
LAYER_1
 10
70.24166858707778
 20
24.30145599194732
 30
0.0
  0
VERTEX
  5
1C4
  8
LAYER_1
 10
70.23888451579911
 20
24.31509235787082
 30
0.0
  0
VERTEX
  5
1C5
  8
LAYER_1
 10
70.23576297995845
 20
24.32867481318845
 30
0.0
  0
VERTEX
  5
1C6
  8
LAYER_1
 10
70.23229772074002
 20
24.34218527443048
 30
0.0
  0
VERTEX
  5
1C7
  8
LAYER_1
 10
70.22848247932808
 20
24.35560565812715
 30
0.0
  0
VERTEX
  5
1C8
  8
LAYER_1
 10
70.22431099690688
 20
24.36891788080873
 30
0.0
  0
VERTEX
  5
1C9
  8
LAYER_1
 10
70.21977701466064
 20
24.38210385900546
 30
0.0
  0
VERTEX
  5
1CA
  8
LAYER_1
 10
70.2148742737736
 20
24.39514550924761
 30
0.0
  0
VERTEX
  5
1CB
  8
LAYER_1
 10
70.20959651543001
 20
24.40802474806542
 30
0.0
  0
VERTEX
  5
1CC
  8
LAYER_1
 10
70.20393748081409
 20
24.42072349198915
 30
0.0
  0
VERTEX
  5
1CD
  8
LAYER_1
 10
70.1978909111101
 20
24.43322365754906
 30
0.0
  0
VERTEX
  5
1CE
  8
LAYER_1
 10
70.19145054750226
 20
24.4455071612754
 30
0.0
  0
VERTEX
  5
1CF
  8
LAYER_1
 10
70.18461013117482
 20
24.45755591969843
 30
0.0
  0
VERTEX
  5
1D0
  8
LAYER_1
 10
70.17736340331203
 20
24.4693518493484
 30
0.0
  0
VERTEX
  5
1D1
  8
LAYER_1
 10
70.16970410509813
 20
24.48087686675555
 30
0.0
  0
VERTEX
  5
1D2
  8
LAYER_1
 10
70.16162597771732
 20
24.49211288845017
 30
0.0
  0
VERTEX
  5
1D3
  8
LAYER_1
 10
70.15312276235389
 20
24.50304183096248
 30
0.0
  0
VERTEX
  5
1D4
  8
LAYER_1
 10
70.14418820019205
 20
24.51364561082275
 30
0.0
  0
VERTEX
  5
1D5
  8
LAYER_1
 10
70.13481603241604
 20
24.52390614456124
 30
0.0
  0
VERTEX
  5
1D6
  8
LAYER_1
 10
70.12500000021012
 20
24.5338053487082
 30
0.0
  0
VERTEX
  5
1D7
  8
LAYER_1
 10
70.10874074803074
 20
24.54887470147793
 30
0.0
  0
VERTEX
  5
1D8
  8
LAYER_1
 10
70.09172316991564
 20
24.56339149235911
 30
0.0
  0
VERTEX
  5
1D9
  8
LAYER_1
 10
70.07398938798846
 20
24.57736415913557
 30
0.0
  0
VERTEX
  5
1DA
  8
LAYER_1
 10
70.05558152437285
 20
24.59080113959119
 30
0.0
  0
VERTEX
  5
1DB
  8
LAYER_1
 10
70.03654170119245
 20
24.60371087150979
 30
0.0
  0
VERTEX
  5
1DC
  8
LAYER_1
 10
70.0169120405709
 20
24.61610179267523
 30
0.0
  0
VERTEX
  5
1DD
  8
LAYER_1
 10
69.99673466463187
 20
24.62798234087136
 30
0.0
  0
VERTEX
  5
1DE
  8
LAYER_1
 10
69.97605169549897
 20
24.63936095388202
 30
0.0
  0
VERTEX
  5
1DF
  8
LAYER_1
 10
69.95490525529586
 20
24.65024606949106
 30
0.0
  0
VERTEX
  5
1E0
  8
LAYER_1
 10
69.93333746614618
 20
24.66064612548234
 30
0.0
  0
VERTEX
  5
1E1
  8
LAYER_1
 10
69.91139045017358
 20
24.6705695596397
 30
0.0
  0
VERTEX
  5
1E2
  8
LAYER_1
 10
69.8891063295017
 20
24.680024809747
 30
0.0
  0
VERTEX
  5
1E3
  8
LAYER_1
 10
69.86652722625418
 20
24.68902031358807
 30
0.0
  0
VERTEX
  5
1E4
  8
LAYER_1
 10
69.84369526255469
 20
24.69756450894676
 30
0.0
  0
VERTEX
  5
1E5
  8
LAYER_1
 10
69.82065256052684
 20
24.70566583360693
 30
0.0
  0
VERTEX
  5
1E6
  8
LAYER_1
 10
69.7974412422943
 20
24.71333272535243
 30
0.0
  0
VERTEX
  5
1E7
  8
LAYER_1
 10
69.7741034299807
 20
24.7205736219671
 30
0.0
  0
VERTEX
  5
1E8
  8
LAYER_1
 10
69.75068124570969
 20
24.72739696123479
 30
0.0
  0
VERTEX
  5
1E9
  8
LAYER_1
 10
69.7272168116049
 20
24.73381118093935
 30
0.0
  0
VERTEX
  5
1EA
  8
LAYER_1
 10
69.70375224978999
 20
24.73982471886463
 30
0.0
  0
VERTEX
  5
1EB
  8
LAYER_1
 10
69.68032968238859
 20
24.74544601279447
 30
0.0
  0
VERTEX
  5
1EC
  8
LAYER_1
 10
69.65699123152437
 20
24.75068350051273
 30
0.0
  0
VERTEX
  5
1ED
  8
LAYER_1
 10
69.63377901932095
 20
24.75554561980325
 30
0.0
  0
VERTEX
  5
1EE
  8
LAYER_1
 10
69.61073516790199
 20
24.76004080844989
 30
0.0
  0
VERTEX
  5
1EF
  8
LAYER_1
 10
69.56532103591202
 20
24.76796414494689
 30
0.0
  0
VERTEX
  5
1F0
  8
LAYER_1
 10
69.52108581254357
 20
24.77452101227453
 30
0.0
  0
VERTEX
  5
1F1
  8
LAYER_1
 10
69.47836647478582
 20
24.77977891270359
 30
0.0
  0
SEQEND
  5
9E2
  8
LAYER_1
  0
POLYLINE
  5
80
  8
LAYER_1
 66
     1
 10
0.0
 20
0.0
 30
0.0
 70
     1
  0
VERTEX
  5
1F2
  8
LAYER_1
 10
43.9375
 20
17.73380534863425
 30
0.0
 42
0.4142135623730951
  0
VERTEX
  5
1F3
  8
LAYER_1
 10
43.73749999999998
 20
17.53380534863424
 30
0.0
 42
0.4142135623730951
  0
VERTEX
  5
1F4
  8
LAYER_1
 10
43.9375
 20
17.33380534863424
 30
0.0
 42
0.4142135623730951
  0
VERTEX
  5
1F5
  8
LAYER_1
 10
44.13750000000002
 20
17.53380534863424
 30
0.0
 42
0.4142135623730951
  0
SEQEND
  5
9E3
  8
LAYER_1
  0
POLYLINE
  5
81
  8
LAYER_1
 66
     1
 10
0.0
 20
0.0
 30
0.0
 70
     1
  0
VERTEX
  5
1F6
  8
LAYER_1
 10
50.625
 20
15.51500534863424
 30
0.0
 42
0.4142135623730951
  0
VERTEX
  5
1F7
  8
LAYER_1
 10
50.42499999999998
 20
15.31500534863424
 30
0.0
 42
0.4142135623730951
  0
VERTEX
  5
1F8
  8
LAYER_1
 10
50.625
 20
15.11500534863424
 30
0.0
 42
0.4142135623730951
  0
VERTEX
  5
1F9
  8
LAYER_1
 10
50.82500000000002
 20
15.31500534863424
 30
0.0
 42
0.4142135623730951
  0
SEQEND
  5
9E4
  8
LAYER_1
  0
POLYLINE
  5
82
  8
LAYER_1
 66
     1
 10
0.0
 20
0.0
 30
0.0
 70
     1
  0
VERTEX
  5
1FA
  8
LAYER_1
 10
69.43749999962793
 20
24.78380534850485
 30
0.0
  0
VERTEX
  5
1FB
  8
LAYER_1
 10
60.37500000018355
 20
25.56500534871105
 30
0.0
  0
VERTEX
  5
1FC
  8
LAYER_1
 10
60.35881606153757
 20
25.56612237580539
 30
0.0
  0
VERTEX
  5
1FD
  8
LAYER_1
 10
60.34239789224228
 20
25.56669008684613
 30
0.0
  0
VERTEX
  5
1FE
  8
LAYER_1
 10
60.32581165425529
 20
25.56668267021349
 30
0.0
  0
VERTEX
  5
1FF
  8
LAYER_1
 10
60.30912350953417
 20
25.5660743142877
 30
0.0
  0
VERTEX
  5
200
  8
LAYER_1
 10
60.29239962003656
 20
25.56483920744896
 30
0.0
  0
VERTEX
  5
201
  8
LAYER_1
 10
60.27570614772003
 20
25.56295153807751
 30
0.0
  0
VERTEX
  5
202
  8
LAYER_1
 10
60.2591092545422
 20
25.56038549455357
 30
0.0
  0
VERTEX
  5
203
  8
LAYER_1
 10
60.24267510246067
 20
25.55711526525736
 30
0.0
  0
VERTEX
  5
204
  8
LAYER_1
 10
60.22646985343302
 20
25.55311503856909
 30
0.0
  0
VERTEX
  5
205
  8
LAYER_1
 10
60.21055966941687
 20
25.54835900286899
 30
0.0
  0
VERTEX
  5
206
  8
LAYER_1
 10
60.19501071236982
 20
25.54282134653728
 30
0.0
  0
VERTEX
  5
207
  8
LAYER_1
 10
60.17988914424947
 20
25.53647625795419
 30
0.0
  0
VERTEX
  5
208
  8
LAYER_1
 10
60.16526112701342
 20
25.52929792549993
 30
0.0
  0
VERTEX
  5
209
  8
LAYER_1
 10
60.15119282261927
 20
25.52126053755472
 30
0.0
  0
VERTEX
  5
20A
  8
LAYER_1
 10
60.1377503930246
 20
25.51233828249879
 30
0.0
  0
VERTEX
  5
20B
  8
LAYER_1
 10
60.12500000018704
 20
25.50250534871236
 30
0.0
  0
VERTEX
  5
20C
  8
LAYER_1
 10
54.18750000008427
 20
20.56500534866759
 30
0.0
  0
VERTEX
  5
20D
  8
LAYER_1
 10
54.1646131797012
 20
20.54621079030677
 30
0.0
  0
VERTEX
  5
20E
  8
LAYER_1
 10
54.14133150737321
 20
20.52756512495233
 30
0.0
  0
VERTEX
  5
20F
  8
LAYER_1
 10
54.11766571391009
 20
20.50908022255111
 30
0.0
  0
VERTEX
  5
210
  8
LAYER_1
 10
54.09362653012167
 20
20.49076795304992
 30
0.0
  0
VERTEX
  5
211
  8
LAYER_1
 10
54.06922468681777
 20
20.47264018639561
 30
0.0
  0
VERTEX
  5
212
  8
LAYER_1
 10
54.04447091480819
 20
20.454708792535
 30
0.0
  0
VERTEX
  5
213
  8
LAYER_1
 10
54.01937594490275
 20
20.43698564141493
 30
0.0
  0
VERTEX
  5
214
  8
LAYER_1
 10
53.99395050791127
 20
20.41948260298222
 30
0.0
  0
VERTEX
  5
215
  8
LAYER_1
 10
53.96820533464356
 20
20.40221154718371
 30
0.0
  0
VERTEX
  5
216
  8
LAYER_1
 10
53.94215115590941
 20
20.38518434396623
 30
0.0
  0
VERTEX
  5
217
  8
LAYER_1
 10
53.91579870251867
 20
20.36841286327661
 30
0.0
  0
VERTEX
  5
218
  8
LAYER_1
 10
53.88915870528113
 20
20.35190897506168
 30
0.0
  0
VERTEX
  5
219
  8
LAYER_1
 10
53.86224189500662
 20
20.33568454926827
 30
0.0
  0
VERTEX
  5
21A
  8
LAYER_1
 10
53.83505900250494
 20
20.31975145584321
 30
0.0
  0
VERTEX
  5
21B
  8
LAYER_1
 10
53.80762075858591
 20
20.30412156473334
 30
0.0
  0
VERTEX
  5
21C
  8
LAYER_1
 10
53.77993789405934
 20
20.28880674588547
 30
0.0
  0
VERTEX
  5
21D
  8
LAYER_1
 10
53.75202113973506
 20
20.27381886924645
 30
0.0
  0
VERTEX
  5
21E
  8
LAYER_1
 10
53.72388122642285
 20
20.25916980476311
 30
0.0
  0
VERTEX
  5
21F
  8
LAYER_1
 10
53.69552888493256
 20
20.24487142238228
 30
0.0
  0
VERTEX
  5
220
  8
LAYER_1
 10
53.66697484607398
 20
20.23093559205078
 30
0.0
  0
VERTEX
  5
221
  8
LAYER_1
 10
53.63822984065693
 20
20.21737418371546
 30
0.0
  0
VERTEX
  5
222
  8
LAYER_1
 10
53.60930459949122
 20
20.20419906732313
 30
0.0
  0
VERTEX
  5
223
  8
LAYER_1
 10
53.58020985338668
 20
20.19142211282063
 30
0.0
  0
VERTEX
  5
224
  8
LAYER_1
 10
53.55095633315311
 20
20.1790551901548
 30
0.0
  0
VERTEX
  5
225
  8
LAYER_1
 10
53.52155476960033
 20
20.16711016927245
 30
0.0
  0
VERTEX
  5
226
  8
LAYER_1
 10
53.49201589353814
 20
20.15559892012044
 30
0.0
  0
VERTEX
  5
227
  8
LAYER_1
 10
53.46235043577636
 20
20.14453331264557
 30
0.0
  0
VERTEX
  5
228
  8
LAYER_1
 10
53.43256912712481
 20
20.13392521679469
 30
0.0
  0
VERTEX
  5
229
  8
LAYER_1
 10
53.40268269839331
 20
20.12378650251463
 30
0.0
  0
VERTEX
  5
22A
  8
LAYER_1
 10
53.37270188039165
 20
20.11412903975222
 30
0.0
  0
VERTEX
  5
22B
  8
LAYER_1
 10
53.34263740392966
 20
20.10496469845428
 30
0.0
  0
VERTEX
  5
22C
  8
LAYER_1
 10
53.31249999981716
 20
20.09630534856765
 30
0.0
  0
VERTEX
  5
22D
  8
LAYER_1
 10
53.28476015086883
 20
20.08880871297943
 30
0.0
  0
VERTEX
  5
22E
  8
LAYER_1
 10
53.25697670379235
 20
20.08175974163193
 30
0.0
  0
VERTEX
  5
22F
  8
LAYER_1
 10
53.22915657387767
 20
20.07516203349202
 30
0.0
  0
VERTEX
  5
230
  8
LAYER_1
 10
53.20130667641476
 20
20.06901918752651
 30
0.0
  0
VERTEX
  5
231
  8
LAYER_1
 10
53.17343392669359
 20
20.06333480270226
 30
0.0
  0
VERTEX
  5
232
  8
LAYER_1
 10
53.14554524000413
 20
20.0581124779861
 30
0.0
  0
VERTEX
  5
233
  8
LAYER_1
 10
53.11764753163632
 20
20.05335581234488
 30
0.0
  0
VERTEX
  5
234
  8
LAYER_1
 10
53.08974771688013
 20
20.04906840474544
 30
0.0
  0
VERTEX
  5
235
  8
LAYER_1
 10
53.06185271102551
 20
20.04525385415462
 30
0.0
  0
VERTEX
  5
236
  8
LAYER_1
 10
53.03396942936244
 20
20.04191575953926
 30
0.0
  0
VERTEX
  5
237
  8
LAYER_1
 10
53.00610478718088
 20
20.03905771986621
 30
0.0
  0
VERTEX
  5
238
  8
LAYER_1
 10
52.97826569977079
 20
20.0366833341023
 30
0.0
  0
VERTEX
  5
239
  8
LAYER_1
 10
52.95045908242213
 20
20.03479620121438
 30
0.0
  0
VERTEX
  5
23A
  8
LAYER_1
 10
52.92269185042485
 20
20.03339992016928
 30
0.0
  0
VERTEX
  5
23B
  8
LAYER_1
 10
52.89497091906894
 20
20.03249808993385
 30
0.0
  0
VERTEX
  5
23C
  8
LAYER_1
 10
52.86730320364433
 20
20.03209430947494
 30
0.0
  0
VERTEX
  5
23D
  8
LAYER_1
 10
52.83969561944101
 20
20.03219217775937
 30
0.0
  0
VERTEX
  5
23E
  8
LAYER_1
 10
52.81215508174893
 20
20.032795293754
 30
0.0
  0
VERTEX
  5
23F
  8
LAYER_1
 10
52.78468850585804
 20
20.03390725642566
 30
0.0
  0
VERTEX
  5
240
  8
LAYER_1
 10
52.75730280705832
 20
20.0355316647412
 30
0.0
  0
VERTEX
  5
241
  8
LAYER_1
 10
52.73000490063971
 20
20.03767211766746
 30
0.0
  0
VERTEX
  5
242
  8
LAYER_1
 10
52.70280170189221
 20
20.04033221417127
 30
0.0
  0
VERTEX
  5
243
  8
LAYER_1
 10
52.67570012610575
 20
20.04351555321948
 30
0.0
  0
VERTEX
  5
244
  8
LAYER_1
 10
52.6487070885703
 20
20.04722573377894
 30
0.0
  0
VERTEX
  5
245
  8
LAYER_1
 10
52.62182950457583
 20
20.05146635481648
 30
0.0
  0
VERTEX
  5
246
  8
LAYER_1
 10
52.59507428941228
 20
20.05624101529894
 30
0.0
  0
VERTEX
  5
247
  8
LAYER_1
 10
52.56844835836964
 20
20.06155331419318
 30
0.0
  0
VERTEX
  5
248
  8
LAYER_1
 10
52.54195862673785
 20
20.06740685046602
 30
0.0
  0
VERTEX
  5
249
  8
LAYER_1
 10
52.51561200980689
 20
20.07380522308431
 30
0.0
  0
VERTEX
  5
24A
  8
LAYER_1
 10
52.4894154228667
 20
20.08075203101489
 30
0.0
  0
VERTEX
  5
24B
  8
LAYER_1
 10
52.46337578120726
 20
20.0882508732246
 30
0.0
  0
VERTEX
  5
24C
  8
LAYER_1
 10
52.43750000011852
 20
20.09630534868029
 30
0.0
  0
VERTEX
  5
24D
  8
LAYER_1
 10
39.18750000007475
 20
24.37750534868034
 30
0.0
  0
VERTEX
  5
24E
  8
LAYER_1
 10
39.15972471022033
 20
24.37899044819306
 30
0.0
 42
-0.3300106339593533
  0
VERTEX
  5
24F
  8
LAYER_1
 10
38.99322117703522
 20
24.60378643132861
 30
0.0
 42
-0.3519260222810296
  0
VERTEX
  5
250
  8
LAYER_1
 10
39.17757087194093
 20
24.83326311117616
 30
0.0
  0
VERTEX
  5
251
  8
LAYER_1
 10
39.17952922629052
 20
24.83393751799203
 30
0.0
  0
VERTEX
  5
252
  8
LAYER_1
 10
39.18137297725291
 20
24.83502944905173
 30
0.0
  0
VERTEX
  5
253
  8
LAYER_1
 10
39.18305696747417
 20
24.83646669550085
 30
0.0
  0
VERTEX
  5
254
  8
LAYER_1
 10
39.18453603960037
 20
24.83817704848495
 30
0.0
  0
VERTEX
  5
255
  8
LAYER_1
 10
39.1857650362776
 20
24.84008829914961
 30
0.0
  0
VERTEX
  5
256
  8
LAYER_1
 10
39.18669880015192
 20
24.8421282386404
 30
0.0
  0
VERTEX
  5
257
  8
LAYER_1
 10
39.18729217386941
 20
24.8442246581029
 30
0.0
  0
VERTEX
  5
258
  8
LAYER_1
 10
39.18750000007614
 20
24.84630534868267
 30
0.0
  0
VERTEX
  5
259
  8
LAYER_1
 10
39.18750000021046
 20
30.2213053487939
 30
0.0
  0
VERTEX
  5
25A
  8
LAYER_1
 10
39.13265455038876
 20
30.28629504581319
 30
0.0
  0
VERTEX
  5
25B
  8
LAYER_1
 10
39.10150145770066
 20
30.31668830697231
 30
0.0
  0
VERTEX
  5
25C
  8
LAYER_1
 10
39.06249999982052
 20
30.34630534849743
 30
0.0
  0
VERTEX
  5
25D
  8
LAYER_1
 10
39.04793690813129
 20
30.35860075686331
 30
0.0
  0
VERTEX
  5
25E
  8
LAYER_1
 10
39.03312542764652
 20
30.37028037138248
 30
0.0
  0
VERTEX
  5
25F
  8
LAYER_1
 10
39.01807094541796
 20
30.38136424864373
 30
0.0
  0
VERTEX
  5
260
  8
LAYER_1
 10
39.0027788484974
 20
30.39187244523582
 30
0.0
  0
VERTEX
  5
261
  8
LAYER_1
 10
38.98725452393658
 20
30.40182501774755
 30
0.0
  0
VERTEX
  5
262
  8
LAYER_1
 10
38.97150335878729
 20
30.41124202276769
 30
0.0
  0
VERTEX
  5
263
  8
LAYER_1
 10
38.95553074010128
 20
30.42014351688502
 30
0.0
  0
VERTEX
  5
264
  8
LAYER_1
 10
38.93934205493034
 20
30.42854955668832
 30
0.0
  0
VERTEX
  5
265
  8
LAYER_1
 10
38.92294269032622
 20
30.43648019876638
 30
0.0
  0
VERTEX
  5
266
  8
LAYER_1
 10
38.90633803334069
 20
30.44395549970797
 30
0.0
  0
VERTEX
  5
267
  8
LAYER_1
 10
38.88953347102552
 20
30.45099551610188
 30
0.0
  0
VERTEX
  5
268
  8
LAYER_1
 10
38.87253439043248
 20
30.45762030453687
 30
0.0
  0
VERTEX
  5
269
  8
LAYER_1
 10
38.85534617861335
 20
30.46384992160175
 30
0.0
  0
VERTEX
  5
26A
  8
LAYER_1
 10
38.83797422261986
 20
30.46970442388528
 30
0.0
  0
VERTEX
  5
26B
  8
LAYER_1
 10
38.82042390950382
 20
30.47520386797623
 30
0.0
  0
VERTEX
  5
26C
  8
LAYER_1
 10
38.80270062631698
 20
30.4803683104634
 30
0.0
  0
VERTEX
  5
26D
  8
LAYER_1
 10
38.7848097601111
 20
30.48521780793557
 30
0.0
  0
VERTEX
  5
26E
  8
LAYER_1
 10
38.76675669793797
 20
30.48977241698151
 30
0.0
  0
VERTEX
  5
26F
  8
LAYER_1
 10
38.73018553389697
 20
30.49807719614983
 30
0.0
  0
VERTEX
  5
270
  8
LAYER_1
 10
38.69303023060814
 20
30.50544310067861
 30
0.0
  0
VERTEX
  5
271
  8
LAYER_1
 10
38.65533388448561
 20
30.51203058327809
 30
0.0
  0
VERTEX
  5
272
  8
LAYER_1
 10
38.61713959194354
 20
30.5180000966585
 30
0.0
  0
VERTEX
  5
273
  8
LAYER_1
 10
38.57849044939606
 20
30.5235120935301
 30
0.0
  0
VERTEX
  5
274
  8
LAYER_1
 10
38.49999999994142
 20
30.5338053485878
 30
0.0
  0
VERTEX
  5
275
  8
LAYER_1
 10
38.40894594117738
 20
30.54527047361755
 30
0.0
  0
VERTEX
  5
276
  8
LAYER_1
 10
38.31610633293081
 20
30.55650839420273
 30
0.0
  0
VERTEX
  5
277
  8
LAYER_1
 10
38.22316096022865
 20
30.56715429718258
 30
0.0
  0
VERTEX
  5
278
  8
LAYER_1
 10
38.13178960809779
 20
30.57684336939631
 30
0.0
  0
VERTEX
  5
279
  8
LAYER_1
 10
38.05010906181325
 20
30.58460241008835
 30
0.0
  0
VERTEX
  5
27A
  8
LAYER_1
 10
38.0100981237167
 20
30.58791595547248
 30
0.0
  0
VERTEX
  5
27B
  8
LAYER_1
 10
37.97044551619526
 20
30.59076823141147
 30
0.0
  0
VERTEX
  5
27C
  8
LAYER_1
 10
37.93100531965734
 20
30.59309627330242
 30
0.0
  0
VERTEX
  5
27D
  8
LAYER_1
 10
37.89163161451144
 20
30.5948371165424
 30
0.0
  0
VERTEX
  5
27E
  8
LAYER_1
 10
37.85217848116599
 20
30.59592779652851
 30
0.0
  0
VERTEX
  5
27F
  8
LAYER_1
 10
37.81250000002947
 20
30.59630534865785
 30
0.0
  0
VERTEX
  5
280
  8
LAYER_1
 10
0.5
 20
30.59630534863423
 30
0.0
  0
VERTEX
  5
281
  8
LAYER_1
 10
0.5
 20
0.5963053486342424
 30
0.0
  0
VERTEX
  5
282
  8
LAYER_1
 10
60.49999999999923
 20
0.5963053486342424
 30
0.0
  0
VERTEX
  5
283
  8
LAYER_1
 10
69.49999999995231
 20
16.34630534862236
 30
0.0
  0
VERTEX
  5
284
  8
LAYER_1
 10
69.50478826178077
 20
16.35501566530154
 30
0.0
  0
VERTEX
  5
285
  8
LAYER_1
 10
69.50927952364903
 20
16.36385085298041
 30
0.0
  0
VERTEX
  5
286
  8
LAYER_1
 10
69.5174166826677
 20
16.3818731267005
 30
0.0
  0
VERTEX
  5
287
  8
LAYER_1
 10
69.52450274733391
 20
16.40032674050917
 30
0.0
  0
VERTEX
  5
288
  8
LAYER_1
 10
69.53062898797323
 20
16.41916626513293
 30
0.0
  0
VERTEX
  5
289
  8
LAYER_1
 10
69.53588667491123
 20
16.43834627129828
 30
0.0
  0
VERTEX
  5
28A
  8
LAYER_1
 10
69.54036707847345
 20
16.45782132973175
 30
0.0
  0
VERTEX
  5
28B
  8
LAYER_1
 10
69.5441614689855
 20
16.47754601115986
 30
0.0
  0
VERTEX
  5
28C
  8
LAYER_1
 10
69.54736111677292
 20
16.49747488630913
 30
0.0
  0
VERTEX
  5
28D
  8
LAYER_1
 10
69.5500572921613
 20
16.51756252590607
 30
0.0
  0
VERTEX
  5
28E
  8
LAYER_1
 10
69.5523412654762
 20
16.53776350067719
 30
0.0
  0
VERTEX
  5
28F
  8
LAYER_1
 10
69.55603768718785
 20
16.57832373864808
 30
0.0
  0
VERTEX
  5
290
  8
LAYER_1
 10
69.55918054451243
 20
16.61879216603393
 30
0.0
  0
VERTEX
  5
291
  8
LAYER_1
 10
69.56250000005448
 20
16.65880534864689
 30
0.0
  0
VERTEX
  5
292
  8
LAYER_1
 10
70.24999999973005
 20
24.12750534854258
 30
0.0
  0
VERTEX
  5
293
  8
LAYER_1
 10
70.25181073135903
 20
24.15306973914916
 30
0.0
  0
VERTEX
  5
294
  8
LAYER_1
 10
70.25257202789655
 20
24.17928649388006
 30
0.0
  0
VERTEX
  5
295
  8
LAYER_1
 10
70.2522338188165
 20
24.20601094497733
 30
0.0
  0
VERTEX
  5
296
  8
LAYER_1
 10
70.25074603359282
 20
24.23309842468301
 30
0.0
  0
VERTEX
  5
297
  8
LAYER_1
 10
70.24955540288771
 20
24.24673309158964
 30
0.0
  0
VERTEX
  5
298
  8
LAYER_1
 10
70.24805860169943
 20
24.26040426523912
 30
0.0
  0
VERTEX
  5
299
  8
LAYER_1
 10
70.24624937121217
 20
24.27409386216173
 30
0.0
  0
VERTEX
  5
29A
  8
LAYER_1
 10
70.24412145261022
 20
24.28778379888772
 30
0.0
  0
VERTEX
  5
29B
  8
LAYER_1
 10
70.24166858707778
 20
24.30145599194732
 30
0.0
  0
VERTEX
  5
29C
  8
LAYER_1
 10
70.23888451579911
 20
24.31509235787082
 30
0.0
  0
VERTEX
  5
29D
  8
LAYER_1
 10
70.23576297995845
 20
24.32867481318845
 30
0.0
  0
VERTEX
  5
29E
  8
LAYER_1
 10
70.23229772074002
 20
24.34218527443048
 30
0.0
  0
VERTEX
  5
29F
  8
LAYER_1
 10
70.22848247932808
 20
24.35560565812715
 30
0.0
  0
VERTEX
  5
2A0
  8
LAYER_1
 10
70.22431099690688
 20
24.36891788080873
 30
0.0
  0
VERTEX
  5
2A1
  8
LAYER_1
 10
70.21977701466064
 20
24.38210385900546
 30
0.0
  0
VERTEX
  5
2A2
  8
LAYER_1
 10
70.2148742737736
 20
24.39514550924761
 30
0.0
  0
VERTEX
  5
2A3
  8
LAYER_1
 10
70.20959651543001
 20
24.40802474806542
 30
0.0
  0
VERTEX
  5
2A4
  8
LAYER_1
 10
70.20393748081409
 20
24.42072349198915
 30
0.0
  0
VERTEX
  5
2A5
  8
LAYER_1
 10
70.1978909111101
 20
24.43322365754906
 30
0.0
  0
VERTEX
  5
2A6
  8
LAYER_1
 10
70.19145054750226
 20
24.4455071612754
 30
0.0
  0
VERTEX
  5
2A7
  8
LAYER_1
 10
70.18461013117482
 20
24.45755591969843
 30
0.0
  0
VERTEX
  5
2A8
  8
LAYER_1
 10
70.17736340331203
 20
24.4693518493484
 30
0.0
  0
VERTEX
  5
2A9
  8
LAYER_1
 10
70.16970410509813
 20
24.48087686675555
 30
0.0
  0
VERTEX
  5
2AA
  8
LAYER_1
 10
70.16162597771732
 20
24.49211288845017
 30
0.0
  0
VERTEX
  5
2AB
  8
LAYER_1
 10
70.15312276235389
 20
24.50304183096248
 30
0.0
  0
VERTEX
  5
2AC
  8
LAYER_1
 10
70.14418820019205
 20
24.51364561082275
 30
0.0
  0
VERTEX
  5
2AD
  8
LAYER_1
 10
70.13481603241604
 20
24.52390614456124
 30
0.0
  0
VERTEX
  5
2AE
  8
LAYER_1
 10
70.12500000021012
 20
24.5338053487082
 30
0.0
  0
VERTEX
  5
2AF
  8
LAYER_1
 10
70.10874074803074
 20
24.54887470147793
 30
0.0
  0
VERTEX
  5
2B0
  8
LAYER_1
 10
70.09172316991564
 20
24.56339149235911
 30
0.0
  0
VERTEX
  5
2B1
  8
LAYER_1
 10
70.07398938798846
 20
24.57736415913557
 30
0.0
  0
VERTEX
  5
2B2
  8
LAYER_1
 10
70.05558152437285
 20
24.59080113959119
 30
0.0
  0
VERTEX
  5
2B3
  8
LAYER_1
 10
70.03654170119245
 20
24.60371087150979
 30
0.0
  0
VERTEX
  5
2B4
  8
LAYER_1
 10
70.0169120405709
 20
24.61610179267523
 30
0.0
  0
VERTEX
  5
2B5
  8
LAYER_1
 10
69.99673466463187
 20
24.62798234087136
 30
0.0
  0
VERTEX
  5
2B6
  8
LAYER_1
 10
69.97605169549897
 20
24.63936095388202
 30
0.0
  0
VERTEX
  5
2B7
  8
LAYER_1
 10
69.95490525529586
 20
24.65024606949106
 30
0.0
  0
VERTEX
  5
2B8
  8
LAYER_1
 10
69.93333746614618
 20
24.66064612548234
 30
0.0
  0
VERTEX
  5
2B9
  8
LAYER_1
 10
69.91139045017358
 20
24.6705695596397
 30
0.0
  0
VERTEX
  5
2BA
  8
LAYER_1
 10
69.8891063295017
 20
24.680024809747
 30
0.0
  0
VERTEX
  5
2BB
  8
LAYER_1
 10
69.86652722625418
 20
24.68902031358807
 30
0.0
  0
VERTEX
  5
2BC
  8
LAYER_1
 10
69.84369526255469
 20
24.69756450894676
 30
0.0
  0
VERTEX
  5
2BD
  8
LAYER_1
 10
69.82065256052684
 20
24.70566583360693
 30
0.0
  0
VERTEX
  5
2BE
  8
LAYER_1
 10
69.7974412422943
 20
24.71333272535243
 30
0.0
  0
VERTEX
  5
2BF
  8
LAYER_1
 10
69.7741034299807
 20
24.7205736219671
 30
0.0
  0
VERTEX
  5
2C0
  8
LAYER_1
 10
69.75068124570969
 20
24.72739696123479
 30
0.0
  0
VERTEX
  5
2C1
  8
LAYER_1
 10
69.7272168116049
 20
24.73381118093935
 30
0.0
  0
VERTEX
  5
2C2
  8
LAYER_1
 10
69.70375224978999
 20
24.73982471886463
 30
0.0
  0
VERTEX
  5
2C3
  8
LAYER_1
 10
69.68032968238859
 20
24.74544601279447
 30
0.0
  0
VERTEX
  5
2C4
  8
LAYER_1
 10
69.65699123152437
 20
24.75068350051273
 30
0.0
  0
VERTEX
  5
2C5
  8
LAYER_1
 10
69.63377901932095
 20
24.75554561980325
 30
0.0
  0
VERTEX
  5
2C6
  8
LAYER_1
 10
69.61073516790199
 20
24.76004080844989
 30
0.0
  0
VERTEX
  5
2C7
  8
LAYER_1
 10
69.56532103591202
 20
24.76796414494689
 30
0.0
  0
VERTEX
  5
2C8
  8
LAYER_1
 10
69.52108581254357
 20
24.77452101227453
 30
0.0
  0
VERTEX
  5
2C9
  8
LAYER_1
 10
69.47836647478582
 20
24.77977891270359
 30
0.0
  0
SEQEND
  5
9E5
  8
LAYER_1
  0
POLYLINE
  5
83
  8
LAYER_1
 66
     1
 10
0.0
 20
0.0
 30
0.0
 70
     1
  0
VERTEX
  5
2CA
  8
LAYER_1
 10
66.69987097115134
 20
14.96814635081578
 30
0.0
  0
VERTEX
  5
2CB
  8
LAYER_1
 10
67.35620324429522
 20
14.63493150445042
 30
0.0
  0
VERTEX
  5
2CC
  8
LAYER_1
 10
67.36728113423746
 20
14.62961177068611
 30
0.0
  0
VERTEX
  5
2CD
  8
LAYER_1
 10
60.41967454666965
 20
2.471310956153719
 30
0.0
  0
VERTEX
  5
2CE
  8
LAYER_1
 10
59.74295892813231
 20
2.798709705157492
 30
0.0
  0
VERTEX
  5
2CF
  8
LAYER_1
 10
66.69760830412204
 20
14.96935764579001
 30
0.0
  0
SEQEND
  5
9E6
  8
LAYER_1
  0
POLYLINE
  5
84
  8
LAYER_1
 66
     1
 10
0.0
 20
0.0
 30
0.0
 70
     1
  0
VERTEX
  5
2D0
  8
LAYER_1
 10
67.86787540800489
 20
16.0258155170931
 30
0.0
  0
VERTEX
  5
2D1
  8
LAYER_1
 10
67.94434115546935
 20
16.80775820592364
 30
0.0
  0
VERTEX
  5
2D2
  8
LAYER_1
 10
68.51437264240286
 20
23.00033154179264
 30
0.0
  0
VERTEX
  5
2D3
  8
LAYER_1
 10
67.76753009874818
 20
23.06907901438191
 30
0.0
  0
VERTEX
  5
2D4
  8
LAYER_1
 10
67.19769410849281
 20
16.8786294691178
 30
0.0
  0
VERTEX
  5
2D5
  8
LAYER_1
 10
67.12143593326229
 20
16.09880942468818
 30
0.0
  0
SEQEND
  5
9E7
  8
LAYER_1
  0
POLYLINE
  5
85
  8
LAYER_1
 66
     1
 10
0.0
 20
0.0
 30
0.0
  0
VERTEX
  5
2D6
  8
LAYER_1
 10
60.37500000018355
 20
25.56500534871105
 30
0.0
  0
VERTEX
  5
2D7
  8
LAYER_1
 10
69.43749999962793
 20
24.78380534850485
 30
0.0
  0
SEQEND
  5
9E8
  8
LAYER_1
  0
POLYLINE
  5
86
  8
LAYER_1
 66
     1
 10
0.0
 20
0.0
 30
0.0
 70
     1
  0
VERTEX
  5
2D8
  8
LAYER_1
 10
60.80775880233543
 20
23.77121113357756
 30
0.0
  0
VERTEX
  5
2D9
  8
LAYER_1
 10
68.5240262465667
 20
23.1060900201333
 30
0.0
  0
VERTEX
  5
2DA
  8
LAYER_1
 10
68.61576375982816
 20
24.10184924334251
 30
0.0
  0
VERTEX
  5
2DB
  8
LAYER_1
 10
60.89364168820762
 20
24.76751637290648
 30
0.0
  0
SEQEND
  5
9E9
  8
LAYER_1
  0
POLYLINE
  5
87
  8
LAYER_1
 66
     1
 10
0.0
 20
0.0
 30
0.0
 70
     1
  0
VERTEX
  5
2DC
  8
LAYER_1
 10
57.60992590688963
 20
17.90599952615039
 30
0.0
  0
VERTEX
  5
2DD
  8
LAYER_1
 10
52.28379181125598
 20
19.62692369899203
 30
0.0
  0
VERTEX
  5
2DE
  8
LAYER_1
 10
40.12502116030404
 20
23.55553720168519
 30
0.0
  0
VERTEX
  5
2DF
  8
LAYER_1
 10
39.89442728892203
 20
22.84186608241451
 30
0.0
  0
VERTEX
  5
2E0
  8
LAYER_1
 10
52.05319793987397
 20
18.91325257972136
 30
0.0
  0
VERTEX
  5
2E1
  8
LAYER_1
 10
57.37933203550764
 20
17.19232840687971
 30
0.0
  0
SEQEND
  5
9EA
  8
LAYER_1
  0
POLYLINE
  5
88
  8
LAYER_1
 66
     1
 10
0.0
 20
0.0
 30
0.0
 70
     1
  0
VERTEX
  5
2E2
  8
LAYER_1
 10
57.61678170903375
 20
16.52455653670603
 30
0.0
  0
VERTEX
  5
2E3
  8
LAYER_1
 10
60.47147295247663
 20
15.60217678290581
 30
0.0
  0
VERTEX
  5
2E4
  8
LAYER_1
 10
60.70206729515354
 20
16.31584774989648
 30
0.0
  0
VERTEX
  5
2E5
  8
LAYER_1
 10
57.84737605171065
 20
17.2382275036967
 30
0.0
  0
SEQEND
  5
9EB
  8
LAYER_1
  0
POLYLINE
  5
89
  8
LAYER_1
 66
     1
 10
0.0
 20
0.0
 30
0.0
 70
     1
  0
VERTEX
  5
2E6
  8
LAYER_1
 10
3.625
 20
18.72130534863424
 30
0.0
  0
VERTEX
  5
2E7
  8
LAYER_1
 10
24.625
 20
18.72130534863424
 30
0.0
  0
VERTEX
  5
2E8
  8
LAYER_1
 10
24.625
 20
19.72130534863424
 30
0.0
  0
VERTEX
  5
2E9
  8
LAYER_1
 10
3.625
 20
19.72130534863424
 30
0.0
  0
SEQEND
  5
9EC
  8
LAYER_1
  0
POLYLINE
  5
8A
  8
LAYER_1
 66
     1
 10
0.0
 20
0.0
 30
0.0
 70
     1
  0
VERTEX
  5
2EA
  8
LAYER_1
 10
35.0625
 20
22.53380534863424
 30
0.0
  0
VERTEX
  5
2EB
  8
LAYER_1
 10
39.5625
 20
22.53380534863424
 30
0.0
  0
VERTEX
  5
2EC
  8
LAYER_1
 10
39.5625
 20
23.28380534863424
 30
0.0
  0
VERTEX
  5
2ED
  8
LAYER_1
 10
35.0625
 20
23.28380534863424
 30
0.0
  0
SEQEND
  5
9ED
  8
LAYER_1
  0
POLYLINE
  5
8B
  8
LAYER_1
 66
     1
 10
0.0
 20
0.0
 30
0.0
 70
     1
  0
VERTEX
  5
2EE
  8
LAYER_1
 10
4.0625
 20
28.78380534863424
 30
0.0
  0
VERTEX
  5
2EF
  8
LAYER_1
 10
35.3125
 20
28.78380534863424
 30
0.0
  0
VERTEX
  5
2F0
  8
LAYER_1
 10
35.3125
 20
29.53380534863424
 30
0.0
  0
VERTEX
  5
2F1
  8
LAYER_1
 10
4.0625
 20
29.53380534863424
 30
0.0
  0
SEQEND
  5
9EE
  8
LAYER_1
  0
POLYLINE
  5
8C
  8
LAYER_1
 66
     1
 10
0.0
 20
0.0
 30
0.0
 70
     1
  0
VERTEX
  5
2F2
  8
LAYER_1
 10
1.25
 20
20.40880534863424
 30
0.0
  0
VERTEX
  5
2F3
  8
LAYER_1
 10
2.25
 20
20.40880534863424
 30
0.0
  0
VERTEX
  5
2F4
  8
LAYER_1
 10
2.25
 20
28.40880534863424
 30
0.0
  0
VERTEX
  5
2F5
  8
LAYER_1
 10
1.25
 20
28.40880534863424
 30
0.0
  0
SEQEND
  5
9EF
  8
LAYER_1
  0
POLYLINE
  5
8D
  8
LAYER_1
 66
     1
 10
0.0
 20
0.0
 30
0.0
 70
     1
  0
VERTEX
  5
2F6
  8
LAYER_1
 10
1.25
 20
3.533805348634242
 30
0.0
  0
VERTEX
  5
2F7
  8
LAYER_1
 10
2.25
 20
3.533805348634242
 30
0.0
  0
VERTEX
  5
2F8
  8
LAYER_1
 10
2.25
 20
17.78380534863424
 30
0.0
  0
VERTEX
  5
2F9
  8
LAYER_1
 10
1.25
 20
17.78380534863424
 30
0.0
  0
SEQEND
  5
9F0
  8
LAYER_1
  0
POLYLINE
  5
8E
  8
LAYER_1
 66
     1
 10
0.0
 20
0.0
 30
0.0
 70
     1
  0
VERTEX
  5
2FA
  8
LAYER_1
 10
34.45039019964688
 20
6.534673432690823
 30
0.0
  0
VERTEX
  5
2FB
  8
LAYER_1
 10
35.40127007666106
 20
6.225113326266428
 30
0.0
  0
VERTEX
  5
2FC
  8
LAYER_1
 10
39.81250159320868
 20
19.77515157371861
 30
0.0
  0
VERTEX
  5
2FD
  8
LAYER_1
 10
38.86162171619449
 20
20.08471168014301
 30
0.0
  0
SEQEND
  5
9F1
  8
LAYER_1
  0
POLYLINE
  5
8F
  8
LAYER_1
 66
     1
 10
0.0
 20
0.0
 30
0.0
 70
     1
  0
VERTEX
  5
2FE
  8
LAYER_1
 10
11.375
 20
2.126305348634244
 30
0.0
  0
VERTEX
  5
2FF
  8
LAYER_1
 10
2.375
 20
2.126305348634244
 30
0.0
  0
VERTEX
  5
300
  8
LAYER_1
 10
2.375
 20
1.346305348634242
 30
0.0
  0
VERTEX
  5
301
  8
LAYER_1
 10
11.375
 20
1.346305348634242
 30
0.0
  0
VERTEX
  5
302
  8
LAYER_1
 10
49.6875
 20
1.346305348634242
 30
0.0
  0
VERTEX
  5
303
  8
LAYER_1
 10
49.6875
 20
2.346305348634242
 30
0.0
  0
VERTEX
  5
304
  8
LAYER_1
 10
11.375
 20
2.346305348634242
 30
0.0
  0
SEQEND
  5
9F2
  8
LAYER_1
  0
POLYLINE
  5
90
  8
LAYER_1
 66
     1
 10
0.0
 20
0.0
 30
0.0
 70
     1
  0
VERTEX
  5
305
  8
LAYER_1
 10
58.48510137478758
 20
18.10896260912061
 30
0.0
  0
VERTEX
  5
306
  8
LAYER_1
 10
59.19855858750043
 20
17.87770775916498
 30
0.0
  0
VERTEX
  5
307
  8
LAYER_1
 10
61.04859738714546
 20
23.58536546086784
 30
0.0
  0
VERTEX
  5
308
  8
LAYER_1
 10
60.33514017443261
 20
23.81662031082346
 30
0.0
  0
SEQEND
  5
9F3
  8
LAYER_1
  0
POLYLINE
  5
91
  8
LAYER_1
 66
     1
 10
0.0
 20
0.0
 30
0.0
 70
     1
  0
VERTEX
  5
309
  8
LAYER_1
 10
128.1053689657511
 20
1.491458677547541
 30
0.0
  0
VERTEX
  5
30A
  8
LAYER_1
 10
151.2303689657511
 20
1.491458677547541
 30
0.0
  0
VERTEX
  5
30B
  8
LAYER_1
 10
151.2303689657511
 20
36.67895867754754
 30
0.0
  0
VERTEX
  5
30C
  8
LAYER_1
 10
128.1053689657511
 20
36.67895867754754
 30
0.0
  0
SEQEND
  5
9F4
  8
LAYER_1
  0
POLYLINE
  5
92
  8
LAYER_1
 66
     1
 10
0.0
 20
0.0
 30
0.0
 70
     1
  0
VERTEX
  5
30D
  8
LAYER_1
 10
145.8553391660172
 20
17.80393918392093
 30
0.0
 42
-0.4142135623730951
  0
VERTEX
  5
30E
  8
LAYER_1
 10
145.6053391660172
 20
17.55393918392093
 30
0.0
  0
VERTEX
  5
30F
  8
LAYER_1
 10
133.7303391660173
 20
17.55393918392093
 30
0.0
 42
-0.4142135623730951
  0
VERTEX
  5
310
  8
LAYER_1
 10
133.4803391660173
 20
17.80393918392093
 30
0.0
  0
VERTEX
  5
311
  8
LAYER_1
 10
133.4803391660173
 20
27.30393918392092
 30
0.0
 42
-0.4142135623730951
  0
VERTEX
  5
312
  8
LAYER_1
 10
133.7303391660173
 20
27.55393918392092
 30
0.0
  0
VERTEX
  5
313
  8
LAYER_1
 10
145.6053391660172
 20
27.55393918392092
 30
0.0
 42
-0.4142135623730951
  0
VERTEX
  5
314
  8
LAYER_1
 10
145.8553391660172
 20
27.30393918392092
 30
0.0
  0
SEQEND
  5
9F5
  8
LAYER_1
  0
POLYLINE
  5
93
  8
LAYER_1
 66
     1
 10
0.0
 20
0.0
 30
0.0
 70
     1
  0
VERTEX
  5
315
  8
LAYER_1
 10
146.3240891660172
 20
22.69453918392092
 30
0.0
 42
-0.4142135623730951
  0
VERTEX
  5
316
  8
LAYER_1
 10
146.4646891660173
 20
22.55393918392093
 30
0.0
 42
-0.4142135623730951
  0
VERTEX
  5
317
  8
LAYER_1
 10
146.3240891660172
 20
22.41333918392093
 30
0.0
 42
-0.4142135623730951
  0
VERTEX
  5
318
  8
LAYER_1
 10
146.1834891660173
 20
22.55393918392093
 30
0.0
 42
-0.4142135623730951
  0
SEQEND
  5
9F6
  8
LAYER_1
  0
POLYLINE
  5
94
  8
LAYER_1
 66
     1
 10
0.0
 20
0.0
 30
0.0
 70
     1
  0
VERTEX
  5
319
  8
LAYER_1
 10
133.0115891660173
 20
22.69453918392092
 30
0.0
 42
-0.4142135623730951
  0
VERTEX
  5
31A
  8
LAYER_1
 10
133.1521891660173
 20
22.55393918392093
 30
0.0
 42
-0.4142135623730951
  0
VERTEX
  5
31B
  8
LAYER_1
 10
133.0115891660173
 20
22.41333918392093
 30
0.0
 42
-0.4142135623730951
  0
VERTEX
  5
31C
  8
LAYER_1
 10
132.8709891660173
 20
22.55393918392093
 30
0.0
 42
-0.4142135623730951
  0
SEQEND
  5
9F7
  8
LAYER_1
  0
POLYLINE
  5
95
  8
LAYER_1
 66
     1
 10
0.0
 20
0.0
 30
0.0
 70
     1
  0
VERTEX
  5
31D
  8
LAYER_1
 10
139.6678391660172
 20
28.06953918392093
 30
0.0
 42
-0.4142135623730951
  0
VERTEX
  5
31E
  8
LAYER_1
 10
139.8084391660173
 20
27.92893918392092
 30
0.0
 42
-0.4142135623730951
  0
VERTEX
  5
31F
  8
LAYER_1
 10
139.6678391660172
 20
27.78833918392093
 30
0.0
 42
-0.4142135623730951
  0
VERTEX
  5
320
  8
LAYER_1
 10
139.5272391660173
 20
27.92893918392092
 30
0.0
 42
-0.4142135623730951
  0
SEQEND
  5
9F8
  8
LAYER_1
  0
POLYLINE
  5
96
  8
LAYER_1
 66
     1
 10
0.0
 20
0.0
 30
0.0
 70
     1
  0
VERTEX
  5
321
  8
LAYER_1
 10
139.6678391660172
 20
17.31953918392092
 30
0.0
 42
-0.4142135623730951
  0
VERTEX
  5
322
  8
LAYER_1
 10
139.8084391660173
 20
17.17893918392093
 30
0.0
 42
-0.4142135623730951
  0
VERTEX
  5
323
  8
LAYER_1
 10
139.6678391660172
 20
17.03833918392093
 30
0.0
 42
-0.4142135623730951
  0
VERTEX
  5
324
  8
LAYER_1
 10
139.5272391660173
 20
17.17893918392093
 30
0.0
 42
-0.4142135623730951
  0
SEQEND
  5
9F9
  8
LAYER_1
  0
POLYLINE
  5
97
  8
LAYER_1
 66
     1
 10
0.0
 20
0.0
 30
0.0
 70
     1
  0
VERTEX
  5
325
  8
LAYER_1
 10
133.5740891660173
 20
26.99143918392092
 30
0.0
 42
-0.4142135623730951
  0
VERTEX
  5
326
  8
LAYER_1
 10
133.8240891660173
 20
26.74143918392092
 30
0.0
 42
-0.4142135623730951
  0
VERTEX
  5
327
  8
LAYER_1
 10
133.5740891660173
 20
26.49143918392092
 30
0.0
 42
-0.4142135623730951
  0
VERTEX
  5
328
  8
LAYER_1
 10
133.3240891660173
 20
26.74143918392092
 30
0.0
 42
-0.4142135623730951
  0
SEQEND
  5
9FA
  8
LAYER_1
  0
POLYLINE
  5
98
  8
LAYER_1
 66
     1
 10
0.0
 20
0.0
 30
0.0
 70
     1
  0
VERTEX
  5
329
  8
LAYER_1
 10
133.5740891660173
 20
18.61643918392093
 30
0.0
 42
-0.4142135623730951
  0
VERTEX
  5
32A
  8
LAYER_1
 10
133.8240891660173
 20
18.36643918392093
 30
0.0
 42
-0.4142135623730951
  0
VERTEX
  5
32B
  8
LAYER_1
 10
133.5740891660173
 20
18.11643918392093
 30
0.0
 42
-0.4142135623730951
  0
VERTEX
  5
32C
  8
LAYER_1
 10
133.3240891660173
 20
18.36643918392093
 30
0.0
 42
-0.4142135623730951
  0
SEQEND
  5
9FB
  8
LAYER_1
  0
POLYLINE
  5
99
  8
LAYER_1
 66
     1
 10
0.0
 20
0.0
 30
0.0
 70
     1
  0
VERTEX
  5
32D
  8
LAYER_1
 10
133.5740891660173
 20
22.80393918392093
 30
0.0
 42
-0.4142135623730951
  0
VERTEX
  5
32E
  8
LAYER_1
 10
133.8240891660173
 20
22.55393918392093
 30
0.0
 42
-0.4142135623730951
  0
VERTEX
  5
32F
  8
LAYER_1
 10
133.5740891660173
 20
22.30393918392093
 30
0.0
 42
-0.4142135623730951
  0
VERTEX
  5
330
  8
LAYER_1
 10
133.3240891660173
 20
22.55393918392093
 30
0.0
 42
-0.4142135623730951
  0
SEQEND
  5
9FC
  8
LAYER_1
  0
POLYLINE
  5
9A
  8
LAYER_1
 66
     1
 10
0.0
 20
0.0
 30
0.0
 70
     1
  0
VERTEX
  5
331
  8
LAYER_1
 10
139.6678189657511
 20
17.42895867754754
 30
0.0
 42
0.4142135623730951
  0
VERTEX
  5
332
  8
LAYER_1
 10
139.4178189657511
 20
17.17895867754754
 30
0.0
 42
0.4142135623730951
  0
VERTEX
  5
333
  8
LAYER_1
 10
139.6678189657511
 20
16.92895867754754
 30
0.0
 42
0.4142135623730951
  0
VERTEX
  5
334
  8
LAYER_1
 10
139.9178189657511
 20
17.17895867754754
 30
0.0
 42
0.4142135623730951
  0
SEQEND
  5
9FD
  8
LAYER_1
  0
POLYLINE
  5
9B
  8
LAYER_1
 66
     1
 10
0.0
 20
0.0
 30
0.0
 70
     1
  0
VERTEX
  5
335
  8
LAYER_1
 10
133.0116189657511
 20
22.80395867754754
 30
0.0
 42
0.4142135623730951
  0
VERTEX
  5
336
  8
LAYER_1
 10
132.7616189657511
 20
22.55395867754754
 30
0.0
 42
0.4142135623730951
  0
VERTEX
  5
337
  8
LAYER_1
 10
133.0116189657511
 20
22.30395867754754
 30
0.0
 42
0.4142135623730951
  0
VERTEX
  5
338
  8
LAYER_1
 10
133.2616189657511
 20
22.55395867754754
 30
0.0
 42
0.4142135623730951
  0
SEQEND
  5
9FE
  8
LAYER_1
  0
POLYLINE
  5
9C
  8
LAYER_1
 66
     1
 10
0.0
 20
0.0
 30
0.0
 70
     1
  0
VERTEX
  5
339
  8
LAYER_1
 10
139.6678189657511
 20
28.17895867754754
 30
0.0
 42
0.4142135623730951
  0
VERTEX
  5
33A
  8
LAYER_1
 10
139.4178189657511
 20
27.92895867754754
 30
0.0
 42
0.4142135623730951
  0
VERTEX
  5
33B
  8
LAYER_1
 10
139.6678189657511
 20
27.67895867754754
 30
0.0
 42
0.4142135623730951
  0
VERTEX
  5
33C
  8
LAYER_1
 10
139.9178189657511
 20
27.92895867754754
 30
0.0
 42
0.4142135623730951
  0
SEQEND
  5
9FF
  8
LAYER_1
  0
POLYLINE
  5
9D
  8
LAYER_1
 66
     1
 10
0.0
 20
0.0
 30
0.0
 70
     1
  0
VERTEX
  5
33D
  8
LAYER_1
 10
146.3241189657511
 20
22.80395867754754
 30
0.0
 42
0.4142135623730951
  0
VERTEX
  5
33E
  8
LAYER_1
 10
146.0741189657511
 20
22.55395867754754
 30
0.0
 42
0.4142135623730951
  0
VERTEX
  5
33F
  8
LAYER_1
 10
146.3241189657511
 20
22.30395867754754
 30
0.0
 42
0.4142135623730951
  0
VERTEX
  5
340
  8
LAYER_1
 10
146.5741189657511
 20
22.55395867754754
 30
0.0
 42
0.4142135623730951
  0
SEQEND
  5
A00
  8
LAYER_1
  0
POLYLINE
  5
9E
  8
LAYER_1
 66
     1
 10
0.0
 20
0.0
 30
0.0
 70
     1
  0
VERTEX
  5
341
  8
LAYER_1
 10
135.3553689657511
 20
11.30445867754754
 30
0.0
 42
0.4142135623730951
  0
VERTEX
  5
342
  8
LAYER_1
 10
135.2298689657511
 20
11.17895867754754
 30
0.0
 42
0.4142135623730951
  0
VERTEX
  5
343
  8
LAYER_1
 10
135.3553689657511
 20
11.05345867754754
 30
0.0
 42
0.4142135623730951
  0
VERTEX
  5
344
  8
LAYER_1
 10
135.4808689657511
 20
11.17895867754754
 30
0.0
 42
0.4142135623730951
  0
SEQEND
  5
A01
  8
LAYER_1
  0
POLYLINE
  5
9F
  8
LAYER_1
 66
     1
 10
0.0
 20
0.0
 30
0.0
 70
     1
  0
VERTEX
  5
345
  8
LAYER_1
 10
135.3553689657511
 20
11.58520867754754
 30
0.0
 42
0.4142135623730951
  0
VERTEX
  5
346
  8
LAYER_1
 10
134.9491189657511
 20
11.17895867754754
 30
0.0
 42
0.4142135623730951
  0
VERTEX
  5
347
  8
LAYER_1
 10
135.3553689657511
 20
10.77270867754754
 30
0.0
 42
0.4142135623730951
  0
VERTEX
  5
348
  8
LAYER_1
 10
135.7616189657511
 20
11.17895867754754
 30
0.0
 42
0.4142135623730951
  0
SEQEND
  5
A02
  8
LAYER_1
  0
POLYLINE
  5
A0
  8
LAYER_1
 66
     1
 10
0.0
 20
0.0
 30
0.0
 70
     1
  0
VERTEX
  5
349
  8
LAYER_1
 10
135.3553689657511
 20
13.77270867754754
 30
0.0
 42
0.4142135623730951
  0
VERTEX
  5
34A
  8
LAYER_1
 10
134.9491189657511
 20
13.36645867754754
 30
0.0
 42
0.4142135623730951
  0
VERTEX
  5
34B
  8
LAYER_1
 10
135.3553689657511
 20
12.96020867754754
 30
0.0
 42
0.4142135623730951
  0
VERTEX
  5
34C
  8
LAYER_1
 10
135.7616189657511
 20
13.36645867754754
 30
0.0
 42
0.4142135623730951
  0
SEQEND
  5
A03
  8
LAYER_1
  0
POLYLINE
  5
A1
  8
LAYER_1
 66
     1
 10
0.0
 20
0.0
 30
0.0
 70
     1
  0
VERTEX
  5
34D
  8
LAYER_1
 10
135.3553689657511
 20
13.49195867754754
 30
0.0
 42
0.4142135623730951
  0
VERTEX
  5
34E
  8
LAYER_1
 10
135.2298689657511
 20
13.36645867754754
 30
0.0
 42
0.4142135623730951
  0
VERTEX
  5
34F
  8
LAYER_1
 10
135.3553689657511
 20
13.24095867754754
 30
0.0
 42
0.4142135623730951
  0
VERTEX
  5
350
  8
LAYER_1
 10
135.4808689657511
 20
13.36645867754754
 30
0.0
 42
0.4142135623730951
  0
SEQEND
  5
A04
  8
LAYER_1
  0
POLYLINE
  5
A2
  8
LAYER_1
 66
     1
 10
0.0
 20
0.0
 30
0.0
 70
     1
  0
VERTEX
  5
351
  8
LAYER_1
 10
144.1053689657511
 20
13.49195867754754
 30
0.0
 42
0.4142135623730951
  0
VERTEX
  5
352
  8
LAYER_1
 10
143.9798689657511
 20
13.36645867754754
 30
0.0
 42
0.4142135623730951
  0
VERTEX
  5
353
  8
LAYER_1
 10
144.1053689657511
 20
13.24095867754754
 30
0.0
 42
0.4142135623730951
  0
VERTEX
  5
354
  8
LAYER_1
 10
144.2308689657511
 20
13.36645867754754
 30
0.0
 42
0.4142135623730951
  0
SEQEND
  5
A05
  8
LAYER_1
  0
POLYLINE
  5
A3
  8
LAYER_1
 66
     1
 10
0.0
 20
0.0
 30
0.0
 70
     1
  0
VERTEX
  5
355
  8
LAYER_1
 10
144.1053689657511
 20
13.77270867754754
 30
0.0
 42
0.4142135623730951
  0
VERTEX
  5
356
  8
LAYER_1
 10
143.6991189657511
 20
13.36645867754754
 30
0.0
 42
0.4142135623730951
  0
VERTEX
  5
357
  8
LAYER_1
 10
144.1053689657511
 20
12.96020867754754
 30
0.0
 42
0.4142135623730951
  0
VERTEX
  5
358
  8
LAYER_1
 10
144.5116189657511
 20
13.36645867754754
 30
0.0
 42
0.4142135623730951
  0
SEQEND
  5
A06
  8
LAYER_1
  0
POLYLINE
  5
A4
  8
LAYER_1
 66
     1
 10
0.0
 20
0.0
 30
0.0
 70
     1
  0
VERTEX
  5
359
  8
LAYER_1
 10
144.1053689657511
 20
11.58520867754754
 30
0.0
 42
0.4142135623730951
  0
VERTEX
  5
35A
  8
LAYER_1
 10
143.6991189657511
 20
11.17895867754754
 30
0.0
 42
0.4142135623730951
  0
VERTEX
  5
35B
  8
LAYER_1
 10
144.1053689657511
 20
10.77270867754754
 30
0.0
 42
0.4142135623730951
  0
VERTEX
  5
35C
  8
LAYER_1
 10
144.5116189657511
 20
11.17895867754754
 30
0.0
 42
0.4142135623730951
  0
SEQEND
  5
A07
  8
LAYER_1
  0
POLYLINE
  5
A5
  8
LAYER_1
 66
     1
 10
0.0
 20
0.0
 30
0.0
 70
     1
  0
VERTEX
  5
35D
  8
LAYER_1
 10
144.1053689657511
 20
11.30445867754754
 30
0.0
 42
0.4142135623730951
  0
VERTEX
  5
35E
  8
LAYER_1
 10
143.9798689657511
 20
11.17895867754754
 30
0.0
 42
0.4142135623730951
  0
VERTEX
  5
35F
  8
LAYER_1
 10
144.1053689657511
 20
11.05345867754754
 30
0.0
 42
0.4142135623730951
  0
VERTEX
  5
360
  8
LAYER_1
 10
144.2308689657511
 20
11.17895867754754
 30
0.0
 42
0.4142135623730951
  0
SEQEND
  5
A08
  8
LAYER_1
  0
POLYLINE
  5
A6
  8
LAYER_1
 66
     1
 10
0.0
 20
0.0
 30
0.0
 70
     1
  0
VERTEX
  5
361
  8
LAYER_1
 10
80.9152538202308
 20
-25.07305640840113
 30
0.0
  0
VERTEX
  5
362
  8
LAYER_1
 10
80.9152538202308
 20
-1.948056408401129
 30
0.0
  0
VERTEX
  5
363
  8
LAYER_1
 10
73.7277538202308
 20
-1.948056408401129
 30
0.0
  0
VERTEX
  5
364
  8
LAYER_1
 10
73.7277538202308
 20
-25.07305640840113
 30
0.0
  0
SEQEND
  5
A09
  8
LAYER_1
  0
POLYLINE
  5
A7
  8
LAYER_1
 66
     1
 10
0.0
 20
0.0
 30
0.0
 70
     1
  0
VERTEX
  5
365
  8
LAYER_1
 10
79.91475382023079
 20
-22.32305640840113
 30
0.0
 42
0.4142135623730951
  0
VERTEX
  5
366
  8
LAYER_1
 10
80.0402538202308
 20
-22.44855640840113
 30
0.0
 42
0.4142135623730951
  0
VERTEX
  5
367
  8
LAYER_1
 10
80.16575382023079
 20
-22.32305640840113
 30
0.0
 42
0.4142135623730951
  0
VERTEX
  5
368
  8
LAYER_1
 10
80.0402538202308
 20
-22.19755640840113
 30
0.0
 42
0.4142135623730951
  0
SEQEND
  5
A0A
  8
LAYER_1
  0
POLYLINE
  5
A8
  8
LAYER_1
 66
     1
 10
0.0
 20
0.0
 30
0.0
 70
     1
  0
VERTEX
  5
369
  8
LAYER_1
 10
79.91475382023079
 20
-15.76055640840113
 30
0.0
 42
0.4142135623730951
  0
VERTEX
  5
36A
  8
LAYER_1
 10
80.0402538202308
 20
-15.88605640840113
 30
0.0
 42
0.4142135623730951
  0
VERTEX
  5
36B
  8
LAYER_1
 10
80.16575382023079
 20
-15.76055640840113
 30
0.0
 42
0.4142135623730951
  0
VERTEX
  5
36C
  8
LAYER_1
 10
80.0402538202308
 20
-15.63505640840113
 30
0.0
 42
0.4142135623730951
  0
SEQEND
  5
A0B
  8
LAYER_1
  0
POLYLINE
  5
A9
  8
LAYER_1
 66
     1
 10
0.0
 20
0.0
 30
0.0
 70
     1
  0
VERTEX
  5
36D
  8
LAYER_1
 10
79.91475382023079
 20
-11.29185640840113
 30
0.0
 42
0.4142135623730951
  0
VERTEX
  5
36E
  8
LAYER_1
 10
80.0402538202308
 20
-11.41735640840113
 30
0.0
 42
0.4142135623730951
  0
VERTEX
  5
36F
  8
LAYER_1
 10
80.16575382023079
 20
-11.29185640840113
 30
0.0
 42
0.4142135623730951
  0
VERTEX
  5
370
  8
LAYER_1
 10
80.0402538202308
 20
-11.16635640840113
 30
0.0
 42
0.4142135623730951
  0
SEQEND
  5
A0C
  8
LAYER_1
  0
POLYLINE
  5
AA
  8
LAYER_1
 66
     1
 10
0.0
 20
0.0
 30
0.0
 70
     1
  0
VERTEX
  5
371
  8
LAYER_1
 10
79.91475382023079
 20
-4.698056408401129
 30
0.0
 42
0.4142135623730951
  0
VERTEX
  5
372
  8
LAYER_1
 10
80.0402538202308
 20
-4.823556408401132
 30
0.0
 42
0.4142135623730951
  0
VERTEX
  5
373
  8
LAYER_1
 10
80.16575382023079
 20
-4.698056408401129
 30
0.0
 42
0.4142135623730951
  0
VERTEX
  5
374
  8
LAYER_1
 10
80.0402538202308
 20
-4.572556408401127
 30
0.0
 42
0.4142135623730951
  0
SEQEND
  5
A0D
  8
LAYER_1
  0
POLYLINE
  5
AB
  8
LAYER_1
 66
     1
 10
0.0
 20
0.0
 30
0.0
 70
     1
  0
VERTEX
  5
375
  8
LAYER_1
 10
75.28975382023079
 20
-4.698056408401129
 30
0.0
 42
0.4142135623730951
  0
VERTEX
  5
376
  8
LAYER_1
 10
75.4152538202308
 20
-4.823556408401132
 30
0.0
 42
0.4142135623730951
  0
VERTEX
  5
377
  8
LAYER_1
 10
75.54075382023079
 20
-4.698056408401129
 30
0.0
 42
0.4142135623730951
  0
VERTEX
  5
378
  8
LAYER_1
 10
75.4152538202308
 20
-4.572556408401127
 30
0.0
 42
0.4142135623730951
  0
SEQEND
  5
A0E
  8
LAYER_1
  0
POLYLINE
  5
AC
  8
LAYER_1
 66
     1
 10
0.0
 20
0.0
 30
0.0
 70
     1
  0
VERTEX
  5
379
  8
LAYER_1
 10
75.28975382023079
 20
-11.29185640840113
 30
0.0
 42
0.4142135623730951
  0
VERTEX
  5
37A
  8
LAYER_1
 10
75.4152538202308
 20
-11.41735640840113
 30
0.0
 42
0.4142135623730951
  0
VERTEX
  5
37B
  8
LAYER_1
 10
75.54075382023079
 20
-11.29185640840113
 30
0.0
 42
0.4142135623730951
  0
VERTEX
  5
37C
  8
LAYER_1
 10
75.4152538202308
 20
-11.16635640840113
 30
0.0
 42
0.4142135623730951
  0
SEQEND
  5
A0F
  8
LAYER_1
  0
POLYLINE
  5
AD
  8
LAYER_1
 66
     1
 10
0.0
 20
0.0
 30
0.0
 70
     1
  0
VERTEX
  5
37D
  8
LAYER_1
 10
75.28975382023079
 20
-15.76055640840113
 30
0.0
 42
0.4142135623730951
  0
VERTEX
  5
37E
  8
LAYER_1
 10
75.4152538202308
 20
-15.88605640840113
 30
0.0
 42
0.4142135623730951
  0
VERTEX
  5
37F
  8
LAYER_1
 10
75.54075382023079
 20
-15.76055640840113
 30
0.0
 42
0.4142135623730951
  0
VERTEX
  5
380
  8
LAYER_1
 10
75.4152538202308
 20
-15.63505640840113
 30
0.0
 42
0.4142135623730951
  0
SEQEND
  5
A10
  8
LAYER_1
  0
POLYLINE
  5
AE
  8
LAYER_1
 66
     1
 10
0.0
 20
0.0
 30
0.0
 70
     1
  0
VERTEX
  5
381
  8
LAYER_1
 10
75.28975382023079
 20
-22.32305640840113
 30
0.0
 42
0.4142135623730951
  0
VERTEX
  5
382
  8
LAYER_1
 10
75.4152538202308
 20
-22.44855640840113
 30
0.0
 42
0.4142135623730951
  0
VERTEX
  5
383
  8
LAYER_1
 10
75.54075382023079
 20
-22.32305640840113
 30
0.0
 42
0.4142135623730951
  0
VERTEX
  5
384
  8
LAYER_1
 10
75.4152538202308
 20
-22.19755640840113
 30
0.0
 42
0.4142135623730951
  0
SEQEND
  5
A11
  8
LAYER_1
  0
POLYLINE
  5
AF
  8
LAYER_1
 66
     1
 10
0.0
 20
0.0
 30
0.0
 70
     1
  0
VERTEX
  5
385
  8
LAYER_1
 10
80.4152538202308
 20
-19.04180640840113
 30
0.0
  0
VERTEX
  5
386
  8
LAYER_1
 10
80.4150339411119
 20
-18.98808744675578
 30
0.0
  0
VERTEX
  5
387
  8
LAYER_1
 10
80.4143760627201
 20
-18.93453172699281
 30
0.0
  0
VERTEX
  5
388
  8
LAYER_1
 10
80.41328282350281
 20
-18.88114332950175
 30
0.0
  0
VERTEX
  5
389
  8
LAYER_1
 10
80.41175686190745
 20
-18.82792633467221
 30
0.0
  0
VERTEX
  5
38A
  8
LAYER_1
 10
80.40980081638139
 20
-18.77488482289375
 30
0.0
  0
VERTEX
  5
38B
  8
LAYER_1
 10
80.407417325372
 20
-18.72202287455593
 30
0.0
  0
VERTEX
  5
38C
  8
LAYER_1
 10
80.4046090273267
 20
-18.66934457004833
 30
0.0
  0
VERTEX
  5
38D
  8
LAYER_1
 10
80.40137856069288
 20
-18.61685398976054
 30
0.0
  0
VERTEX
  5
38E
  8
LAYER_1
 10
80.39772856391791
 20
-18.56455521408211
 30
0.0
  0
VERTEX
  5
38F
  8
LAYER_1
 10
80.39366167544922
 20
-18.51245232340262
 30
0.0
  0
VERTEX
  5
390
  8
LAYER_1
 10
80.38918053373419
 20
-18.46054939811164
 30
0.0
  0
VERTEX
  5
391
  8
LAYER_1
 10
80.3842877772202
 20
-18.40885051859875
 30
0.0
  0
VERTEX
  5
392
  8
LAYER_1
 10
80.37898604435463
 20
-18.35735976525352
 30
0.0
  0
VERTEX
  5
393
  8
LAYER_1
 10
80.37327797358492
 20
-18.30608121846553
 30
0.0
  0
VERTEX
  5
394
  8
LAYER_1
 10
80.36716620335844
 20
-18.25501895862433
 30
0.0
  0
VERTEX
  5
395
  8
LAYER_1
 10
80.36065337212256
 20
-18.20417706611952
 30
0.0
  0
VERTEX
  5
396
  8
LAYER_1
 10
80.35374211832469
 20
-18.15355962134065
 30
0.0
  0
VERTEX
  5
397
  8
LAYER_1
 10
80.34643508041225
 20
-18.10317070467731
 30
0.0
  0
VERTEX
  5
398
  8
LAYER_1
 10
80.33873489683259
 20
-18.05301439651906
 30
0.0
  0
VERTEX
  5
399
  8
LAYER_1
 10
80.3306442060331
 20
-18.00309477725548
 30
0.0
  0
VERTEX
  5
39A
  8
LAYER_1
 10
80.32216564646123
 20
-17.95341592727615
 30
0.0
  0
VERTEX
  5
39B
  8
LAYER_1
 10
80.31330185656432
 20
-17.90398192697063
 30
0.0
  0
VERTEX
  5
39C
  8
LAYER_1
 10
80.30405547478978
 20
-17.85479685672849
 30
0.0
  0
VERTEX
  5
39D
  8
LAYER_1
 10
80.29442913958499
 20
-17.80586479693932
 30
0.0
  0
VERTEX
  5
39E
  8
LAYER_1
 10
80.28442548939736
 20
-17.75718982799268
 30
0.0
  0
VERTEX
  5
39F
  8
LAYER_1
 10
80.2740471626743
 20
-17.70877603027814
 30
0.0
  0
VERTEX
  5
3A0
  8
LAYER_1
 10
80.26329679786316
 20
-17.66062748418528
 30
0.0
  0
VERTEX
  5
3A1
  8
LAYER_1
 10
80.25217703341136
 20
-17.61274827010368
 30
0.0
  0
VERTEX
  5
3A2
  8
LAYER_1
 10
80.24069050776627
 20
-17.56514246842289
 30
0.0
  0
VERTEX
  5
3A3
  8
LAYER_1
 10
80.22883985937533
 20
-17.51781415953251
 30
0.0
  0
VERTEX
  5
3A4
  8
LAYER_1
 10
80.2166277266859
 20
-17.47076742382208
 30
0.0
  0
VERTEX
  5
3A5
  8
LAYER_1
 10
80.20405674814536
 20
-17.42400634168121
 30
0.0
  0
VERTEX
  5
3A6
  8
LAYER_1
 10
80.19112956220113
 20
-17.37753499349945
 30
0.0
  0
VERTEX
  5
3A7
  8
LAYER_1
 10
80.17784880730058
 20
-17.33135745966637
 30
0.0
  0
VERTEX
  5
3A8
  8
LAYER_1
 10
80.16421712189113
 20
-17.28547782057155
 30
0.0
  0
VERTEX
  5
3A9
  8
LAYER_1
 10
80.15023714442015
 20
-17.23990015660457
 30
0.0
  0
VERTEX
  5
3AA
  8
LAYER_1
 10
80.13591151333503
 20
-17.19462854815499
 30
0.0
  0
VERTEX
  5
3AB
  8
LAYER_1
 10
80.12124286708318
 20
-17.14966707561239
 30
0.0
  0
VERTEX
  5
3AC
  8
LAYER_1
 10
80.106233844112
 20
-17.10501981936635
 30
0.0
  0
VERTEX
  5
3AD
  8
LAYER_1
 10
80.09088708286885
 20
-17.06069085980642
 30
0.0
  0
VERTEX
  5
3AE
  8
LAYER_1
 10
80.07520522180116
 20
-17.01668427732219
 30
0.0
  0
VERTEX
  5
3AF
  8
LAYER_1
 10
80.05919089935628
 20
-16.97300415230323
 30
0.0
  0
VERTEX
  5
3B0
  8
LAYER_1
 10
80.04284675398162
 20
-16.92965456513912
 30
0.0
  0
VERTEX
  5
3B1
  8
LAYER_1
 10
80.0261754241246
 20
-16.88663959621941
 30
0.0
  0
VERTEX
  5
3B2
  8
LAYER_1
 10
80.0091795482326
 20
-16.8439633259337
 30
0.0
  0
VERTEX
  5
3B3
  8
LAYER_1
 10
79.991861764753
 20
-16.80162983467154
 30
0.0
  0
VERTEX
  5
3B4
  8
LAYER_1
 10
79.9742247121332
 20
-16.75964320282252
 30
0.0
  0
VERTEX
  5
3B5
  8
LAYER_1
 10
79.9562710288206
 20
-16.71800751077621
 30
0.0
  0
VERTEX
  5
3B6
  8
LAYER_1
 10
79.93800335326259
 20
-16.67672683892217
 30
0.0
  0
VERTEX
  5
3B7
  8
LAYER_1
 10
79.91942432390653
 20
-16.63580526764999
 30
0.0
  0
VERTEX
  5
3B8
  8
LAYER_1
 10
79.90053657919987
 20
-16.59524687734923
 30
0.0
  0
VERTEX
  5
3B9
  8
LAYER_1
 10
79.88134275758995
 20
-16.55505574840947
 30
0.0
  0
VERTEX
  5
3BA
  8
LAYER_1
 10
79.8618454975242
 20
-16.51523596122027
 30
0.0
  0
VERTEX
  5
3BB
  8
LAYER_1
 10
79.84204743744999
 20
-16.47579159617122
 30
0.0
  0
VERTEX
  5
3BC
  8
LAYER_1
 10
79.82195121581475
 20
-16.43672673365188
 30
0.0
  0
VERTEX
  5
3BD
  8
LAYER_1
 10
79.80155947106581
 20
-16.39804545405183
 30
0.0
  0
VERTEX
  5
3BE
  8
LAYER_1
 10
79.78087484165061
 20
-16.35975183776064
 30
0.0
  0
VERTEX
  5
3BF
  8
LAYER_1
 10
79.75989996601653
 20
-16.32184996516789
 30
0.0
  0
VERTEX
  5
3C0
  8
LAYER_1
 10
79.73863748261097
 20
-16.28434391666314
 30
0.0
  0
VERTEX
  5
3C1
  8
LAYER_1
 10
79.71709002988132
 20
-16.24723777263597
 30
0.0
  0
VERTEX
  5
3C2
  8
LAYER_1
 10
79.69526024627496
 20
-16.21053561347595
 30
0.0
  0
VERTEX
  5
3C3
  8
LAYER_1
 10
79.6731507702393
 20
-16.17424151957265
 30
0.0
  0
VERTEX
  5
3C4
  8
LAYER_1
 10
79.65076424022173
 20
-16.13835957131566
 30
0.0
  0
VERTEX
  5
3C5
  8
LAYER_1
 10
79.62810329466964
 20
-16.10289384909453
 30
0.0
  0
VERTEX
  5
3C6
  8
LAYER_1
 10
79.60517057203043
 20
-16.06784843329885
 30
0.0
  0
VERTEX
  5
3C7
  8
LAYER_1
 10
79.58196871075147
 20
-16.03322740431818
 30
0.0
  0
VERTEX
  5
3C8
  8
LAYER_1
 10
79.55850034928017
 20
-15.99903484254209
 30
0.0
  0
VERTEX
  5
3C9
  8
LAYER_1
 10
79.53476812606391
 20
-15.96527482836018
 30
0.0
  0
VERTEX
  5
3CA
  8
LAYER_1
 10
79.5107746795501
 20
-15.93195144216199
 30
0.0
  0
VERTEX
  5
3CB
  8
LAYER_1
 10
79.48652264818612
 20
-15.89906876433711
 30
0.0
  0
VERTEX
  5
3CC
  8
LAYER_1
 10
79.46201467041938
 20
-15.86663087527511
 30
0.0
  0
VERTEX
  5
3CD
  8
LAYER_1
 10
79.43725338469726
 20
-15.83464185536556
 30
0.0
  0
VERTEX
  5
3CE
  8
LAYER_1
 10
79.41224142946716
 20
-15.80310578499804
 30
0.0
  0
VERTEX
  5
3CF
  8
LAYER_1
 10
79.38698144317647
 20
-15.77202674456211
 30
0.0
  0
VERTEX
  5
3D0
  8
LAYER_1
 10
79.36147606427257
 20
-15.74140881444736
 30
0.0
  0
VERTEX
  5
3D1
  8
LAYER_1
 10
79.33572793120285
 20
-15.71125607504334
 30
0.0
  0
VERTEX
  5
3D2
  8
LAYER_1
 10
79.30973968241473
 20
-15.68157260673965
 30
0.0
  0
VERTEX
  5
3D3
  8
LAYER_1
 10
79.28351395635559
 20
-15.65236248992584
 30
0.0
  0
VERTEX
  5
3D4
  8
LAYER_1
 10
79.25705339147284
 20
-15.62362980499149
 30
0.0
  0
VERTEX
  5
3D5
  8
LAYER_1
 10
79.23036062621382
 20
-15.59537863232618
 30
0.0
  0
VERTEX
  5
3D6
  8
LAYER_1
 10
79.20343829902596
 20
-15.56761305231947
 30
0.0
  0
VERTEX
  5
3D7
  8
LAYER_1
 10
79.17628904835667
 20
-15.54033714536094
 30
0.0
  0
VERTEX
  5
3D8
  8
LAYER_1
 10
79.14891551265332
 20
-15.51355499184017
 30
0.0
  0
VERTEX
  5
3D9
  8
LAYER_1
 10
79.12132033036332
 20
-15.48727067214672
 30
0.0
  0
VERTEX
  5
3DA
  8
LAYER_1
 10
79.09350613993405
 20
-15.46148826667017
 30
0.0
  0
VERTEX
  5
3DB
  8
LAYER_1
 10
79.06547557981288
 20
-15.43621185580009
 30
0.0
  0
VERTEX
  5
3DC
  8
LAYER_1
 10
79.03723128844724
 20
-15.41144551992605
 30
0.0
  0
VERTEX
  5
3DD
  8
LAYER_1
 10
79.0087759042845
 20
-15.38719333943762
 30
0.0
  0
VERTEX
  5
3DE
  8
LAYER_1
 10
78.98011206577206
 20
-15.36345939472439
 30
0.0
  0
VERTEX
  5
3DF
  8
LAYER_1
 10
78.95124241135734
 20
-15.34024776617592
 30
0.0
  0
VERTEX
  5
3E0
  8
LAYER_1
 10
78.92216957948769
 20
-15.31756253418178
 30
0.0
  0
VERTEX
  5
3E1
  8
LAYER_1
 10
78.89289620861052
 20
-15.29540777913155
 30
0.0
  0
VERTEX
  5
3E2
  8
LAYER_1
 10
78.86342493717322
 20
-15.2737875814148
 30
0.0
  0
VERTEX
  5
3E3
  8
LAYER_1
 10
78.8337584036232
 20
-15.2527060214211
 30
0.0
  0
VERTEX
  5
3E4
  8
LAYER_1
 10
78.80389924640781
 20
-15.23216717954003
 30
0.0
  0
VERTEX
  5
3E5
  8
LAYER_1
 10
78.7738501039745
 20
-15.21217513616115
 30
0.0
  0
VERTEX
  5
3E6
  8
LAYER_1
 10
78.74361361477062
 20
-15.19273397167405
 30
0.0
  0
VERTEX
  5
3E7
  8
LAYER_1
 10
78.71319241724359
 20
-15.17384776646829
 30
0.0
  0
VERTEX
  5
3E8
  8
LAYER_1
 10
78.68258914984078
 20
-15.15552060093345
 30
0.0
  0
VERTEX
  5
3E9
  8
LAYER_1
 10
78.65180645100959
 20
-15.13775655545909
 30
0.0
  0
VERTEX
  5
3EA
  8
LAYER_1
 10
78.62084695919742
 20
-15.1205597104348
 30
0.0
  0
VERTEX
  5
3EB
  8
LAYER_1
 10
78.58971331285167
 20
-15.10393414625014
 30
0.0
  0
VERTEX
  5
3EC
  8
LAYER_1
 10
78.5584081504197
 20
-15.08788394329469
 30
0.0
  0
VERTEX
  5
3ED
  8
LAYER_1
 10
78.52693411034895
 20
-15.07241318195802
 30
0.0
  0
VERTEX
  5
3EE
  8
LAYER_1
 10
78.49529383108677
 20
-15.0575259426297
 30
0.0
  0
VERTEX
  5
3EF
  8
LAYER_1
 10
78.46348995108058
 20
-15.04322630569931
 30
0.0
  0
VERTEX
  5
3F0
  8
LAYER_1
 10
78.43152510877776
 20
-15.02951835155642
 30
0.0
  0
VERTEX
  5
3F1
  8
LAYER_1
 10
78.39940194262572
 20
-15.01640616059059
 30
0.0
  0
VERTEX
  5
3F2
  8
LAYER_1
 10
78.36712309107183
 20
-15.00389381319141
 30
0.0
  0
VERTEX
  5
3F3
  8
LAYER_1
 10
78.33469119256348
 20
-14.99198538974845
 30
0.0
  0
VERTEX
  5
3F4
  8
LAYER_1
 10
78.30210888554808
 20
-14.98068497065128
 30
0.0
  0
VERTEX
  5
3F5
  8
LAYER_1
 10
78.26937880847304
 20
-14.96999663628947
 30
0.0
  0
VERTEX
  5
3F6
  8
LAYER_1
 10
78.2365035997857
 20
-14.95992446705259
 30
0.0
  0
VERTEX
  5
3F7
  8
LAYER_1
 10
78.20348589793352
 20
-14.95047254333022
 30
0.0
  0
VERTEX
  5
3F8
  8
LAYER_1
 10
78.17032834136384
 20
-14.94164494551194
 30
0.0
  0
VERTEX
  5
3F9
  8
LAYER_1
 10
78.13703356852406
 20
-14.93344575398731
 30
0.0
  0
VERTEX
  5
3FA
  8
LAYER_1
 10
78.10360421786159
 20
-14.9258790491459
 30
0.0
  0
VERTEX
  5
3FB
  8
LAYER_1
 10
78.07004292782382
 20
-14.91894891137729
 30
0.0
  0
VERTEX
  5
3FC
  8
LAYER_1
 10
78.03635233685813
 20
-14.91265942107105
 30
0.0
  0
VERTEX
  5
3FD
  8
LAYER_1
 10
78.00253508341193
 20
-14.90701465861676
 30
0.0
  0
VERTEX
  5
3FE
  8
LAYER_1
 10
77.9685938059326
 20
-14.90201870440398
 30
0.0
  0
VERTEX
  5
3FF
  8
LAYER_1
 10
77.93453114286754
 20
-14.89767563882229
 30
0.0
  0
VERTEX
  5
400
  8
LAYER_1
 10
77.90034973266414
 20
-14.89398954226127
 30
0.0
  0
VERTEX
  5
401
  8
LAYER_1
 10
77.86605221376979
 20
-14.89096449511048
 30
0.0
  0
VERTEX
  5
402
  8
LAYER_1
 10
77.8316412246319
 20
-14.8886045777595
 30
0.0
  0
VERTEX
  5
403
  8
LAYER_1
 10
77.79711940369783
 20
-14.8869138705979
 30
0.0
  0
VERTEX
  5
404
  8
LAYER_1
 10
77.762489389415
 20
-14.88589645401525
 30
0.0
  0
VERTEX
  5
405
  8
LAYER_1
 10
77.7277538202308
 20
-14.88555640840113
 30
0.0
  0
VERTEX
  5
406
  8
LAYER_1
 10
77.69301825104661
 20
-14.88589645401525
 30
0.0
  0
VERTEX
  5
407
  8
LAYER_1
 10
77.65838823676377
 20
-14.8869138705979
 30
0.0
  0
VERTEX
  5
408
  8
LAYER_1
 10
77.62386641582971
 20
-14.8886045777595
 30
0.0
  0
VERTEX
  5
409
  8
LAYER_1
 10
77.5894554266918
 20
-14.89096449511048
 30
0.0
  0
VERTEX
  5
40A
  8
LAYER_1
 10
77.55515790779744
 20
-14.89398954226127
 30
0.0
  0
VERTEX
  5
40B
  8
LAYER_1
 10
77.52097649759403
 20
-14.89767563882229
 30
0.0
  0
VERTEX
  5
40C
  8
LAYER_1
 10
77.48691383452898
 20
-14.90201870440398
 30
0.0
  0
VERTEX
  5
40D
  8
LAYER_1
 10
77.45297255704966
 20
-14.90701465861676
 30
0.0
  0
VERTEX
  5
40E
  8
LAYER_1
 10
77.41915530360347
 20
-14.91265942107105
 30
0.0
  0
VERTEX
  5
40F
  8
LAYER_1
 10
77.38546471263777
 20
-14.91894891137729
 30
0.0
  0
VERTEX
  5
410
  8
LAYER_1
 10
77.3519034226
 20
-14.9258790491459
 30
0.0
  0
VERTEX
  5
411
  8
LAYER_1
 10
77.31847407193753
 20
-14.93344575398731
 30
0.0
  0
VERTEX
  5
412
  8
LAYER_1
 10
77.28517929909776
 20
-14.94164494551194
 30
0.0
  0
VERTEX
  5
413
  8
LAYER_1
 10
77.25202174252809
 20
-14.95047254333022
 30
0.0
  0
VERTEX
  5
414
  8
LAYER_1
 10
77.21900404067587
 20
-14.95992446705259
 30
0.0
  0
VERTEX
  5
415
  8
LAYER_1
 10
77.18612883198855
 20
-14.96999663628947
 30
0.0
  0
VERTEX
  5
416
  8
LAYER_1
 10
77.1533987549135
 20
-14.98068497065128
 30
0.0
  0
VERTEX
  5
417
  8
LAYER_1
 10
77.12081644789811
 20
-14.99198538974845
 30
0.0
  0
VERTEX
  5
418
  8
LAYER_1
 10
77.08838454938976
 20
-15.00389381319141
 30
0.0
  0
VERTEX
  5
419
  8
LAYER_1
 10
77.05610569783587
 20
-15.01640616059059
 30
0.0
  0
VERTEX
  5
41A
  8
LAYER_1
 10
77.02398253168381
 20
-15.02951835155642
 30
0.0
  0
VERTEX
  5
41B
  8
LAYER_1
 10
76.992017689381
 20
-15.04322630569931
 30
0.0
  0
VERTEX
  5
41C
  8
LAYER_1
 10
76.9602138093748
 20
-15.0575259426297
 30
0.0
  0
VERTEX
  5
41D
  8
LAYER_1
 10
76.92857353011263
 20
-15.07241318195802
 30
0.0
  0
VERTEX
  5
41E
  8
LAYER_1
 10
76.89709949004188
 20
-15.08788394329469
 30
0.0
  0
VERTEX
  5
41F
  8
LAYER_1
 10
76.8657943276099
 20
-15.10393414625014
 30
0.0
  0
VERTEX
  5
420
  8
LAYER_1
 10
76.83466068126415
 20
-15.1205597104348
 30
0.0
  0
VERTEX
  5
421
  8
LAYER_1
 10
76.80370118945198
 20
-15.13775655545909
 30
0.0
  0
VERTEX
  5
422
  8
LAYER_1
 10
76.7729184906208
 20
-15.15552060093345
 30
0.0
  0
VERTEX
  5
423
  8
LAYER_1
 10
76.74231522321799
 20
-15.17384776646829
 30
0.0
  0
VERTEX
  5
424
  8
LAYER_1
 10
76.71189402569095
 20
-15.19273397167405
 30
0.0
  0
VERTEX
  5
425
  8
LAYER_1
 10
76.68165753648708
 20
-15.21217513616115
 30
0.0
  0
VERTEX
  5
426
  8
LAYER_1
 10
76.65160839405377
 20
-15.23216717954003
 30
0.0
  0
VERTEX
  5
427
  8
LAYER_1
 10
76.62174923683838
 20
-15.2527060214211
 30
0.0
  0
VERTEX
  5
428
  8
LAYER_1
 10
76.59208270328836
 20
-15.2737875814148
 30
0.0
  0
VERTEX
  5
429
  8
LAYER_1
 10
76.56261143185105
 20
-15.29540777913155
 30
0.0
  0
VERTEX
  5
42A
  8
LAYER_1
 10
76.53333806097389
 20
-15.31756253418178
 30
0.0
  0
VERTEX
  5
42B
  8
LAYER_1
 10
76.50426522910423
 20
-15.34024776617592
 30
0.0
  0
VERTEX
  5
42C
  8
LAYER_1
 10
76.47539557468951
 20
-15.36345939472439
 30
0.0
  0
VERTEX
  5
42D
  8
LAYER_1
 10
76.44673173617707
 20
-15.38719333943762
 30
0.0
  0
VERTEX
  5
42E
  8
LAYER_1
 10
76.41827635201433
 20
-15.41144551992605
 30
0.0
  0
VERTEX
  5
42F
  8
LAYER_1
 10
76.39003206064869
 20
-15.43621185580009
 30
0.0
  0
VERTEX
  5
430
  8
LAYER_1
 10
76.36200150052753
 20
-15.46148826667017
 30
0.0
  0
VERTEX
  5
431
  8
LAYER_1
 10
76.33418731009826
 20
-15.48727067214672
 30
0.0
  0
VERTEX
  5
432
  8
LAYER_1
 10
76.30659212780826
 20
-15.51355499184017
 30
0.0
  0
VERTEX
  5
433
  8
LAYER_1
 10
76.27921859210491
 20
-15.54033714536094
 30
0.0
  0
VERTEX
  5
434
  8
LAYER_1
 10
76.25206934143561
 20
-15.56761305231947
 30
0.0
  0
VERTEX
  5
435
  8
LAYER_1
 10
76.22514701424777
 20
-15.59537863232618
 30
0.0
  0
VERTEX
  5
436
  8
LAYER_1
 10
76.19845424898877
 20
-15.62362980499149
 30
0.0
  0
VERTEX
  5
437
  8
LAYER_1
 10
76.17199368410601
 20
-15.65236248992584
 30
0.0
  0
VERTEX
  5
438
  8
LAYER_1
 10
76.14576795804687
 20
-15.68157260673965
 30
0.0
  0
VERTEX
  5
439
  8
LAYER_1
 10
76.11977970925875
 20
-15.71125607504334
 30
0.0
  0
VERTEX
  5
43A
  8
LAYER_1
 10
76.09403157618904
 20
-15.74140881444736
 30
0.0
  0
VERTEX
  5
43B
  8
LAYER_1
 10
76.06852619728514
 20
-15.77202674456211
 30
0.0
  0
VERTEX
  5
43C
  8
LAYER_1
 10
76.04326621099445
 20
-15.80310578499804
 30
0.0
  0
VERTEX
  5
43D
  8
LAYER_1
 10
76.01825425576435
 20
-15.83464185536556
 30
0.0
  0
VERTEX
  5
43E
  8
LAYER_1
 10
75.99349297004223
 20
-15.86663087527511
 30
0.0
  0
VERTEX
  5
43F
  8
LAYER_1
 10
75.96898499227548
 20
-15.89906876433711
 30
0.0
  0
VERTEX
  5
440
  8
LAYER_1
 10
75.94473296091151
 20
-15.93195144216199
 30
0.0
  0
VERTEX
  5
441
  8
LAYER_1
 10
75.9207395143977
 20
-15.96527482836018
 30
0.0
  0
VERTEX
  5
442
  8
LAYER_1
 10
75.89700729118144
 20
-15.99903484254209
 30
0.0
  0
VERTEX
  5
443
  8
LAYER_1
 10
75.87353892971014
 20
-16.03322740431818
 30
0.0
  0
VERTEX
  5
444
  8
LAYER_1
 10
75.85033706843117
 20
-16.06784843329885
 30
0.0
  0
VERTEX
  5
445
  8
LAYER_1
 10
75.82740434579195
 20
-16.10289384909453
 30
0.0
  0
VERTEX
  5
446
  8
LAYER_1
 10
75.80474340023984
 20
-16.13835957131566
 30
0.0
  0
VERTEX
  5
447
  8
LAYER_1
 10
75.78235687022227
 20
-16.17424151957265
 30
0.0
  0
VERTEX
  5
448
  8
LAYER_1
 10
75.76024739418662
 20
-16.21053561347595
 30
0.0
  0
VERTEX
  5
449
  8
LAYER_1
 10
75.73841761058026
 20
-16.24723777263597
 30
0.0
  0
VERTEX
  5
44A
  8
LAYER_1
 10
75.71687015785061
 20
-16.28434391666314
 30
0.0
  0
VERTEX
  5
44B
  8
LAYER_1
 10
75.69560767444504
 20
-16.32184996516789
 30
0.0
  0
VERTEX
  5
44C
  8
LAYER_1
 10
75.67463279881096
 20
-16.35975183776064
 30
0.0
  0
VERTEX
  5
44D
  8
LAYER_1
 10
75.65394816939576
 20
-16.39804545405183
 30
0.0
  0
VERTEX
  5
44E
  8
LAYER_1
 10
75.63355642464683
 20
-16.43672673365188
 30
0.0
  0
VERTEX
  5
44F
  8
LAYER_1
 10
75.61346020301158
 20
-16.47579159617122
 30
0.0
  0
VERTEX
  5
450
  8
LAYER_1
 10
75.59366214293738
 20
-16.51523596122027
 30
0.0
  0
VERTEX
  5
451
  8
LAYER_1
 10
75.57416488287163
 20
-16.55505574840947
 30
0.0
  0
VERTEX
  5
452
  8
LAYER_1
 10
75.55497106126171
 20
-16.59524687734923
 30
0.0
  0
VERTEX
  5
453
  8
LAYER_1
 10
75.53608331655505
 20
-16.63580526764999
 30
0.0
  0
VERTEX
  5
454
  8
LAYER_1
 10
75.51750428719899
 20
-16.67672683892217
 30
0.0
  0
VERTEX
  5
455
  8
LAYER_1
 10
75.49923661164098
 20
-16.71800751077621
 30
0.0
  0
VERTEX
  5
456
  8
LAYER_1
 10
75.48128292832837
 20
-16.75964320282252
 30
0.0
  0
VERTEX
  5
457
  8
LAYER_1
 10
75.46364587570858
 20
-16.80162983467154
 30
0.0
  0
VERTEX
  5
458
  8
LAYER_1
 10
75.44632809222898
 20
-16.8439633259337
 30
0.0
  0
VERTEX
  5
459
  8
LAYER_1
 10
75.42933221633697
 20
-16.88663959621941
 30
0.0
  0
VERTEX
  5
45A
  8
LAYER_1
 10
75.41266088647996
 20
-16.92965456513912
 30
0.0
  0
VERTEX
  5
45B
  8
LAYER_1
 10
75.3963167411053
 20
-16.97300415230323
 30
0.0
  0
VERTEX
  5
45C
  8
LAYER_1
 10
75.38030241866042
 20
-17.01668427732219
 30
0.0
  0
VERTEX
  5
45D
  8
LAYER_1
 10
75.36462055759273
 20
-17.06069085980642
 30
0.0
  0
VERTEX
  5
45E
  8
LAYER_1
 10
75.34927379634958
 20
-17.10501981936635
 30
0.0
  0
VERTEX
  5
45F
  8
LAYER_1
 10
75.3342647733784
 20
-17.14966707561239
 30
0.0
  0
VERTEX
  5
460
  8
LAYER_1
 10
75.31959612712654
 20
-17.19462854815499
 30
0.0
  0
VERTEX
  5
461
  8
LAYER_1
 10
75.30527049604144
 20
-17.23990015660457
 30
0.0
  0
VERTEX
  5
462
  8
LAYER_1
 10
75.29129051857046
 20
-17.28547782057155
 30
0.0
  0
VERTEX
  5
463
  8
LAYER_1
 10
75.27765883316101
 20
-17.33135745966637
 30
0.0
  0
VERTEX
  5
464
  8
LAYER_1
 10
75.26437807826045
 20
-17.37753499349945
 30
0.0
  0
VERTEX
  5
465
  8
LAYER_1
 10
75.25145089231623
 20
-17.42400634168121
 30
0.0
  0
VERTEX
  5
466
  8
LAYER_1
 10
75.2388799137757
 20
-17.47076742382208
 30
0.0
  0
VERTEX
  5
467
  8
LAYER_1
 10
75.22666778108626
 20
-17.51781415953251
 30
0.0
  0
VERTEX
  5
468
  8
LAYER_1
 10
75.2148171326953
 20
-17.56514246842289
 30
0.0
  0
VERTEX
  5
469
  8
LAYER_1
 10
75.20333060705023
 20
-17.61274827010368
 30
0.0
  0
VERTEX
  5
46A
  8
LAYER_1
 10
75.19221084259844
 20
-17.66062748418528
 30
0.0
  0
VERTEX
  5
46B
  8
LAYER_1
 10
75.18146047778731
 20
-17.70877603027814
 30
0.0
  0
VERTEX
  5
46C
  8
LAYER_1
 10
75.17108215106424
 20
-17.75718982799268
 30
0.0
  0
VERTEX
  5
46D
  8
LAYER_1
 10
75.16107850087661
 20
-17.80586479693932
 30
0.0
  0
VERTEX
  5
46E
  8
LAYER_1
 10
75.15145216567183
 20
-17.85479685672849
 30
0.0
  0
VERTEX
  5
46F
  8
LAYER_1
 10
75.14220578389728
 20
-17.90398192697063
 30
0.0
  0
VERTEX
  5
470
  8
LAYER_1
 10
75.13334199400038
 20
-17.95341592727615
 30
0.0
  0
VERTEX
  5
471
  8
LAYER_1
 10
75.1248634344285
 20
-18.00309477725548
 30
0.0
  0
VERTEX
  5
472
  8
LAYER_1
 10
75.11677274362901
 20
-18.05301439651906
 30
0.0
  0
VERTEX
  5
473
  8
LAYER_1
 10
75.10907256004936
 20
-18.10317070467731
 30
0.0
  0
VERTEX
  5
474
  8
LAYER_1
 10
75.10176552213692
 20
-18.15355962134065
 30
0.0
  0
VERTEX
  5
475
  8
LAYER_1
 10
75.09485426833905
 20
-18.20417706611952
 30
0.0
  0
VERTEX
  5
476
  8
LAYER_1
 10
75.08834143710317
 20
-18.25501895862433
 30
0.0
  0
VERTEX
  5
477
  8
LAYER_1
 10
75.08222966687669
 20
-18.30608121846553
 30
0.0
  0
VERTEX
  5
478
  8
LAYER_1
 10
75.07652159610697
 20
-18.35735976525352
 30
0.0
  0
VERTEX
  5
479
  8
LAYER_1
 10
75.07121986324141
 20
-18.40885051859875
 30
0.0
  0
VERTEX
  5
47A
  8
LAYER_1
 10
75.06632710672741
 20
-18.46054939811164
 30
0.0
  0
VERTEX
  5
47B
  8
LAYER_1
 10
75.06184596501238
 20
-18.51245232340262
 30
0.0
  0
VERTEX
  5
47C
  8
LAYER_1
 10
75.0577790765437
 20
-18.56455521408211
 30
0.0
  0
VERTEX
  5
47D
  8
LAYER_1
 10
75.05412907976873
 20
-18.61685398976054
 30
0.0
  0
VERTEX
  5
47E
  8
LAYER_1
 10
75.0508986131349
 20
-18.66934457004833
 30
0.0
  0
VERTEX
  5
47F
  8
LAYER_1
 10
75.04809031508961
 20
-18.72202287455593
 30
0.0
  0
VERTEX
  5
480
  8
LAYER_1
 10
75.04570682408021
 20
-18.77488482289375
 30
0.0
  0
VERTEX
  5
481
  8
LAYER_1
 10
75.04375077855416
 20
-18.82792633467221
 30
0.0
  0
VERTEX
  5
482
  8
LAYER_1
 10
75.0422248169588
 20
-18.88114332950175
 30
0.0
  0
VERTEX
  5
483
  8
LAYER_1
 10
75.04113157774151
 20
-18.93453172699281
 30
0.0
  0
VERTEX
  5
484
  8
LAYER_1
 10
75.0404736993497
 20
-18.98808744675578
 30
0.0
  0
VERTEX
  5
485
  8
LAYER_1
 10
75.0402538202308
 20
-19.04180640840113
 30
0.0
  0
VERTEX
  5
486
  8
LAYER_1
 10
75.0404736993497
 20
-19.09552537004647
 30
0.0
  0
VERTEX
  5
487
  8
LAYER_1
 10
75.04113157774151
 20
-19.14908108980945
 30
0.0
  0
VERTEX
  5
488
  8
LAYER_1
 10
75.0422248169588
 20
-19.2024694873005
 30
0.0
  0
VERTEX
  5
489
  8
LAYER_1
 10
75.04375077855416
 20
-19.25568648213005
 30
0.0
  0
VERTEX
  5
48A
  8
LAYER_1
 10
75.04570682408021
 20
-19.30872799390851
 30
0.0
  0
VERTEX
  5
48B
  8
LAYER_1
 10
75.04809031508961
 20
-19.36158994224633
 30
0.0
  0
VERTEX
  5
48C
  8
LAYER_1
 10
75.0508986131349
 20
-19.41426824675393
 30
0.0
  0
VERTEX
  5
48D
  8
LAYER_1
 10
75.05412907976873
 20
-19.46675882704172
 30
0.0
  0
VERTEX
  5
48E
  8
LAYER_1
 10
75.0577790765437
 20
-19.51905760272015
 30
0.0
  0
VERTEX
  5
48F
  8
LAYER_1
 10
75.06184596501238
 20
-19.57116049339964
 30
0.0
  0
VERTEX
  5
490
  8
LAYER_1
 10
75.06632710672741
 20
-19.62306341869062
 30
0.0
  0
VERTEX
  5
491
  8
LAYER_1
 10
75.07121986324141
 20
-19.6747622982035
 30
0.0
  0
VERTEX
  5
492
  8
LAYER_1
 10
75.07652159610697
 20
-19.72625305154874
 30
0.0
  0
VERTEX
  5
493
  8
LAYER_1
 10
75.08222966687669
 20
-19.77753159833673
 30
0.0
  0
VERTEX
  5
494
  8
LAYER_1
 10
75.08834143710317
 20
-19.82859385817792
 30
0.0
  0
VERTEX
  5
495
  8
LAYER_1
 10
75.09485426833905
 20
-19.87943575068274
 30
0.0
  0
VERTEX
  5
496
  8
LAYER_1
 10
75.10176552213692
 20
-19.93005319546161
 30
0.0
  0
VERTEX
  5
497
  8
LAYER_1
 10
75.10907256004936
 20
-19.98044211212495
 30
0.0
  0
VERTEX
  5
498
  8
LAYER_1
 10
75.11677274362901
 20
-20.0305984202832
 30
0.0
  0
VERTEX
  5
499
  8
LAYER_1
 10
75.1248634344285
 20
-20.08051803954677
 30
0.0
  0
VERTEX
  5
49A
  8
LAYER_1
 10
75.13334199400038
 20
-20.13019688952611
 30
0.0
  0
VERTEX
  5
49B
  8
LAYER_1
 10
75.14220578389728
 20
-20.17963088983163
 30
0.0
  0
VERTEX
  5
49C
  8
LAYER_1
 10
75.15145216567183
 20
-20.22881596007376
 30
0.0
  0
VERTEX
  5
49D
  8
LAYER_1
 10
75.16107850087661
 20
-20.27774801986294
 30
0.0
  0
VERTEX
  5
49E
  8
LAYER_1
 10
75.17108215106424
 20
-20.32642298880958
 30
0.0
  0
VERTEX
  5
49F
  8
LAYER_1
 10
75.18146047778731
 20
-20.37483678652411
 30
0.0
  0
VERTEX
  5
4A0
  8
LAYER_1
 10
75.19221084259844
 20
-20.42298533261697
 30
0.0
  0
VERTEX
  5
4A1
  8
LAYER_1
 10
75.20333060705023
 20
-20.47086454669858
 30
0.0
  0
VERTEX
  5
4A2
  8
LAYER_1
 10
75.2148171326953
 20
-20.51847034837937
 30
0.0
  0
VERTEX
  5
4A3
  8
LAYER_1
 10
75.22666778108626
 20
-20.56579865726975
 30
0.0
  0
VERTEX
  5
4A4
  8
LAYER_1
 10
75.2388799137757
 20
-20.61284539298018
 30
0.0
  0
VERTEX
  5
4A5
  8
LAYER_1
 10
75.25145089231623
 20
-20.65960647512105
 30
0.0
  0
VERTEX
  5
4A6
  8
LAYER_1
 10
75.26437807826045
 20
-20.70607782330281
 30
0.0
  0
VERTEX
  5
4A7
  8
LAYER_1
 10
75.27765883316101
 20
-20.75225535713589
 30
0.0
  0
VERTEX
  5
4A8
  8
LAYER_1
 10
75.29129051857046
 20
-20.79813499623071
 30
0.0
  0
VERTEX
  5
4A9
  8
LAYER_1
 10
75.30527049604144
 20
-20.84371266019769
 30
0.0
  0
VERTEX
  5
4AA
  8
LAYER_1
 10
75.31959612712654
 20
-20.88898426864727
 30
0.0
  0
VERTEX
  5
4AB
  8
LAYER_1
 10
75.3342647733784
 20
-20.93394574118987
 30
0.0
  0
VERTEX
  5
4AC
  8
LAYER_1
 10
75.34927379634958
 20
-20.97859299743591
 30
0.0
  0
VERTEX
  5
4AD
  8
LAYER_1
 10
75.36462055759273
 20
-21.02292195699584
 30
0.0
  0
VERTEX
  5
4AE
  8
LAYER_1
 10
75.38030241866042
 20
-21.06692853948007
 30
0.0
  0
VERTEX
  5
4AF
  8
LAYER_1
 10
75.3963167411053
 20
-21.11060866449903
 30
0.0
  0
VERTEX
  5
4B0
  8
LAYER_1
 10
75.41266088647996
 20
-21.15395825166314
 30
0.0
  0
VERTEX
  5
4B1
  8
LAYER_1
 10
75.42933221633697
 20
-21.19697322058284
 30
0.0
  0
VERTEX
  5
4B2
  8
LAYER_1
 10
75.44632809222898
 20
-21.23964949086856
 30
0.0
  0
VERTEX
  5
4B3
  8
LAYER_1
 10
75.46364587570858
 20
-21.28198298213071
 30
0.0
  0
VERTEX
  5
4B4
  8
LAYER_1
 10
75.48128292832837
 20
-21.32396961397973
 30
0.0
  0
VERTEX
  5
4B5
  8
LAYER_1
 10
75.49923661164098
 20
-21.36560530602605
 30
0.0
  0
VERTEX
  5
4B6
  8
LAYER_1
 10
75.51750428719899
 20
-21.40688597788008
 30
0.0
  0
VERTEX
  5
4B7
  8
LAYER_1
 10
75.53608331655505
 20
-21.44780754915227
 30
0.0
  0
VERTEX
  5
4B8
  8
LAYER_1
 10
75.55497106126171
 20
-21.48836593945303
 30
0.0
  0
VERTEX
  5
4B9
  8
LAYER_1
 10
75.57416488287163
 20
-21.52855706839279
 30
0.0
  0
VERTEX
  5
4BA
  8
LAYER_1
 10
75.59366214293738
 20
-21.56837685558199
 30
0.0
  0
VERTEX
  5
4BB
  8
LAYER_1
 10
75.61346020301158
 20
-21.60782122063104
 30
0.0
  0
VERTEX
  5
4BC
  8
LAYER_1
 10
75.63355642464683
 20
-21.64688608315038
 30
0.0
  0
VERTEX
  5
4BD
  8
LAYER_1
 10
75.65394816939576
 20
-21.68556736275043
 30
0.0
  0
VERTEX
  5
4BE
  8
LAYER_1
 10
75.67463279881096
 20
-21.72386097904162
 30
0.0
  0
VERTEX
  5
4BF
  8
LAYER_1
 10
75.69560767444504
 20
-21.76176285163437
 30
0.0
  0
VERTEX
  5
4C0
  8
LAYER_1
 10
75.71687015785061
 20
-21.79926890013912
 30
0.0
  0
VERTEX
  5
4C1
  8
LAYER_1
 10
75.73841761058026
 20
-21.83637504416629
 30
0.0
  0
VERTEX
  5
4C2
  8
LAYER_1
 10
75.76024739418662
 20
-21.87307720332631
 30
0.0
  0
VERTEX
  5
4C3
  8
LAYER_1
 10
75.78235687022227
 20
-21.9093712972296
 30
0.0
  0
VERTEX
  5
4C4
  8
LAYER_1
 10
75.80474340023984
 20
-21.9452532454866
 30
0.0
  0
VERTEX
  5
4C5
  8
LAYER_1
 10
75.82740434579195
 20
-21.98071896770773
 30
0.0
  0
VERTEX
  5
4C6
  8
LAYER_1
 10
75.85033706843117
 20
-22.01576438350341
 30
0.0
  0
VERTEX
  5
4C7
  8
LAYER_1
 10
75.87353892971014
 20
-22.05038541248408
 30
0.0
  0
VERTEX
  5
4C8
  8
LAYER_1
 10
75.89700729118144
 20
-22.08457797426016
 30
0.0
  0
VERTEX
  5
4C9
  8
LAYER_1
 10
75.9207395143977
 20
-22.11833798844208
 30
0.0
  0
VERTEX
  5
4CA
  8
LAYER_1
 10
75.94473296091151
 20
-22.15166137464027
 30
0.0
  0
VERTEX
  5
4CB
  8
LAYER_1
 10
75.96898499227548
 20
-22.18454405246515
 30
0.0
  0
VERTEX
  5
4CC
  8
LAYER_1
 10
75.99349297004223
 20
-22.21698194152715
 30
0.0
  0
VERTEX
  5
4CD
  8
LAYER_1
 10
76.01825425576435
 20
-22.2489709614367
 30
0.0
  0
VERTEX
  5
4CE
  8
LAYER_1
 10
76.04326621099445
 20
-22.28050703180422
 30
0.0
  0
VERTEX
  5
4CF
  8
LAYER_1
 10
76.06852619728514
 20
-22.31158607224015
 30
0.0
  0
VERTEX
  5
4D0
  8
LAYER_1
 10
76.09403157618904
 20
-22.3422040023549
 30
0.0
  0
VERTEX
  5
4D1
  8
LAYER_1
 10
76.11977970925875
 20
-22.37235674175891
 30
0.0
  0
VERTEX
  5
4D2
  8
LAYER_1
 10
76.14576795804687
 20
-22.40204021006261
 30
0.0
  0
VERTEX
  5
4D3
  8
LAYER_1
 10
76.17199368410601
 20
-22.43125032687642
 30
0.0
  0
VERTEX
  5
4D4
  8
LAYER_1
 10
76.19845424898877
 20
-22.45998301181077
 30
0.0
  0
VERTEX
  5
4D5
  8
LAYER_1
 10
76.22514701424777
 20
-22.48823418447608
 30
0.0
  0
VERTEX
  5
4D6
  8
LAYER_1
 10
76.25206934143561
 20
-22.51599976448279
 30
0.0
  0
VERTEX
  5
4D7
  8
LAYER_1
 10
76.27921859210491
 20
-22.54327567144132
 30
0.0
  0
VERTEX
  5
4D8
  8
LAYER_1
 10
76.30659212780826
 20
-22.57005782496209
 30
0.0
  0
VERTEX
  5
4D9
  8
LAYER_1
 10
76.33418731009826
 20
-22.59634214465554
 30
0.0
  0
VERTEX
  5
4DA
  8
LAYER_1
 10
76.36200150052753
 20
-22.62212455013209
 30
0.0
  0
VERTEX
  5
4DB
  8
LAYER_1
 10
76.39003206064869
 20
-22.64740096100217
 30
0.0
  0
VERTEX
  5
4DC
  8
LAYER_1
 10
76.41827635201433
 20
-22.67216729687621
 30
0.0
  0
VERTEX
  5
4DD
  8
LAYER_1
 10
76.44673173617707
 20
-22.69641947736463
 30
0.0
  0
VERTEX
  5
4DE
  8
LAYER_1
 10
76.47539557468951
 20
-22.72015342207786
 30
0.0
  0
VERTEX
  5
4DF
  8
LAYER_1
 10
76.50426522910423
 20
-22.74336505062633
 30
0.0
  0
VERTEX
  5
4E0
  8
LAYER_1
 10
76.53333806097389
 20
-22.76605028262047
 30
0.0
  0
VERTEX
  5
4E1
  8
LAYER_1
 10
76.56261143185105
 20
-22.7882050376707
 30
0.0
  0
VERTEX
  5
4E2
  8
LAYER_1
 10
76.59208270328836
 20
-22.80982523538745
 30
0.0
  0
VERTEX
  5
4E3
  8
LAYER_1
 10
76.62174923683838
 20
-22.83090679538115
 30
0.0
  0
VERTEX
  5
4E4
  8
LAYER_1
 10
76.65160839405377
 20
-22.85144563726223
 30
0.0
  0
VERTEX
  5
4E5
  8
LAYER_1
 10
76.68165753648708
 20
-22.8714376806411
 30
0.0
  0
VERTEX
  5
4E6
  8
LAYER_1
 10
76.71189402569095
 20
-22.8908788451282
 30
0.0
  0
VERTEX
  5
4E7
  8
LAYER_1
 10
76.74231522321799
 20
-22.90976505033396
 30
0.0
  0
VERTEX
  5
4E8
  8
LAYER_1
 10
76.7729184906208
 20
-22.92809221586881
 30
0.0
  0
VERTEX
  5
4E9
  8
LAYER_1
 10
76.80370118945198
 20
-22.94585626134316
 30
0.0
  0
VERTEX
  5
4EA
  8
LAYER_1
 10
76.83466068126415
 20
-22.96305310636745
 30
0.0
  0
VERTEX
  5
4EB
  8
LAYER_1
 10
76.8657943276099
 20
-22.97967867055211
 30
0.0
  0
VERTEX
  5
4EC
  8
LAYER_1
 10
76.89709949004188
 20
-22.99572887350757
 30
0.0
  0
VERTEX
  5
4ED
  8
LAYER_1
 10
76.92857353011263
 20
-23.01119963484424
 30
0.0
  0
VERTEX
  5
4EE
  8
LAYER_1
 10
76.9602138093748
 20
-23.02608687417256
 30
0.0
  0
VERTEX
  5
4EF
  8
LAYER_1
 10
76.992017689381
 20
-23.04038651110294
 30
0.0
  0
VERTEX
  5
4F0
  8
LAYER_1
 10
77.02398253168381
 20
-23.05409446524584
 30
0.0
  0
VERTEX
  5
4F1
  8
LAYER_1
 10
77.05610569783587
 20
-23.06720665621167
 30
0.0
  0
VERTEX
  5
4F2
  8
LAYER_1
 10
77.08838454938976
 20
-23.07971900361085
 30
0.0
  0
VERTEX
  5
4F3
  8
LAYER_1
 10
77.12081644789811
 20
-23.09162742705381
 30
0.0
  0
VERTEX
  5
4F4
  8
LAYER_1
 10
77.1533987549135
 20
-23.10292784615098
 30
0.0
  0
VERTEX
  5
4F5
  8
LAYER_1
 10
77.18612883198855
 20
-23.11361618051279
 30
0.0
  0
VERTEX
  5
4F6
  8
LAYER_1
 10
77.21900404067587
 20
-23.12368834974966
 30
0.0
  0
VERTEX
  5
4F7
  8
LAYER_1
 10
77.25202174252809
 20
-23.13314027347203
 30
0.0
  0
VERTEX
  5
4F8
  8
LAYER_1
 10
77.28517929909776
 20
-23.14196787129032
 30
0.0
  0
VERTEX
  5
4F9
  8
LAYER_1
 10
77.31847407193753
 20
-23.15016706281495
 30
0.0
  0
VERTEX
  5
4FA
  8
LAYER_1
 10
77.3519034226
 20
-23.15773376765636
 30
0.0
  0
VERTEX
  5
4FB
  8
LAYER_1
 10
77.38546471263777
 20
-23.16466390542497
 30
0.0
  0
VERTEX
  5
4FC
  8
LAYER_1
 10
77.41915530360347
 20
-23.1709533957312
 30
0.0
  0
VERTEX
  5
4FD
  8
LAYER_1
 10
77.45297255704966
 20
-23.1765981581855
 30
0.0
  0
VERTEX
  5
4FE
  8
LAYER_1
 10
77.48691383452898
 20
-23.18159411239828
 30
0.0
  0
VERTEX
  5
4FF
  8
LAYER_1
 10
77.52097649759403
 20
-23.18593717797997
 30
0.0
  0
VERTEX
  5
500
  8
LAYER_1
 10
77.55515790779744
 20
-23.18962327454099
 30
0.0
  0
VERTEX
  5
501
  8
LAYER_1
 10
77.5894554266918
 20
-23.19264832169178
 30
0.0
  0
VERTEX
  5
502
  8
LAYER_1
 10
77.62386641582971
 20
-23.19500823904276
 30
0.0
  0
VERTEX
  5
503
  8
LAYER_1
 10
77.65838823676377
 20
-23.19669894620436
 30
0.0
  0
VERTEX
  5
504
  8
LAYER_1
 10
77.69301825104661
 20
-23.19771636278701
 30
0.0
  0
VERTEX
  5
505
  8
LAYER_1
 10
77.7277538202308
 20
-23.19805640840113
 30
0.0
  0
VERTEX
  5
506
  8
LAYER_1
 10
77.762489389415
 20
-23.19771636278701
 30
0.0
  0
VERTEX
  5
507
  8
LAYER_1
 10
77.79711940369783
 20
-23.19669894620436
 30
0.0
  0
VERTEX
  5
508
  8
LAYER_1
 10
77.8316412246319
 20
-23.19500823904276
 30
0.0
  0
VERTEX
  5
509
  8
LAYER_1
 10
77.86605221376979
 20
-23.19264832169178
 30
0.0
  0
VERTEX
  5
50A
  8
LAYER_1
 10
77.90034973266414
 20
-23.18962327454099
 30
0.0
  0
VERTEX
  5
50B
  8
LAYER_1
 10
77.93453114286754
 20
-23.18593717797997
 30
0.0
  0
VERTEX
  5
50C
  8
LAYER_1
 10
77.9685938059326
 20
-23.18159411239828
 30
0.0
  0
VERTEX
  5
50D
  8
LAYER_1
 10
78.00253508341193
 20
-23.1765981581855
 30
0.0
  0
VERTEX
  5
50E
  8
LAYER_1
 10
78.03635233685813
 20
-23.1709533957312
 30
0.0
  0
VERTEX
  5
50F
  8
LAYER_1
 10
78.07004292782382
 20
-23.16466390542497
 30
0.0
  0
VERTEX
  5
510
  8
LAYER_1
 10
78.10360421786159
 20
-23.15773376765636
 30
0.0
  0
VERTEX
  5
511
  8
LAYER_1
 10
78.13703356852406
 20
-23.15016706281495
 30
0.0
  0
VERTEX
  5
512
  8
LAYER_1
 10
78.17032834136384
 20
-23.14196787129032
 30
0.0
  0
VERTEX
  5
513
  8
LAYER_1
 10
78.20348589793352
 20
-23.13314027347203
 30
0.0
  0
VERTEX
  5
514
  8
LAYER_1
 10
78.2365035997857
 20
-23.12368834974966
 30
0.0
  0
VERTEX
  5
515
  8
LAYER_1
 10
78.26937880847304
 20
-23.11361618051279
 30
0.0
  0
VERTEX
  5
516
  8
LAYER_1
 10
78.30210888554808
 20
-23.10292784615098
 30
0.0
  0
VERTEX
  5
517
  8
LAYER_1
 10
78.33469119256348
 20
-23.09162742705381
 30
0.0
  0
VERTEX
  5
518
  8
LAYER_1
 10
78.36712309107183
 20
-23.07971900361085
 30
0.0
  0
VERTEX
  5
519
  8
LAYER_1
 10
78.39940194262572
 20
-23.06720665621167
 30
0.0
  0
VERTEX
  5
51A
  8
LAYER_1
 10
78.43152510877776
 20
-23.05409446524584
 30
0.0
  0
VERTEX
  5
51B
  8
LAYER_1
 10
78.46348995108058
 20
-23.04038651110294
 30
0.0
  0
VERTEX
  5
51C
  8
LAYER_1
 10
78.49529383108677
 20
-23.02608687417256
 30
0.0
  0
VERTEX
  5
51D
  8
LAYER_1
 10
78.52693411034895
 20
-23.01119963484424
 30
0.0
  0
VERTEX
  5
51E
  8
LAYER_1
 10
78.5584081504197
 20
-22.99572887350757
 30
0.0
  0
VERTEX
  5
51F
  8
LAYER_1
 10
78.58971331285167
 20
-22.97967867055211
 30
0.0
  0
VERTEX
  5
520
  8
LAYER_1
 10
78.62084695919742
 20
-22.96305310636745
 30
0.0
  0
VERTEX
  5
521
  8
LAYER_1
 10
78.65180645100959
 20
-22.94585626134316
 30
0.0
  0
VERTEX
  5
522
  8
LAYER_1
 10
78.68258914984078
 20
-22.92809221586881
 30
0.0
  0
VERTEX
  5
523
  8
LAYER_1
 10
78.71319241724359
 20
-22.90976505033396
 30
0.0
  0
VERTEX
  5
524
  8
LAYER_1
 10
78.74361361477062
 20
-22.8908788451282
 30
0.0
  0
VERTEX
  5
525
  8
LAYER_1
 10
78.7738501039745
 20
-22.8714376806411
 30
0.0
  0
VERTEX
  5
526
  8
LAYER_1
 10
78.80389924640781
 20
-22.85144563726223
 30
0.0
  0
VERTEX
  5
527
  8
LAYER_1
 10
78.8337584036232
 20
-22.83090679538115
 30
0.0
  0
VERTEX
  5
528
  8
LAYER_1
 10
78.86342493717322
 20
-22.80982523538745
 30
0.0
  0
VERTEX
  5
529
  8
LAYER_1
 10
78.89289620861052
 20
-22.7882050376707
 30
0.0
  0
VERTEX
  5
52A
  8
LAYER_1
 10
78.92216957948769
 20
-22.76605028262047
 30
0.0
  0
VERTEX
  5
52B
  8
LAYER_1
 10
78.95124241135734
 20
-22.74336505062633
 30
0.0
  0
VERTEX
  5
52C
  8
LAYER_1
 10
78.98011206577206
 20
-22.72015342207786
 30
0.0
  0
VERTEX
  5
52D
  8
LAYER_1
 10
79.0087759042845
 20
-22.69641947736463
 30
0.0
  0
VERTEX
  5
52E
  8
LAYER_1
 10
79.03723128844724
 20
-22.67216729687621
 30
0.0
  0
VERTEX
  5
52F
  8
LAYER_1
 10
79.06547557981288
 20
-22.64740096100217
 30
0.0
  0
VERTEX
  5
530
  8
LAYER_1
 10
79.09350613993405
 20
-22.62212455013209
 30
0.0
  0
VERTEX
  5
531
  8
LAYER_1
 10
79.12132033036332
 20
-22.59634214465554
 30
0.0
  0
VERTEX
  5
532
  8
LAYER_1
 10
79.14891551265332
 20
-22.57005782496209
 30
0.0
  0
VERTEX
  5
533
  8
LAYER_1
 10
79.17628904835667
 20
-22.54327567144132
 30
0.0
  0
VERTEX
  5
534
  8
LAYER_1
 10
79.20343829902596
 20
-22.51599976448279
 30
0.0
  0
VERTEX
  5
535
  8
LAYER_1
 10
79.23036062621382
 20
-22.48823418447608
 30
0.0
  0
VERTEX
  5
536
  8
LAYER_1
 10
79.25705339147284
 20
-22.45998301181077
 30
0.0
  0
VERTEX
  5
537
  8
LAYER_1
 10
79.28351395635559
 20
-22.43125032687642
 30
0.0
  0
VERTEX
  5
538
  8
LAYER_1
 10
79.30973968241473
 20
-22.40204021006261
 30
0.0
  0
VERTEX
  5
539
  8
LAYER_1
 10
79.33572793120285
 20
-22.37235674175891
 30
0.0
  0
VERTEX
  5
53A
  8
LAYER_1
 10
79.36147606427257
 20
-22.3422040023549
 30
0.0
  0
VERTEX
  5
53B
  8
LAYER_1
 10
79.38698144317647
 20
-22.31158607224015
 30
0.0
  0
VERTEX
  5
53C
  8
LAYER_1
 10
79.41224142946716
 20
-22.28050703180422
 30
0.0
  0
VERTEX
  5
53D
  8
LAYER_1
 10
79.43725338469726
 20
-22.2489709614367
 30
0.0
  0
VERTEX
  5
53E
  8
LAYER_1
 10
79.46201467041938
 20
-22.21698194152715
 30
0.0
  0
VERTEX
  5
53F
  8
LAYER_1
 10
79.48652264818612
 20
-22.18454405246515
 30
0.0
  0
VERTEX
  5
540
  8
LAYER_1
 10
79.5107746795501
 20
-22.15166137464027
 30
0.0
  0
VERTEX
  5
541
  8
LAYER_1
 10
79.53476812606391
 20
-22.11833798844208
 30
0.0
  0
VERTEX
  5
542
  8
LAYER_1
 10
79.55850034928017
 20
-22.08457797426016
 30
0.0
  0
VERTEX
  5
543
  8
LAYER_1
 10
79.58196871075147
 20
-22.05038541248408
 30
0.0
  0
VERTEX
  5
544
  8
LAYER_1
 10
79.60517057203043
 20
-22.01576438350341
 30
0.0
  0
VERTEX
  5
545
  8
LAYER_1
 10
79.62810329466964
 20
-21.98071896770773
 30
0.0
  0
VERTEX
  5
546
  8
LAYER_1
 10
79.65076424022173
 20
-21.9452532454866
 30
0.0
  0
VERTEX
  5
547
  8
LAYER_1
 10
79.6731507702393
 20
-21.9093712972296
 30
0.0
  0
VERTEX
  5
548
  8
LAYER_1
 10
79.69526024627496
 20
-21.87307720332631
 30
0.0
  0
VERTEX
  5
549
  8
LAYER_1
 10
79.71709002988132
 20
-21.83637504416629
 30
0.0
  0
VERTEX
  5
54A
  8
LAYER_1
 10
79.73863748261097
 20
-21.79926890013912
 30
0.0
  0
VERTEX
  5
54B
  8
LAYER_1
 10
79.75989996601653
 20
-21.76176285163437
 30
0.0
  0
VERTEX
  5
54C
  8
LAYER_1
 10
79.78087484165061
 20
-21.72386097904162
 30
0.0
  0
VERTEX
  5
54D
  8
LAYER_1
 10
79.80155947106581
 20
-21.68556736275043
 30
0.0
  0
VERTEX
  5
54E
  8
LAYER_1
 10
79.82195121581475
 20
-21.64688608315038
 30
0.0
  0
VERTEX
  5
54F
  8
LAYER_1
 10
79.84204743744999
 20
-21.60782122063104
 30
0.0
  0
VERTEX
  5
550
  8
LAYER_1
 10
79.8618454975242
 20
-21.56837685558199
 30
0.0
  0
VERTEX
  5
551
  8
LAYER_1
 10
79.88134275758995
 20
-21.52855706839279
 30
0.0
  0
VERTEX
  5
552
  8
LAYER_1
 10
79.90053657919987
 20
-21.48836593945303
 30
0.0
  0
VERTEX
  5
553
  8
LAYER_1
 10
79.91942432390653
 20
-21.44780754915227
 30
0.0
  0
VERTEX
  5
554
  8
LAYER_1
 10
79.93800335326259
 20
-21.40688597788008
 30
0.0
  0
VERTEX
  5
555
  8
LAYER_1
 10
79.9562710288206
 20
-21.36560530602605
 30
0.0
  0
VERTEX
  5
556
  8
LAYER_1
 10
79.9742247121332
 20
-21.32396961397973
 30
0.0
  0
VERTEX
  5
557
  8
LAYER_1
 10
79.991861764753
 20
-21.28198298213071
 30
0.0
  0
VERTEX
  5
558
  8
LAYER_1
 10
80.0091795482326
 20
-21.23964949086856
 30
0.0
  0
VERTEX
  5
559
  8
LAYER_1
 10
80.0261754241246
 20
-21.19697322058284
 30
0.0
  0
VERTEX
  5
55A
  8
LAYER_1
 10
80.04284675398162
 20
-21.15395825166314
 30
0.0
  0
VERTEX
  5
55B
  8
LAYER_1
 10
80.05919089935628
 20
-21.11060866449903
 30
0.0
  0
VERTEX
  5
55C
  8
LAYER_1
 10
80.07520522180116
 20
-21.06692853948007
 30
0.0
  0
VERTEX
  5
55D
  8
LAYER_1
 10
80.09088708286885
 20
-21.02292195699584
 30
0.0
  0
VERTEX
  5
55E
  8
LAYER_1
 10
80.106233844112
 20
-20.97859299743591
 30
0.0
  0
VERTEX
  5
55F
  8
LAYER_1
 10
80.12124286708318
 20
-20.93394574118987
 30
0.0
  0
VERTEX
  5
560
  8
LAYER_1
 10
80.13591151333503
 20
-20.88898426864727
 30
0.0
  0
VERTEX
  5
561
  8
LAYER_1
 10
80.15023714442015
 20
-20.84371266019769
 30
0.0
  0
VERTEX
  5
562
  8
LAYER_1
 10
80.16421712189113
 20
-20.79813499623071
 30
0.0
  0
VERTEX
  5
563
  8
LAYER_1
 10
80.17784880730058
 20
-20.75225535713589
 30
0.0
  0
VERTEX
  5
564
  8
LAYER_1
 10
80.19112956220113
 20
-20.70607782330281
 30
0.0
  0
VERTEX
  5
565
  8
LAYER_1
 10
80.20405674814536
 20
-20.65960647512105
 30
0.0
  0
VERTEX
  5
566
  8
LAYER_1
 10
80.2166277266859
 20
-20.61284539298018
 30
0.0
  0
VERTEX
  5
567
  8
LAYER_1
 10
80.22883985937533
 20
-20.56579865726975
 30
0.0
  0
VERTEX
  5
568
  8
LAYER_1
 10
80.24069050776627
 20
-20.51847034837937
 30
0.0
  0
VERTEX
  5
569
  8
LAYER_1
 10
80.25217703341136
 20
-20.47086454669858
 30
0.0
  0
VERTEX
  5
56A
  8
LAYER_1
 10
80.26329679786316
 20
-20.42298533261697
 30
0.0
  0
VERTEX
  5
56B
  8
LAYER_1
 10
80.2740471626743
 20
-20.37483678652411
 30
0.0
  0
VERTEX
  5
56C
  8
LAYER_1
 10
80.28442548939736
 20
-20.32642298880958
 30
0.0
  0
VERTEX
  5
56D
  8
LAYER_1
 10
80.29442913958499
 20
-20.27774801986294
 30
0.0
  0
VERTEX
  5
56E
  8
LAYER_1
 10
80.30405547478978
 20
-20.22881596007376
 30
0.0
  0
VERTEX
  5
56F
  8
LAYER_1
 10
80.31330185656432
 20
-20.17963088983163
 30
0.0
  0
VERTEX
  5
570
  8
LAYER_1
 10
80.32216564646123
 20
-20.13019688952611
 30
0.0
  0
VERTEX
  5
571
  8
LAYER_1
 10
80.3306442060331
 20
-20.08051803954677
 30
0.0
  0
VERTEX
  5
572
  8
LAYER_1
 10
80.33873489683259
 20
-20.0305984202832
 30
0.0
  0
VERTEX
  5
573
  8
LAYER_1
 10
80.34643508041225
 20
-19.98044211212495
 30
0.0
  0
VERTEX
  5
574
  8
LAYER_1
 10
80.35374211832469
 20
-19.93005319546161
 30
0.0
  0
VERTEX
  5
575
  8
LAYER_1
 10
80.36065337212256
 20
-19.87943575068274
 30
0.0
  0
VERTEX
  5
576
  8
LAYER_1
 10
80.36716620335844
 20
-19.82859385817792
 30
0.0
  0
VERTEX
  5
577
  8
LAYER_1
 10
80.37327797358492
 20
-19.77753159833673
 30
0.0
  0
VERTEX
  5
578
  8
LAYER_1
 10
80.37898604435463
 20
-19.72625305154874
 30
0.0
  0
VERTEX
  5
579
  8
LAYER_1
 10
80.3842877772202
 20
-19.6747622982035
 30
0.0
  0
VERTEX
  5
57A
  8
LAYER_1
 10
80.38918053373419
 20
-19.62306341869062
 30
0.0
  0
VERTEX
  5
57B
  8
LAYER_1
 10
80.39366167544922
 20
-19.57116049339964
 30
0.0
  0
VERTEX
  5
57C
  8
LAYER_1
 10
80.39772856391791
 20
-19.51905760272015
 30
0.0
  0
VERTEX
  5
57D
  8
LAYER_1
 10
80.40137856069288
 20
-19.46675882704172
 30
0.0
  0
VERTEX
  5
57E
  8
LAYER_1
 10
80.4046090273267
 20
-19.41426824675393
 30
0.0
  0
VERTEX
  5
57F
  8
LAYER_1
 10
80.407417325372
 20
-19.36158994224633
 30
0.0
  0
VERTEX
  5
580
  8
LAYER_1
 10
80.40980081638139
 20
-19.30872799390851
 30
0.0
  0
VERTEX
  5
581
  8
LAYER_1
 10
80.41175686190745
 20
-19.25568648213005
 30
0.0
  0
VERTEX
  5
582
  8
LAYER_1
 10
80.41328282350281
 20
-19.2024694873005
 30
0.0
  0
VERTEX
  5
583
  8
LAYER_1
 10
80.4143760627201
 20
-19.14908108980945
 30
0.0
  0
VERTEX
  5
584
  8
LAYER_1
 10
80.4150339411119
 20
-19.09552537004647
 30
0.0
  0
SEQEND
  5
A12
  8
LAYER_1
  0
POLYLINE
  5
B0
  8
LAYER_1
 66
     1
 10
0.0
 20
0.0
 30
0.0
 70
     1
  0
VERTEX
  5
585
  8
LAYER_1
 10
80.4152538202308
 20
-8.04180640840113
 30
0.0
  0
VERTEX
  5
586
  8
LAYER_1
 10
80.4150339411119
 20
-7.988087446755789
 30
0.0
  0
VERTEX
  5
587
  8
LAYER_1
 10
80.4143760627201
 20
-7.934531726992807
 30
0.0
  0
VERTEX
  5
588
  8
LAYER_1
 10
80.41328282350281
 20
-7.881143329501757
 30
0.0
  0
VERTEX
  5
589
  8
LAYER_1
 10
80.41175686190745
 20
-7.827926334672212
 30
0.0
  0
VERTEX
  5
58A
  8
LAYER_1
 10
80.40980081638139
 20
-7.774884822893744
 30
0.0
  0
VERTEX
  5
58B
  8
LAYER_1
 10
80.407417325372
 20
-7.722022874555927
 30
0.0
  0
VERTEX
  5
58C
  8
LAYER_1
 10
80.4046090273267
 20
-7.669344570048333
 30
0.0
  0
VERTEX
  5
58D
  8
LAYER_1
 10
80.40137856069288
 20
-7.616853989760534
 30
0.0
  0
VERTEX
  5
58E
  8
LAYER_1
 10
80.39772856391791
 20
-7.564555214082104
 30
0.0
  0
VERTEX
  5
58F
  8
LAYER_1
 10
80.39366167544922
 20
-7.512452323402615
 30
0.0
  0
VERTEX
  5
590
  8
LAYER_1
 10
80.38918053373419
 20
-7.460549398111638
 30
0.0
  0
VERTEX
  5
591
  8
LAYER_1
 10
80.3842877772202
 20
-7.40885051859875
 30
0.0
  0
VERTEX
  5
592
  8
LAYER_1
 10
80.37898604435463
 20
-7.357359765253521
 30
0.0
  0
VERTEX
  5
593
  8
LAYER_1
 10
80.37327797358492
 20
-7.306081218465523
 30
0.0
  0
VERTEX
  5
594
  8
LAYER_1
 10
80.36716620335844
 20
-7.25501895862433
 30
0.0
  0
VERTEX
  5
595
  8
LAYER_1
 10
80.36065337212256
 20
-7.204177066119515
 30
0.0
  0
VERTEX
  5
596
  8
LAYER_1
 10
80.35374211832469
 20
-7.153559621340651
 30
0.0
  0
VERTEX
  5
597
  8
LAYER_1
 10
80.34643508041225
 20
-7.103170704677309
 30
0.0
  0
VERTEX
  5
598
  8
LAYER_1
 10
80.33873489683259
 20
-7.053014396519064
 30
0.0
  0
VERTEX
  5
599
  8
LAYER_1
 10
80.3306442060331
 20
-7.003094777255487
 30
0.0
  0
VERTEX
  5
59A
  8
LAYER_1
 10
80.32216564646123
 20
-6.953415927276152
 30
0.0
  0
VERTEX
  5
59B
  8
LAYER_1
 10
80.31330185656432
 20
-6.90398192697063
 30
0.0
  0
VERTEX
  5
59C
  8
LAYER_1
 10
80.30405547478978
 20
-6.854796856728496
 30
0.0
  0
VERTEX
  5
59D
  8
LAYER_1
 10
80.29442913958499
 20
-6.805864796939322
 30
0.0
  0
VERTEX
  5
59E
  8
LAYER_1
 10
80.28442548939736
 20
-6.757189827992681
 30
0.0
  0
VERTEX
  5
59F
  8
LAYER_1
 10
80.2740471626743
 20
-6.708776030278143
 30
0.0
  0
VERTEX
  5
5A0
  8
LAYER_1
 10
80.26329679786316
 20
-6.660627484185285
 30
0.0
  0
VERTEX
  5
5A1
  8
LAYER_1
 10
80.25217703341136
 20
-6.612748270103676
 30
0.0
  0
VERTEX
  5
5A2
  8
LAYER_1
 10
80.24069050776627
 20
-6.565142468422891
 30
0.0
  0
VERTEX
  5
5A3
  8
LAYER_1
 10
80.22883985937533
 20
-6.517814159532503
 30
0.0
  0
VERTEX
  5
5A4
  8
LAYER_1
 10
80.2166277266859
 20
-6.470767423822084
 30
0.0
  0
VERTEX
  5
5A5
  8
LAYER_1
 10
80.20405674814536
 20
-6.424006341681206
 30
0.0
  0
VERTEX
  5
5A6
  8
LAYER_1
 10
80.19112956220113
 20
-6.377534993499443
 30
0.0
  0
VERTEX
  5
5A7
  8
LAYER_1
 10
80.17784880730058
 20
-6.331357459666368
 30
0.0
  0
VERTEX
  5
5A8
  8
LAYER_1
 10
80.16421712189113
 20
-6.285477820571552
 30
0.0
  0
VERTEX
  5
5A9
  8
LAYER_1
 10
80.15023714442015
 20
-6.239900156604568
 30
0.0
  0
VERTEX
  5
5AA
  8
LAYER_1
 10
80.13591151333503
 20
-6.194628548154991
 30
0.0
  0
VERTEX
  5
5AB
  8
LAYER_1
 10
80.12124286708318
 20
-6.149667075612392
 30
0.0
  0
VERTEX
  5
5AC
  8
LAYER_1
 10
80.106233844112
 20
-6.105019819366344
 30
0.0
  0
VERTEX
  5
5AD
  8
LAYER_1
 10
80.09088708286885
 20
-6.060690859806419
 30
0.0
  0
VERTEX
  5
5AE
  8
LAYER_1
 10
80.07520522180116
 20
-6.016684277322191
 30
0.0
  0
VERTEX
  5
5AF
  8
LAYER_1
 10
80.05919089935628
 20
-5.973004152303232
 30
0.0
  0
VERTEX
  5
5B0
  8
LAYER_1
 10
80.04284675398162
 20
-5.929654565139115
 30
0.0
  0
VERTEX
  5
5B1
  8
LAYER_1
 10
80.0261754241246
 20
-5.886639596219414
 30
0.0
  0
VERTEX
  5
5B2
  8
LAYER_1
 10
80.0091795482326
 20
-5.8439633259337
 30
0.0
  0
VERTEX
  5
5B3
  8
LAYER_1
 10
79.991861764753
 20
-5.801629834671546
 30
0.0
  0
VERTEX
  5
5B4
  8
LAYER_1
 10
79.9742247121332
 20
-5.759643202822526
 30
0.0
  0
VERTEX
  5
5B5
  8
LAYER_1
 10
79.9562710288206
 20
-5.718007510776211
 30
0.0
  0
VERTEX
  5
5B6
  8
LAYER_1
 10
79.93800335326259
 20
-5.676726838922175
 30
0.0
  0
VERTEX
  5
5B7
  8
LAYER_1
 10
79.91942432390653
 20
-5.63580526764999
 30
0.0
  0
VERTEX
  5
5B8
  8
LAYER_1
 10
79.90053657919987
 20
-5.595246877349228
 30
0.0
  0
VERTEX
  5
5B9
  8
LAYER_1
 10
79.88134275758995
 20
-5.555055748409464
 30
0.0
  0
VERTEX
  5
5BA
  8
LAYER_1
 10
79.8618454975242
 20
-5.515235961220268
 30
0.0
  0
VERTEX
  5
5BB
  8
LAYER_1
 10
79.84204743744999
 20
-5.475791596171216
 30
0.0
  0
VERTEX
  5
5BC
  8
LAYER_1
 10
79.82195121581475
 20
-5.43672673365188
 30
0.0
  0
VERTEX
  5
5BD
  8
LAYER_1
 10
79.80155947106581
 20
-5.398045454051831
 30
0.0
  0
VERTEX
  5
5BE
  8
LAYER_1
 10
79.78087484165061
 20
-5.359751837760642
 30
0.0
  0
VERTEX
  5
5BF
  8
LAYER_1
 10
79.75989996601653
 20
-5.321849965167887
 30
0.0
  0
VERTEX
  5
5C0
  8
LAYER_1
 10
79.73863748261097
 20
-5.284343916663138
 30
0.0
  0
VERTEX
  5
5C1
  8
LAYER_1
 10
79.71709002988132
 20
-5.247237772635968
 30
0.0
  0
VERTEX
  5
5C2
  8
LAYER_1
 10
79.69526024627496
 20
-5.210535613475949
 30
0.0
  0
VERTEX
  5
5C3
  8
LAYER_1
 10
79.6731507702393
 20
-5.174241519572655
 30
0.0
  0
VERTEX
  5
5C4
  8
LAYER_1
 10
79.65076424022173
 20
-5.138359571315657
 30
0.0
  0
VERTEX
  5
5C5
  8
LAYER_1
 10
79.62810329466964
 20
-5.102893849094531
 30
0.0
  0
VERTEX
  5
5C6
  8
LAYER_1
 10
79.60517057203043
 20
-5.067848433298847
 30
0.0
  0
VERTEX
  5
5C7
  8
LAYER_1
 10
79.58196871075147
 20
-5.033227404318178
 30
0.0
  0
VERTEX
  5
5C8
  8
LAYER_1
 10
79.55850034928017
 20
-4.999034842542097
 30
0.0
  0
VERTEX
  5
5C9
  8
LAYER_1
 10
79.53476812606391
 20
-4.965274828360178
 30
0.0
  0
VERTEX
  5
5CA
  8
LAYER_1
 10
79.5107746795501
 20
-4.931951442161992
 30
0.0
  0
VERTEX
  5
5CB
  8
LAYER_1
 10
79.48652264818612
 20
-4.899068764337113
 30
0.0
  0
VERTEX
  5
5CC
  8
LAYER_1
 10
79.46201467041938
 20
-4.866630875275113
 30
0.0
  0
VERTEX
  5
5CD
  8
LAYER_1
 10
79.43725338469726
 20
-4.834641855365565
 30
0.0
  0
VERTEX
  5
5CE
  8
LAYER_1
 10
79.41224142946716
 20
-4.80310578499804
 30
0.0
  0
VERTEX
  5
5CF
  8
LAYER_1
 10
79.38698144317647
 20
-4.772026744562115
 30
0.0
  0
VERTEX
  5
5D0
  8
LAYER_1
 10
79.36147606427257
 20
-4.741408814447359
 30
0.0
  0
VERTEX
  5
5D1
  8
LAYER_1
 10
79.33572793120285
 20
-4.711256075043346
 30
0.0
  0
VERTEX
  5
5D2
  8
LAYER_1
 10
79.30973968241473
 20
-4.681572606739648
 30
0.0
  0
VERTEX
  5
5D3
  8
LAYER_1
 10
79.28351395635559
 20
-4.65236248992584
 30
0.0
  0
VERTEX
  5
5D4
  8
LAYER_1
 10
79.25705339147284
 20
-4.623629804991491
 30
0.0
  0
VERTEX
  5
5D5
  8
LAYER_1
 10
79.23036062621382
 20
-4.595378632326178
 30
0.0
  0
VERTEX
  5
5D6
  8
LAYER_1
 10
79.20343829902596
 20
-4.567613052319471
 30
0.0
  0
VERTEX
  5
5D7
  8
LAYER_1
 10
79.17628904835667
 20
-4.540337145360944
 30
0.0
  0
VERTEX
  5
5D8
  8
LAYER_1
 10
79.14891551265332
 20
-4.513554991840168
 30
0.0
  0
VERTEX
  5
5D9
  8
LAYER_1
 10
79.12132033036332
 20
-4.487270672146719
 30
0.0
  0
VERTEX
  5
5DA
  8
LAYER_1
 10
79.09350613993405
 20
-4.461488266670166
 30
0.0
  0
VERTEX
  5
5DB
  8
LAYER_1
 10
79.06547557981288
 20
-4.436211855800085
 30
0.0
  0
VERTEX
  5
5DC
  8
LAYER_1
 10
79.03723128844724
 20
-4.411445519926048
 30
0.0
  0
VERTEX
  5
5DD
  8
LAYER_1
 10
79.0087759042845
 20
-4.387193339437625
 30
0.0
  0
VERTEX
  5
5DE
  8
LAYER_1
 10
78.98011206577206
 20
-4.363459394724391
 30
0.0
  0
VERTEX
  5
5DF
  8
LAYER_1
 10
78.95124241135734
 20
-4.340247766175919
 30
0.0
  0
VERTEX
  5
5E0
  8
LAYER_1
 10
78.92216957948769
 20
-4.317562534181782
 30
0.0
  0
VERTEX
  5
5E1
  8
LAYER_1
 10
78.89289620861052
 20
-4.295407779131551
 30
0.0
  0
VERTEX
  5
5E2
  8
LAYER_1
 10
78.86342493717322
 20
-4.273787581414801
 30
0.0
  0
VERTEX
  5
5E3
  8
LAYER_1
 10
78.8337584036232
 20
-4.252706021421103
 30
0.0
  0
VERTEX
  5
5E4
  8
LAYER_1
 10
78.80389924640781
 20
-4.23216717954003
 30
0.0
  0
VERTEX
  5
5E5
  8
LAYER_1
 10
78.7738501039745
 20
-4.212175136161155
 30
0.0
  0
VERTEX
  5
5E6
  8
LAYER_1
 10
78.74361361477062
 20
-4.192733971674052
 30
0.0
  0
VERTEX
  5
5E7
  8
LAYER_1
 10
78.71319241724359
 20
-4.173847766468292
 30
0.0
  0
VERTEX
  5
5E8
  8
LAYER_1
 10
78.68258914984078
 20
-4.155520600933448
 30
0.0
  0
VERTEX
  5
5E9
  8
LAYER_1
 10
78.65180645100959
 20
-4.137756555459092
 30
0.0
  0
VERTEX
  5
5EA
  8
LAYER_1
 10
78.62084695919742
 20
-4.120559710434799
 30
0.0
  0
VERTEX
  5
5EB
  8
LAYER_1
 10
78.58971331285167
 20
-4.103934146250141
 30
0.0
  0
VERTEX
  5
5EC
  8
LAYER_1
 10
78.5584081504197
 20
-4.08788394329469
 30
0.0
  0
VERTEX
  5
5ED
  8
LAYER_1
 10
78.52693411034895
 20
-4.072413181958019
 30
0.0
  0
VERTEX
  5
5EE
  8
LAYER_1
 10
78.49529383108677
 20
-4.057525942629702
 30
0.0
  0
VERTEX
  5
5EF
  8
LAYER_1
 10
78.46348995108058
 20
-4.04322630569931
 30
0.0
  0
VERTEX
  5
5F0
  8
LAYER_1
 10
78.43152510877776
 20
-4.029518351556417
 30
0.0
  0
VERTEX
  5
5F1
  8
LAYER_1
 10
78.39940194262572
 20
-4.016406160590593
 30
0.0
  0
VERTEX
  5
5F2
  8
LAYER_1
 10
78.36712309107183
 20
-4.003893813191414
 30
0.0
  0
VERTEX
  5
5F3
  8
LAYER_1
 10
78.33469119256348
 20
-3.991985389748453
 30
0.0
  0
VERTEX
  5
5F4
  8
LAYER_1
 10
78.30210888554808
 20
-3.98068497065128
 30
0.0
  0
VERTEX
  5
5F5
  8
LAYER_1
 10
78.26937880847304
 20
-3.96999663628947
 30
0.0
  0
VERTEX
  5
5F6
  8
LAYER_1
 10
78.2365035997857
 20
-3.959924467052594
 30
0.0
  0
VERTEX
  5
5F7
  8
LAYER_1
 10
78.20348589793352
 20
-3.950472543330227
 30
0.0
  0
VERTEX
  5
5F8
  8
LAYER_1
 10
78.17032834136384
 20
-3.941644945511939
 30
0.0
  0
VERTEX
  5
5F9
  8
LAYER_1
 10
78.13703356852406
 20
-3.933445753987305
 30
0.0
  0
VERTEX
  5
5FA
  8
LAYER_1
 10
78.10360421786159
 20
-3.925879049145897
 30
0.0
  0
VERTEX
  5
5FB
  8
LAYER_1
 10
78.07004292782382
 20
-3.918948911377288
 30
0.0
  0
VERTEX
  5
5FC
  8
LAYER_1
 10
78.03635233685813
 20
-3.91265942107105
 30
0.0
  0
VERTEX
  5
5FD
  8
LAYER_1
 10
78.00253508341193
 20
-3.907014658616756
 30
0.0
  0
VERTEX
  5
5FE
  8
LAYER_1
 10
77.9685938059326
 20
-3.90201870440398
 30
0.0
  0
VERTEX
  5
5FF
  8
LAYER_1
 10
77.93453114286754
 20
-3.897675638822292
 30
0.0
  0
VERTEX
  5
600
  8
LAYER_1
 10
77.90034973266414
 20
-3.893989542261267
 30
0.0
  0
VERTEX
  5
601
  8
LAYER_1
 10
77.86605221376979
 20
-3.890964495110478
 30
0.0
  0
VERTEX
  5
602
  8
LAYER_1
 10
77.8316412246319
 20
-3.888604577759497
 30
0.0
  0
VERTEX
  5
603
  8
LAYER_1
 10
77.79711940369783
 20
-3.886913870597897
 30
0.0
  0
VERTEX
  5
604
  8
LAYER_1
 10
77.762489389415
 20
-3.88589645401525
 30
0.0
  0
VERTEX
  5
605
  8
LAYER_1
 10
77.7277538202308
 20
-3.885556408401129
 30
0.0
  0
VERTEX
  5
606
  8
LAYER_1
 10
77.69301825104661
 20
-3.88589645401525
 30
0.0
  0
VERTEX
  5
607
  8
LAYER_1
 10
77.65838823676377
 20
-3.886913870597897
 30
0.0
  0
VERTEX
  5
608
  8
LAYER_1
 10
77.62386641582971
 20
-3.888604577759497
 30
0.0
  0
VERTEX
  5
609
  8
LAYER_1
 10
77.5894554266918
 20
-3.890964495110478
 30
0.0
  0
VERTEX
  5
60A
  8
LAYER_1
 10
77.55515790779744
 20
-3.893989542261267
 30
0.0
  0
VERTEX
  5
60B
  8
LAYER_1
 10
77.52097649759403
 20
-3.897675638822292
 30
0.0
  0
VERTEX
  5
60C
  8
LAYER_1
 10
77.48691383452898
 20
-3.90201870440398
 30
0.0
  0
VERTEX
  5
60D
  8
LAYER_1
 10
77.45297255704966
 20
-3.907014658616756
 30
0.0
  0
VERTEX
  5
60E
  8
LAYER_1
 10
77.41915530360347
 20
-3.91265942107105
 30
0.0
  0
VERTEX
  5
60F
  8
LAYER_1
 10
77.38546471263777
 20
-3.918948911377288
 30
0.0
  0
VERTEX
  5
610
  8
LAYER_1
 10
77.3519034226
 20
-3.925879049145897
 30
0.0
  0
VERTEX
  5
611
  8
LAYER_1
 10
77.31847407193753
 20
-3.933445753987305
 30
0.0
  0
VERTEX
  5
612
  8
LAYER_1
 10
77.28517929909776
 20
-3.941644945511939
 30
0.0
  0
VERTEX
  5
613
  8
LAYER_1
 10
77.25202174252809
 20
-3.950472543330227
 30
0.0
  0
VERTEX
  5
614
  8
LAYER_1
 10
77.21900404067587
 20
-3.959924467052594
 30
0.0
  0
VERTEX
  5
615
  8
LAYER_1
 10
77.18612883198855
 20
-3.96999663628947
 30
0.0
  0
VERTEX
  5
616
  8
LAYER_1
 10
77.1533987549135
 20
-3.98068497065128
 30
0.0
  0
VERTEX
  5
617
  8
LAYER_1
 10
77.12081644789811
 20
-3.991985389748453
 30
0.0
  0
VERTEX
  5
618
  8
LAYER_1
 10
77.08838454938976
 20
-4.003893813191414
 30
0.0
  0
VERTEX
  5
619
  8
LAYER_1
 10
77.05610569783587
 20
-4.016406160590593
 30
0.0
  0
VERTEX
  5
61A
  8
LAYER_1
 10
77.02398253168381
 20
-4.029518351556417
 30
0.0
  0
VERTEX
  5
61B
  8
LAYER_1
 10
76.992017689381
 20
-4.04322630569931
 30
0.0
  0
VERTEX
  5
61C
  8
LAYER_1
 10
76.9602138093748
 20
-4.057525942629702
 30
0.0
  0
VERTEX
  5
61D
  8
LAYER_1
 10
76.92857353011263
 20
-4.072413181958019
 30
0.0
  0
VERTEX
  5
61E
  8
LAYER_1
 10
76.89709949004188
 20
-4.08788394329469
 30
0.0
  0
VERTEX
  5
61F
  8
LAYER_1
 10
76.8657943276099
 20
-4.103934146250141
 30
0.0
  0
VERTEX
  5
620
  8
LAYER_1
 10
76.83466068126415
 20
-4.120559710434799
 30
0.0
  0
VERTEX
  5
621
  8
LAYER_1
 10
76.80370118945198
 20
-4.137756555459092
 30
0.0
  0
VERTEX
  5
622
  8
LAYER_1
 10
76.7729184906208
 20
-4.155520600933448
 30
0.0
  0
VERTEX
  5
623
  8
LAYER_1
 10
76.74231522321799
 20
-4.173847766468292
 30
0.0
  0
VERTEX
  5
624
  8
LAYER_1
 10
76.71189402569095
 20
-4.192733971674052
 30
0.0
  0
VERTEX
  5
625
  8
LAYER_1
 10
76.68165753648708
 20
-4.212175136161155
 30
0.0
  0
VERTEX
  5
626
  8
LAYER_1
 10
76.65160839405377
 20
-4.23216717954003
 30
0.0
  0
VERTEX
  5
627
  8
LAYER_1
 10
76.62174923683838
 20
-4.252706021421103
 30
0.0
  0
VERTEX
  5
628
  8
LAYER_1
 10
76.59208270328836
 20
-4.273787581414801
 30
0.0
  0
VERTEX
  5
629
  8
LAYER_1
 10
76.56261143185105
 20
-4.295407779131551
 30
0.0
  0
VERTEX
  5
62A
  8
LAYER_1
 10
76.53333806097389
 20
-4.317562534181782
 30
0.0
  0
VERTEX
  5
62B
  8
LAYER_1
 10
76.50426522910423
 20
-4.340247766175919
 30
0.0
  0
VERTEX
  5
62C
  8
LAYER_1
 10
76.47539557468951
 20
-4.363459394724391
 30
0.0
  0
VERTEX
  5
62D
  8
LAYER_1
 10
76.44673173617707
 20
-4.387193339437625
 30
0.0
  0
VERTEX
  5
62E
  8
LAYER_1
 10
76.41827635201433
 20
-4.411445519926048
 30
0.0
  0
VERTEX
  5
62F
  8
LAYER_1
 10
76.39003206064869
 20
-4.436211855800085
 30
0.0
  0
VERTEX
  5
630
  8
LAYER_1
 10
76.36200150052753
 20
-4.461488266670166
 30
0.0
  0
VERTEX
  5
631
  8
LAYER_1
 10
76.33418731009826
 20
-4.487270672146719
 30
0.0
  0
VERTEX
  5
632
  8
LAYER_1
 10
76.30659212780826
 20
-4.513554991840168
 30
0.0
  0
VERTEX
  5
633
  8
LAYER_1
 10
76.27921859210491
 20
-4.540337145360944
 30
0.0
  0
VERTEX
  5
634
  8
LAYER_1
 10
76.25206934143561
 20
-4.567613052319471
 30
0.0
  0
VERTEX
  5
635
  8
LAYER_1
 10
76.22514701424777
 20
-4.595378632326178
 30
0.0
  0
VERTEX
  5
636
  8
LAYER_1
 10
76.19845424898877
 20
-4.623629804991491
 30
0.0
  0
VERTEX
  5
637
  8
LAYER_1
 10
76.17199368410601
 20
-4.65236248992584
 30
0.0
  0
VERTEX
  5
638
  8
LAYER_1
 10
76.14576795804687
 20
-4.681572606739648
 30
0.0
  0
VERTEX
  5
639
  8
LAYER_1
 10
76.11977970925875
 20
-4.711256075043346
 30
0.0
  0
VERTEX
  5
63A
  8
LAYER_1
 10
76.09403157618904
 20
-4.741408814447359
 30
0.0
  0
VERTEX
  5
63B
  8
LAYER_1
 10
76.06852619728514
 20
-4.772026744562115
 30
0.0
  0
VERTEX
  5
63C
  8
LAYER_1
 10
76.04326621099445
 20
-4.80310578499804
 30
0.0
  0
VERTEX
  5
63D
  8
LAYER_1
 10
76.01825425576435
 20
-4.834641855365565
 30
0.0
  0
VERTEX
  5
63E
  8
LAYER_1
 10
75.99349297004223
 20
-4.866630875275113
 30
0.0
  0
VERTEX
  5
63F
  8
LAYER_1
 10
75.96898499227548
 20
-4.899068764337113
 30
0.0
  0
VERTEX
  5
640
  8
LAYER_1
 10
75.94473296091151
 20
-4.931951442161992
 30
0.0
  0
VERTEX
  5
641
  8
LAYER_1
 10
75.9207395143977
 20
-4.965274828360178
 30
0.0
  0
VERTEX
  5
642
  8
LAYER_1
 10
75.89700729118144
 20
-4.999034842542097
 30
0.0
  0
VERTEX
  5
643
  8
LAYER_1
 10
75.87353892971014
 20
-5.033227404318178
 30
0.0
  0
VERTEX
  5
644
  8
LAYER_1
 10
75.85033706843117
 20
-5.067848433298847
 30
0.0
  0
VERTEX
  5
645
  8
LAYER_1
 10
75.82740434579195
 20
-5.102893849094531
 30
0.0
  0
VERTEX
  5
646
  8
LAYER_1
 10
75.80474340023984
 20
-5.138359571315657
 30
0.0
  0
VERTEX
  5
647
  8
LAYER_1
 10
75.78235687022227
 20
-5.174241519572655
 30
0.0
  0
VERTEX
  5
648
  8
LAYER_1
 10
75.76024739418662
 20
-5.210535613475949
 30
0.0
  0
VERTEX
  5
649
  8
LAYER_1
 10
75.73841761058026
 20
-5.247237772635968
 30
0.0
  0
VERTEX
  5
64A
  8
LAYER_1
 10
75.71687015785061
 20
-5.284343916663138
 30
0.0
  0
VERTEX
  5
64B
  8
LAYER_1
 10
75.69560767444504
 20
-5.321849965167887
 30
0.0
  0
VERTEX
  5
64C
  8
LAYER_1
 10
75.67463279881096
 20
-5.359751837760642
 30
0.0
  0
VERTEX
  5
64D
  8
LAYER_1
 10
75.65394816939576
 20
-5.398045454051831
 30
0.0
  0
VERTEX
  5
64E
  8
LAYER_1
 10
75.63355642464683
 20
-5.43672673365188
 30
0.0
  0
VERTEX
  5
64F
  8
LAYER_1
 10
75.61346020301158
 20
-5.475791596171216
 30
0.0
  0
VERTEX
  5
650
  8
LAYER_1
 10
75.59366214293738
 20
-5.515235961220268
 30
0.0
  0
VERTEX
  5
651
  8
LAYER_1
 10
75.57416488287163
 20
-5.555055748409464
 30
0.0
  0
VERTEX
  5
652
  8
LAYER_1
 10
75.55497106126171
 20
-5.595246877349228
 30
0.0
  0
VERTEX
  5
653
  8
LAYER_1
 10
75.53608331655505
 20
-5.63580526764999
 30
0.0
  0
VERTEX
  5
654
  8
LAYER_1
 10
75.51750428719899
 20
-5.676726838922175
 30
0.0
  0
VERTEX
  5
655
  8
LAYER_1
 10
75.49923661164098
 20
-5.718007510776211
 30
0.0
  0
VERTEX
  5
656
  8
LAYER_1
 10
75.48128292832837
 20
-5.759643202822526
 30
0.0
  0
VERTEX
  5
657
  8
LAYER_1
 10
75.46364587570858
 20
-5.801629834671546
 30
0.0
  0
VERTEX
  5
658
  8
LAYER_1
 10
75.44632809222898
 20
-5.8439633259337
 30
0.0
  0
VERTEX
  5
659
  8
LAYER_1
 10
75.42933221633697
 20
-5.886639596219414
 30
0.0
  0
VERTEX
  5
65A
  8
LAYER_1
 10
75.41266088647996
 20
-5.929654565139115
 30
0.0
  0
VERTEX
  5
65B
  8
LAYER_1
 10
75.3963167411053
 20
-5.973004152303232
 30
0.0
  0
VERTEX
  5
65C
  8
LAYER_1
 10
75.38030241866042
 20
-6.016684277322191
 30
0.0
  0
VERTEX
  5
65D
  8
LAYER_1
 10
75.36462055759273
 20
-6.060690859806419
 30
0.0
  0
VERTEX
  5
65E
  8
LAYER_1
 10
75.34927379634958
 20
-6.105019819366344
 30
0.0
  0
VERTEX
  5
65F
  8
LAYER_1
 10
75.3342647733784
 20
-6.149667075612392
 30
0.0
  0
VERTEX
  5
660
  8
LAYER_1
 10
75.31959612712654
 20
-6.194628548154991
 30
0.0
  0
VERTEX
  5
661
  8
LAYER_1
 10
75.30527049604144
 20
-6.239900156604568
 30
0.0
  0
VERTEX
  5
662
  8
LAYER_1
 10
75.29129051857046
 20
-6.285477820571552
 30
0.0
  0
VERTEX
  5
663
  8
LAYER_1
 10
75.27765883316101
 20
-6.331357459666368
 30
0.0
  0
VERTEX
  5
664
  8
LAYER_1
 10
75.26437807826045
 20
-6.377534993499443
 30
0.0
  0
VERTEX
  5
665
  8
LAYER_1
 10
75.25145089231623
 20
-6.424006341681206
 30
0.0
  0
VERTEX
  5
666
  8
LAYER_1
 10
75.2388799137757
 20
-6.470767423822084
 30
0.0
  0
VERTEX
  5
667
  8
LAYER_1
 10
75.22666778108626
 20
-6.517814159532503
 30
0.0
  0
VERTEX
  5
668
  8
LAYER_1
 10
75.2148171326953
 20
-6.565142468422891
 30
0.0
  0
VERTEX
  5
669
  8
LAYER_1
 10
75.20333060705023
 20
-6.612748270103676
 30
0.0
  0
VERTEX
  5
66A
  8
LAYER_1
 10
75.19221084259844
 20
-6.660627484185285
 30
0.0
  0
VERTEX
  5
66B
  8
LAYER_1
 10
75.18146047778731
 20
-6.708776030278143
 30
0.0
  0
VERTEX
  5
66C
  8
LAYER_1
 10
75.17108215106424
 20
-6.757189827992681
 30
0.0
  0
VERTEX
  5
66D
  8
LAYER_1
 10
75.16107850087661
 20
-6.805864796939322
 30
0.0
  0
VERTEX
  5
66E
  8
LAYER_1
 10
75.15145216567183
 20
-6.854796856728496
 30
0.0
  0
VERTEX
  5
66F
  8
LAYER_1
 10
75.14220578389728
 20
-6.90398192697063
 30
0.0
  0
VERTEX
  5
670
  8
LAYER_1
 10
75.13334199400038
 20
-6.953415927276152
 30
0.0
  0
VERTEX
  5
671
  8
LAYER_1
 10
75.1248634344285
 20
-7.003094777255487
 30
0.0
  0
VERTEX
  5
672
  8
LAYER_1
 10
75.11677274362901
 20
-7.053014396519064
 30
0.0
  0
VERTEX
  5
673
  8
LAYER_1
 10
75.10907256004936
 20
-7.103170704677309
 30
0.0
  0
VERTEX
  5
674
  8
LAYER_1
 10
75.10176552213692
 20
-7.153559621340651
 30
0.0
  0
VERTEX
  5
675
  8
LAYER_1
 10
75.09485426833905
 20
-7.204177066119515
 30
0.0
  0
VERTEX
  5
676
  8
LAYER_1
 10
75.08834143710317
 20
-7.25501895862433
 30
0.0
  0
VERTEX
  5
677
  8
LAYER_1
 10
75.08222966687669
 20
-7.306081218465523
 30
0.0
  0
VERTEX
  5
678
  8
LAYER_1
 10
75.07652159610697
 20
-7.357359765253521
 30
0.0
  0
VERTEX
  5
679
  8
LAYER_1
 10
75.07121986324141
 20
-7.40885051859875
 30
0.0
  0
VERTEX
  5
67A
  8
LAYER_1
 10
75.06632710672741
 20
-7.460549398111638
 30
0.0
  0
VERTEX
  5
67B
  8
LAYER_1
 10
75.06184596501238
 20
-7.512452323402615
 30
0.0
  0
VERTEX
  5
67C
  8
LAYER_1
 10
75.0577790765437
 20
-7.564555214082104
 30
0.0
  0
VERTEX
  5
67D
  8
LAYER_1
 10
75.05412907976873
 20
-7.616853989760534
 30
0.0
  0
VERTEX
  5
67E
  8
LAYER_1
 10
75.0508986131349
 20
-7.669344570048333
 30
0.0
  0
VERTEX
  5
67F
  8
LAYER_1
 10
75.04809031508961
 20
-7.722022874555927
 30
0.0
  0
VERTEX
  5
680
  8
LAYER_1
 10
75.04570682408021
 20
-7.774884822893744
 30
0.0
  0
VERTEX
  5
681
  8
LAYER_1
 10
75.04375077855416
 20
-7.827926334672212
 30
0.0
  0
VERTEX
  5
682
  8
LAYER_1
 10
75.0422248169588
 20
-7.881143329501757
 30
0.0
  0
VERTEX
  5
683
  8
LAYER_1
 10
75.04113157774151
 20
-7.934531726992807
 30
0.0
  0
VERTEX
  5
684
  8
LAYER_1
 10
75.0404736993497
 20
-7.988087446755789
 30
0.0
  0
VERTEX
  5
685
  8
LAYER_1
 10
75.0402538202308
 20
-8.04180640840113
 30
0.0
  0
VERTEX
  5
686
  8
LAYER_1
 10
75.0404736993497
 20
-8.095525370046468
 30
0.0
  0
VERTEX
  5
687
  8
LAYER_1
 10
75.04113157774151
 20
-8.14908108980945
 30
0.0
  0
VERTEX
  5
688
  8
LAYER_1
 10
75.0422248169588
 20
-8.2024694873005
 30
0.0
  0
VERTEX
  5
689
  8
LAYER_1
 10
75.04375077855416
 20
-8.255686482130045
 30
0.0
  0
VERTEX
  5
68A
  8
LAYER_1
 10
75.04570682408021
 20
-8.308727993908512
 30
0.0
  0
VERTEX
  5
68B
  8
LAYER_1
 10
75.04809031508961
 20
-8.36158994224633
 30
0.0
  0
VERTEX
  5
68C
  8
LAYER_1
 10
75.0508986131349
 20
-8.414268246753924
 30
0.0
  0
VERTEX
  5
68D
  8
LAYER_1
 10
75.05412907976873
 20
-8.466758827041723
 30
0.0
  0
VERTEX
  5
68E
  8
LAYER_1
 10
75.0577790765437
 20
-8.519057602720153
 30
0.0
  0
VERTEX
  5
68F
  8
LAYER_1
 10
75.06184596501238
 20
-8.571160493399642
 30
0.0
  0
VERTEX
  5
690
  8
LAYER_1
 10
75.06632710672741
 20
-8.623063418690618
 30
0.0
  0
VERTEX
  5
691
  8
LAYER_1
 10
75.07121986324141
 20
-8.674762298203508
 30
0.0
  0
VERTEX
  5
692
  8
LAYER_1
 10
75.07652159610697
 20
-8.726253051548738
 30
0.0
  0
VERTEX
  5
693
  8
LAYER_1
 10
75.08222966687669
 20
-8.777531598336735
 30
0.0
  0
VERTEX
  5
694
  8
LAYER_1
 10
75.08834143710317
 20
-8.828593858177927
 30
0.0
  0
VERTEX
  5
695
  8
LAYER_1
 10
75.09485426833905
 20
-8.879435750682743
 30
0.0
  0
VERTEX
  5
696
  8
LAYER_1
 10
75.10176552213692
 20
-8.930053195461609
 30
0.0
  0
VERTEX
  5
697
  8
LAYER_1
 10
75.10907256004936
 20
-8.98044211212495
 30
0.0
  0
VERTEX
  5
698
  8
LAYER_1
 10
75.11677274362901
 20
-9.030598420283196
 30
0.0
  0
VERTEX
  5
699
  8
LAYER_1
 10
75.1248634344285
 20
-9.080518039546773
 30
0.0
  0
VERTEX
  5
69A
  8
LAYER_1
 10
75.13334199400038
 20
-9.130196889526108
 30
0.0
  0
VERTEX
  5
69B
  8
LAYER_1
 10
75.14220578389728
 20
-9.179630889831628
 30
0.0
  0
VERTEX
  5
69C
  8
LAYER_1
 10
75.15145216567183
 20
-9.228815960073764
 30
0.0
  0
VERTEX
  5
69D
  8
LAYER_1
 10
75.16107850087661
 20
-9.277748019862937
 30
0.0
  0
VERTEX
  5
69E
  8
LAYER_1
 10
75.17108215106424
 20
-9.326422988809579
 30
0.0
  0
VERTEX
  5
69F
  8
LAYER_1
 10
75.18146047778731
 20
-9.374836786524115
 30
0.0
  0
VERTEX
  5
6A0
  8
LAYER_1
 10
75.19221084259844
 20
-9.422985332616975
 30
0.0
  0
VERTEX
  5
6A1
  8
LAYER_1
 10
75.20333060705023
 20
-9.470864546698582
 30
0.0
  0
VERTEX
  5
6A2
  8
LAYER_1
 10
75.2148171326953
 20
-9.518470348379367
 30
0.0
  0
VERTEX
  5
6A3
  8
LAYER_1
 10
75.22666778108626
 20
-9.565798657269756
 30
0.0
  0
VERTEX
  5
6A4
  8
LAYER_1
 10
75.2388799137757
 20
-9.612845392980176
 30
0.0
  0
VERTEX
  5
6A5
  8
LAYER_1
 10
75.25145089231623
 20
-9.659606475121052
 30
0.0
  0
VERTEX
  5
6A6
  8
LAYER_1
 10
75.26437807826045
 20
-9.706077823302817
 30
0.0
  0
VERTEX
  5
6A7
  8
LAYER_1
 10
75.27765883316101
 20
-9.75225535713589
 30
0.0
  0
VERTEX
  5
6A8
  8
LAYER_1
 10
75.29129051857046
 20
-9.798134996230706
 30
0.0
  0
VERTEX
  5
6A9
  8
LAYER_1
 10
75.30527049604144
 20
-9.843712660197689
 30
0.0
  0
VERTEX
  5
6AA
  8
LAYER_1
 10
75.31959612712654
 20
-9.888984268647267
 30
0.0
  0
VERTEX
  5
6AB
  8
LAYER_1
 10
75.3342647733784
 20
-9.933945741189866
 30
0.0
  0
VERTEX
  5
6AC
  8
LAYER_1
 10
75.34927379634958
 20
-9.978592997435914
 30
0.0
  0
VERTEX
  5
6AD
  8
LAYER_1
 10
75.36462055759273
 20
-10.02292195699584
 30
0.0
  0
VERTEX
  5
6AE
  8
LAYER_1
 10
75.38030241866042
 20
-10.06692853948007
 30
0.0
  0
VERTEX
  5
6AF
  8
LAYER_1
 10
75.3963167411053
 20
-10.11060866449903
 30
0.0
  0
VERTEX
  5
6B0
  8
LAYER_1
 10
75.41266088647996
 20
-10.15395825166314
 30
0.0
  0
VERTEX
  5
6B1
  8
LAYER_1
 10
75.42933221633697
 20
-10.19697322058284
 30
0.0
  0
VERTEX
  5
6B2
  8
LAYER_1
 10
75.44632809222898
 20
-10.23964949086856
 30
0.0
  0
VERTEX
  5
6B3
  8
LAYER_1
 10
75.46364587570858
 20
-10.28198298213071
 30
0.0
  0
VERTEX
  5
6B4
  8
LAYER_1
 10
75.48128292832837
 20
-10.32396961397973
 30
0.0
  0
VERTEX
  5
6B5
  8
LAYER_1
 10
75.49923661164098
 20
-10.36560530602605
 30
0.0
  0
VERTEX
  5
6B6
  8
LAYER_1
 10
75.51750428719899
 20
-10.40688597788008
 30
0.0
  0
VERTEX
  5
6B7
  8
LAYER_1
 10
75.53608331655505
 20
-10.44780754915227
 30
0.0
  0
VERTEX
  5
6B8
  8
LAYER_1
 10
75.55497106126171
 20
-10.48836593945303
 30
0.0
  0
VERTEX
  5
6B9
  8
LAYER_1
 10
75.57416488287163
 20
-10.52855706839279
 30
0.0
  0
VERTEX
  5
6BA
  8
LAYER_1
 10
75.59366214293738
 20
-10.56837685558199
 30
0.0
  0
VERTEX
  5
6BB
  8
LAYER_1
 10
75.61346020301158
 20
-10.60782122063104
 30
0.0
  0
VERTEX
  5
6BC
  8
LAYER_1
 10
75.63355642464683
 20
-10.64688608315038
 30
0.0
  0
VERTEX
  5
6BD
  8
LAYER_1
 10
75.65394816939576
 20
-10.68556736275043
 30
0.0
  0
VERTEX
  5
6BE
  8
LAYER_1
 10
75.67463279881096
 20
-10.72386097904162
 30
0.0
  0
VERTEX
  5
6BF
  8
LAYER_1
 10
75.69560767444504
 20
-10.76176285163437
 30
0.0
  0
VERTEX
  5
6C0
  8
LAYER_1
 10
75.71687015785061
 20
-10.79926890013912
 30
0.0
  0
VERTEX
  5
6C1
  8
LAYER_1
 10
75.73841761058026
 20
-10.83637504416629
 30
0.0
  0
VERTEX
  5
6C2
  8
LAYER_1
 10
75.76024739418662
 20
-10.87307720332631
 30
0.0
  0
VERTEX
  5
6C3
  8
LAYER_1
 10
75.78235687022227
 20
-10.9093712972296
 30
0.0
  0
VERTEX
  5
6C4
  8
LAYER_1
 10
75.80474340023984
 20
-10.9452532454866
 30
0.0
  0
VERTEX
  5
6C5
  8
LAYER_1
 10
75.82740434579195
 20
-10.98071896770773
 30
0.0
  0
VERTEX
  5
6C6
  8
LAYER_1
 10
75.85033706843117
 20
-11.01576438350341
 30
0.0
  0
VERTEX
  5
6C7
  8
LAYER_1
 10
75.87353892971014
 20
-11.05038541248408
 30
0.0
  0
VERTEX
  5
6C8
  8
LAYER_1
 10
75.89700729118144
 20
-11.08457797426016
 30
0.0
  0
VERTEX
  5
6C9
  8
LAYER_1
 10
75.9207395143977
 20
-11.11833798844208
 30
0.0
  0
VERTEX
  5
6CA
  8
LAYER_1
 10
75.94473296091151
 20
-11.15166137464027
 30
0.0
  0
VERTEX
  5
6CB
  8
LAYER_1
 10
75.96898499227548
 20
-11.18454405246515
 30
0.0
  0
VERTEX
  5
6CC
  8
LAYER_1
 10
75.99349297004223
 20
-11.21698194152714
 30
0.0
  0
VERTEX
  5
6CD
  8
LAYER_1
 10
76.01825425576435
 20
-11.2489709614367
 30
0.0
  0
VERTEX
  5
6CE
  8
LAYER_1
 10
76.04326621099445
 20
-11.28050703180422
 30
0.0
  0
VERTEX
  5
6CF
  8
LAYER_1
 10
76.06852619728514
 20
-11.31158607224015
 30
0.0
  0
VERTEX
  5
6D0
  8
LAYER_1
 10
76.09403157618904
 20
-11.3422040023549
 30
0.0
  0
VERTEX
  5
6D1
  8
LAYER_1
 10
76.11977970925875
 20
-11.37235674175891
 30
0.0
  0
VERTEX
  5
6D2
  8
LAYER_1
 10
76.14576795804687
 20
-11.40204021006261
 30
0.0
  0
VERTEX
  5
6D3
  8
LAYER_1
 10
76.17199368410601
 20
-11.43125032687642
 30
0.0
  0
VERTEX
  5
6D4
  8
LAYER_1
 10
76.19845424898877
 20
-11.45998301181077
 30
0.0
  0
VERTEX
  5
6D5
  8
LAYER_1
 10
76.22514701424777
 20
-11.48823418447608
 30
0.0
  0
VERTEX
  5
6D6
  8
LAYER_1
 10
76.25206934143561
 20
-11.51599976448279
 30
0.0
  0
VERTEX
  5
6D7
  8
LAYER_1
 10
76.27921859210491
 20
-11.54327567144131
 30
0.0
  0
VERTEX
  5
6D8
  8
LAYER_1
 10
76.30659212780826
 20
-11.57005782496209
 30
0.0
  0
VERTEX
  5
6D9
  8
LAYER_1
 10
76.33418731009826
 20
-11.59634214465554
 30
0.0
  0
VERTEX
  5
6DA
  8
LAYER_1
 10
76.36200150052753
 20
-11.62212455013209
 30
0.0
  0
VERTEX
  5
6DB
  8
LAYER_1
 10
76.39003206064869
 20
-11.64740096100217
 30
0.0
  0
VERTEX
  5
6DC
  8
LAYER_1
 10
76.41827635201433
 20
-11.67216729687621
 30
0.0
  0
VERTEX
  5
6DD
  8
LAYER_1
 10
76.44673173617707
 20
-11.69641947736464
 30
0.0
  0
VERTEX
  5
6DE
  8
LAYER_1
 10
76.47539557468951
 20
-11.72015342207787
 30
0.0
  0
VERTEX
  5
6DF
  8
LAYER_1
 10
76.50426522910423
 20
-11.74336505062634
 30
0.0
  0
VERTEX
  5
6E0
  8
LAYER_1
 10
76.53333806097389
 20
-11.76605028262048
 30
0.0
  0
VERTEX
  5
6E1
  8
LAYER_1
 10
76.56261143185105
 20
-11.78820503767071
 30
0.0
  0
VERTEX
  5
6E2
  8
LAYER_1
 10
76.59208270328836
 20
-11.80982523538746
 30
0.0
  0
VERTEX
  5
6E3
  8
LAYER_1
 10
76.62174923683838
 20
-11.83090679538116
 30
0.0
  0
VERTEX
  5
6E4
  8
LAYER_1
 10
76.65160839405377
 20
-11.85144563726223
 30
0.0
  0
VERTEX
  5
6E5
  8
LAYER_1
 10
76.68165753648708
 20
-11.8714376806411
 30
0.0
  0
VERTEX
  5
6E6
  8
LAYER_1
 10
76.71189402569095
 20
-11.89087884512821
 30
0.0
  0
VERTEX
  5
6E7
  8
LAYER_1
 10
76.74231522321799
 20
-11.90976505033397
 30
0.0
  0
VERTEX
  5
6E8
  8
LAYER_1
 10
76.7729184906208
 20
-11.92809221586881
 30
0.0
  0
VERTEX
  5
6E9
  8
LAYER_1
 10
76.80370118945198
 20
-11.94585626134317
 30
0.0
  0
VERTEX
  5
6EA
  8
LAYER_1
 10
76.83466068126415
 20
-11.96305310636746
 30
0.0
  0
VERTEX
  5
6EB
  8
LAYER_1
 10
76.8657943276099
 20
-11.97967867055212
 30
0.0
  0
VERTEX
  5
6EC
  8
LAYER_1
 10
76.89709949004188
 20
-11.99572887350757
 30
0.0
  0
VERTEX
  5
6ED
  8
LAYER_1
 10
76.92857353011263
 20
-12.01119963484424
 30
0.0
  0
VERTEX
  5
6EE
  8
LAYER_1
 10
76.9602138093748
 20
-12.02608687417256
 30
0.0
  0
VERTEX
  5
6EF
  8
LAYER_1
 10
76.992017689381
 20
-12.04038651110295
 30
0.0
  0
VERTEX
  5
6F0
  8
LAYER_1
 10
77.02398253168381
 20
-12.05409446524584
 30
0.0
  0
VERTEX
  5
6F1
  8
LAYER_1
 10
77.05610569783587
 20
-12.06720665621167
 30
0.0
  0
VERTEX
  5
6F2
  8
LAYER_1
 10
77.08838454938976
 20
-12.07971900361084
 30
0.0
  0
VERTEX
  5
6F3
  8
LAYER_1
 10
77.12081644789811
 20
-12.09162742705381
 30
0.0
  0
VERTEX
  5
6F4
  8
LAYER_1
 10
77.1533987549135
 20
-12.10292784615098
 30
0.0
  0
VERTEX
  5
6F5
  8
LAYER_1
 10
77.18612883198855
 20
-12.11361618051279
 30
0.0
  0
VERTEX
  5
6F6
  8
LAYER_1
 10
77.21900404067587
 20
-12.12368834974966
 30
0.0
  0
VERTEX
  5
6F7
  8
LAYER_1
 10
77.25202174252809
 20
-12.13314027347203
 30
0.0
  0
VERTEX
  5
6F8
  8
LAYER_1
 10
77.28517929909776
 20
-12.14196787129032
 30
0.0
  0
VERTEX
  5
6F9
  8
LAYER_1
 10
77.31847407193753
 20
-12.15016706281495
 30
0.0
  0
VERTEX
  5
6FA
  8
LAYER_1
 10
77.3519034226
 20
-12.15773376765636
 30
0.0
  0
VERTEX
  5
6FB
  8
LAYER_1
 10
77.38546471263777
 20
-12.16466390542497
 30
0.0
  0
VERTEX
  5
6FC
  8
LAYER_1
 10
77.41915530360347
 20
-12.17095339573121
 30
0.0
  0
VERTEX
  5
6FD
  8
LAYER_1
 10
77.45297255704966
 20
-12.1765981581855
 30
0.0
  0
VERTEX
  5
6FE
  8
LAYER_1
 10
77.48691383452898
 20
-12.18159411239828
 30
0.0
  0
VERTEX
  5
6FF
  8
LAYER_1
 10
77.52097649759403
 20
-12.18593717797997
 30
0.0
  0
VERTEX
  5
700
  8
LAYER_1
 10
77.55515790779744
 20
-12.18962327454099
 30
0.0
  0
VERTEX
  5
701
  8
LAYER_1
 10
77.5894554266918
 20
-12.19264832169178
 30
0.0
  0
VERTEX
  5
702
  8
LAYER_1
 10
77.62386641582971
 20
-12.19500823904276
 30
0.0
  0
VERTEX
  5
703
  8
LAYER_1
 10
77.65838823676377
 20
-12.19669894620436
 30
0.0
  0
VERTEX
  5
704
  8
LAYER_1
 10
77.69301825104661
 20
-12.19771636278701
 30
0.0
  0
VERTEX
  5
705
  8
LAYER_1
 10
77.7277538202308
 20
-12.19805640840113
 30
0.0
  0
VERTEX
  5
706
  8
LAYER_1
 10
77.762489389415
 20
-12.19771636278701
 30
0.0
  0
VERTEX
  5
707
  8
LAYER_1
 10
77.79711940369783
 20
-12.19669894620436
 30
0.0
  0
VERTEX
  5
708
  8
LAYER_1
 10
77.8316412246319
 20
-12.19500823904276
 30
0.0
  0
VERTEX
  5
709
  8
LAYER_1
 10
77.86605221376979
 20
-12.19264832169178
 30
0.0
  0
VERTEX
  5
70A
  8
LAYER_1
 10
77.90034973266414
 20
-12.18962327454099
 30
0.0
  0
VERTEX
  5
70B
  8
LAYER_1
 10
77.93453114286754
 20
-12.18593717797997
 30
0.0
  0
VERTEX
  5
70C
  8
LAYER_1
 10
77.9685938059326
 20
-12.18159411239828
 30
0.0
  0
VERTEX
  5
70D
  8
LAYER_1
 10
78.00253508341193
 20
-12.1765981581855
 30
0.0
  0
VERTEX
  5
70E
  8
LAYER_1
 10
78.03635233685813
 20
-12.17095339573121
 30
0.0
  0
VERTEX
  5
70F
  8
LAYER_1
 10
78.07004292782382
 20
-12.16466390542497
 30
0.0
  0
VERTEX
  5
710
  8
LAYER_1
 10
78.10360421786159
 20
-12.15773376765636
 30
0.0
  0
VERTEX
  5
711
  8
LAYER_1
 10
78.13703356852406
 20
-12.15016706281495
 30
0.0
  0
VERTEX
  5
712
  8
LAYER_1
 10
78.17032834136384
 20
-12.14196787129032
 30
0.0
  0
VERTEX
  5
713
  8
LAYER_1
 10
78.20348589793352
 20
-12.13314027347203
 30
0.0
  0
VERTEX
  5
714
  8
LAYER_1
 10
78.2365035997857
 20
-12.12368834974966
 30
0.0
  0
VERTEX
  5
715
  8
LAYER_1
 10
78.26937880847304
 20
-12.11361618051279
 30
0.0
  0
VERTEX
  5
716
  8
LAYER_1
 10
78.30210888554808
 20
-12.10292784615098
 30
0.0
  0
VERTEX
  5
717
  8
LAYER_1
 10
78.33469119256348
 20
-12.09162742705381
 30
0.0
  0
VERTEX
  5
718
  8
LAYER_1
 10
78.36712309107183
 20
-12.07971900361084
 30
0.0
  0
VERTEX
  5
719
  8
LAYER_1
 10
78.39940194262572
 20
-12.06720665621167
 30
0.0
  0
VERTEX
  5
71A
  8
LAYER_1
 10
78.43152510877776
 20
-12.05409446524584
 30
0.0
  0
VERTEX
  5
71B
  8
LAYER_1
 10
78.46348995108058
 20
-12.04038651110295
 30
0.0
  0
VERTEX
  5
71C
  8
LAYER_1
 10
78.49529383108677
 20
-12.02608687417256
 30
0.0
  0
VERTEX
  5
71D
  8
LAYER_1
 10
78.52693411034895
 20
-12.01119963484424
 30
0.0
  0
VERTEX
  5
71E
  8
LAYER_1
 10
78.5584081504197
 20
-11.99572887350757
 30
0.0
  0
VERTEX
  5
71F
  8
LAYER_1
 10
78.58971331285167
 20
-11.97967867055212
 30
0.0
  0
VERTEX
  5
720
  8
LAYER_1
 10
78.62084695919742
 20
-11.96305310636746
 30
0.0
  0
VERTEX
  5
721
  8
LAYER_1
 10
78.65180645100959
 20
-11.94585626134317
 30
0.0
  0
VERTEX
  5
722
  8
LAYER_1
 10
78.68258914984078
 20
-11.92809221586881
 30
0.0
  0
VERTEX
  5
723
  8
LAYER_1
 10
78.71319241724359
 20
-11.90976505033397
 30
0.0
  0
VERTEX
  5
724
  8
LAYER_1
 10
78.74361361477062
 20
-11.89087884512821
 30
0.0
  0
VERTEX
  5
725
  8
LAYER_1
 10
78.7738501039745
 20
-11.8714376806411
 30
0.0
  0
VERTEX
  5
726
  8
LAYER_1
 10
78.80389924640781
 20
-11.85144563726223
 30
0.0
  0
VERTEX
  5
727
  8
LAYER_1
 10
78.8337584036232
 20
-11.83090679538116
 30
0.0
  0
VERTEX
  5
728
  8
LAYER_1
 10
78.86342493717322
 20
-11.80982523538746
 30
0.0
  0
VERTEX
  5
729
  8
LAYER_1
 10
78.89289620861052
 20
-11.78820503767071
 30
0.0
  0
VERTEX
  5
72A
  8
LAYER_1
 10
78.92216957948769
 20
-11.76605028262048
 30
0.0
  0
VERTEX
  5
72B
  8
LAYER_1
 10
78.95124241135734
 20
-11.74336505062634
 30
0.0
  0
VERTEX
  5
72C
  8
LAYER_1
 10
78.98011206577206
 20
-11.72015342207787
 30
0.0
  0
VERTEX
  5
72D
  8
LAYER_1
 10
79.0087759042845
 20
-11.69641947736464
 30
0.0
  0
VERTEX
  5
72E
  8
LAYER_1
 10
79.03723128844724
 20
-11.67216729687621
 30
0.0
  0
VERTEX
  5
72F
  8
LAYER_1
 10
79.06547557981288
 20
-11.64740096100217
 30
0.0
  0
VERTEX
  5
730
  8
LAYER_1
 10
79.09350613993405
 20
-11.62212455013209
 30
0.0
  0
VERTEX
  5
731
  8
LAYER_1
 10
79.12132033036332
 20
-11.59634214465554
 30
0.0
  0
VERTEX
  5
732
  8
LAYER_1
 10
79.14891551265332
 20
-11.57005782496209
 30
0.0
  0
VERTEX
  5
733
  8
LAYER_1
 10
79.17628904835667
 20
-11.54327567144131
 30
0.0
  0
VERTEX
  5
734
  8
LAYER_1
 10
79.20343829902596
 20
-11.51599976448279
 30
0.0
  0
VERTEX
  5
735
  8
LAYER_1
 10
79.23036062621382
 20
-11.48823418447608
 30
0.0
  0
VERTEX
  5
736
  8
LAYER_1
 10
79.25705339147284
 20
-11.45998301181077
 30
0.0
  0
VERTEX
  5
737
  8
LAYER_1
 10
79.28351395635559
 20
-11.43125032687642
 30
0.0
  0
VERTEX
  5
738
  8
LAYER_1
 10
79.30973968241473
 20
-11.40204021006261
 30
0.0
  0
VERTEX
  5
739
  8
LAYER_1
 10
79.33572793120285
 20
-11.37235674175891
 30
0.0
  0
VERTEX
  5
73A
  8
LAYER_1
 10
79.36147606427257
 20
-11.3422040023549
 30
0.0
  0
VERTEX
  5
73B
  8
LAYER_1
 10
79.38698144317647
 20
-11.31158607224015
 30
0.0
  0
VERTEX
  5
73C
  8
LAYER_1
 10
79.41224142946716
 20
-11.28050703180422
 30
0.0
  0
VERTEX
  5
73D
  8
LAYER_1
 10
79.43725338469726
 20
-11.2489709614367
 30
0.0
  0
VERTEX
  5
73E
  8
LAYER_1
 10
79.46201467041938
 20
-11.21698194152714
 30
0.0
  0
VERTEX
  5
73F
  8
LAYER_1
 10
79.48652264818612
 20
-11.18454405246515
 30
0.0
  0
VERTEX
  5
740
  8
LAYER_1
 10
79.5107746795501
 20
-11.15166137464027
 30
0.0
  0
VERTEX
  5
741
  8
LAYER_1
 10
79.53476812606391
 20
-11.11833798844208
 30
0.0
  0
VERTEX
  5
742
  8
LAYER_1
 10
79.55850034928017
 20
-11.08457797426016
 30
0.0
  0
VERTEX
  5
743
  8
LAYER_1
 10
79.58196871075147
 20
-11.05038541248408
 30
0.0
  0
VERTEX
  5
744
  8
LAYER_1
 10
79.60517057203043
 20
-11.01576438350341
 30
0.0
  0
VERTEX
  5
745
  8
LAYER_1
 10
79.62810329466964
 20
-10.98071896770773
 30
0.0
  0
VERTEX
  5
746
  8
LAYER_1
 10
79.65076424022173
 20
-10.9452532454866
 30
0.0
  0
VERTEX
  5
747
  8
LAYER_1
 10
79.6731507702393
 20
-10.9093712972296
 30
0.0
  0
VERTEX
  5
748
  8
LAYER_1
 10
79.69526024627496
 20
-10.87307720332631
 30
0.0
  0
VERTEX
  5
749
  8
LAYER_1
 10
79.71709002988132
 20
-10.83637504416629
 30
0.0
  0
VERTEX
  5
74A
  8
LAYER_1
 10
79.73863748261097
 20
-10.79926890013912
 30
0.0
  0
VERTEX
  5
74B
  8
LAYER_1
 10
79.75989996601653
 20
-10.76176285163437
 30
0.0
  0
VERTEX
  5
74C
  8
LAYER_1
 10
79.78087484165061
 20
-10.72386097904162
 30
0.0
  0
VERTEX
  5
74D
  8
LAYER_1
 10
79.80155947106581
 20
-10.68556736275043
 30
0.0
  0
VERTEX
  5
74E
  8
LAYER_1
 10
79.82195121581475
 20
-10.64688608315038
 30
0.0
  0
VERTEX
  5
74F
  8
LAYER_1
 10
79.84204743744999
 20
-10.60782122063104
 30
0.0
  0
VERTEX
  5
750
  8
LAYER_1
 10
79.8618454975242
 20
-10.56837685558199
 30
0.0
  0
VERTEX
  5
751
  8
LAYER_1
 10
79.88134275758995
 20
-10.52855706839279
 30
0.0
  0
VERTEX
  5
752
  8
LAYER_1
 10
79.90053657919987
 20
-10.48836593945303
 30
0.0
  0
VERTEX
  5
753
  8
LAYER_1
 10
79.91942432390653
 20
-10.44780754915227
 30
0.0
  0
VERTEX
  5
754
  8
LAYER_1
 10
79.93800335326259
 20
-10.40688597788008
 30
0.0
  0
VERTEX
  5
755
  8
LAYER_1
 10
79.9562710288206
 20
-10.36560530602605
 30
0.0
  0
VERTEX
  5
756
  8
LAYER_1
 10
79.9742247121332
 20
-10.32396961397973
 30
0.0
  0
VERTEX
  5
757
  8
LAYER_1
 10
79.991861764753
 20
-10.28198298213071
 30
0.0
  0
VERTEX
  5
758
  8
LAYER_1
 10
80.0091795482326
 20
-10.23964949086856
 30
0.0
  0
VERTEX
  5
759
  8
LAYER_1
 10
80.0261754241246
 20
-10.19697322058284
 30
0.0
  0
VERTEX
  5
75A
  8
LAYER_1
 10
80.04284675398162
 20
-10.15395825166314
 30
0.0
  0
VERTEX
  5
75B
  8
LAYER_1
 10
80.05919089935628
 20
-10.11060866449903
 30
0.0
  0
VERTEX
  5
75C
  8
LAYER_1
 10
80.07520522180116
 20
-10.06692853948007
 30
0.0
  0
VERTEX
  5
75D
  8
LAYER_1
 10
80.09088708286885
 20
-10.02292195699584
 30
0.0
  0
VERTEX
  5
75E
  8
LAYER_1
 10
80.106233844112
 20
-9.978592997435914
 30
0.0
  0
VERTEX
  5
75F
  8
LAYER_1
 10
80.12124286708318
 20
-9.933945741189866
 30
0.0
  0
VERTEX
  5
760
  8
LAYER_1
 10
80.13591151333503
 20
-9.888984268647267
 30
0.0
  0
VERTEX
  5
761
  8
LAYER_1
 10
80.15023714442015
 20
-9.843712660197689
 30
0.0
  0
VERTEX
  5
762
  8
LAYER_1
 10
80.16421712189113
 20
-9.798134996230706
 30
0.0
  0
VERTEX
  5
763
  8
LAYER_1
 10
80.17784880730058
 20
-9.75225535713589
 30
0.0
  0
VERTEX
  5
764
  8
LAYER_1
 10
80.19112956220113
 20
-9.706077823302817
 30
0.0
  0
VERTEX
  5
765
  8
LAYER_1
 10
80.20405674814536
 20
-9.659606475121052
 30
0.0
  0
VERTEX
  5
766
  8
LAYER_1
 10
80.2166277266859
 20
-9.612845392980176
 30
0.0
  0
VERTEX
  5
767
  8
LAYER_1
 10
80.22883985937533
 20
-9.565798657269756
 30
0.0
  0
VERTEX
  5
768
  8
LAYER_1
 10
80.24069050776627
 20
-9.518470348379367
 30
0.0
  0
VERTEX
  5
769
  8
LAYER_1
 10
80.25217703341136
 20
-9.470864546698582
 30
0.0
  0
VERTEX
  5
76A
  8
LAYER_1
 10
80.26329679786316
 20
-9.422985332616975
 30
0.0
  0
VERTEX
  5
76B
  8
LAYER_1
 10
80.2740471626743
 20
-9.374836786524115
 30
0.0
  0
VERTEX
  5
76C
  8
LAYER_1
 10
80.28442548939736
 20
-9.326422988809579
 30
0.0
  0
VERTEX
  5
76D
  8
LAYER_1
 10
80.29442913958499
 20
-9.277748019862937
 30
0.0
  0
VERTEX
  5
76E
  8
LAYER_1
 10
80.30405547478978
 20
-9.228815960073764
 30
0.0
  0
VERTEX
  5
76F
  8
LAYER_1
 10
80.31330185656432
 20
-9.179630889831628
 30
0.0
  0
VERTEX
  5
770
  8
LAYER_1
 10
80.32216564646123
 20
-9.130196889526108
 30
0.0
  0
VERTEX
  5
771
  8
LAYER_1
 10
80.3306442060331
 20
-9.080518039546773
 30
0.0
  0
VERTEX
  5
772
  8
LAYER_1
 10
80.33873489683259
 20
-9.030598420283196
 30
0.0
  0
VERTEX
  5
773
  8
LAYER_1
 10
80.34643508041225
 20
-8.98044211212495
 30
0.0
  0
VERTEX
  5
774
  8
LAYER_1
 10
80.35374211832469
 20
-8.930053195461609
 30
0.0
  0
VERTEX
  5
775
  8
LAYER_1
 10
80.36065337212256
 20
-8.879435750682743
 30
0.0
  0
VERTEX
  5
776
  8
LAYER_1
 10
80.36716620335844
 20
-8.828593858177927
 30
0.0
  0
VERTEX
  5
777
  8
LAYER_1
 10
80.37327797358492
 20
-8.777531598336735
 30
0.0
  0
VERTEX
  5
778
  8
LAYER_1
 10
80.37898604435463
 20
-8.726253051548738
 30
0.0
  0
VERTEX
  5
779
  8
LAYER_1
 10
80.3842877772202
 20
-8.674762298203508
 30
0.0
  0
VERTEX
  5
77A
  8
LAYER_1
 10
80.38918053373419
 20
-8.623063418690618
 30
0.0
  0
VERTEX
  5
77B
  8
LAYER_1
 10
80.39366167544922
 20
-8.571160493399642
 30
0.0
  0
VERTEX
  5
77C
  8
LAYER_1
 10
80.39772856391791
 20
-8.519057602720153
 30
0.0
  0
VERTEX
  5
77D
  8
LAYER_1
 10
80.40137856069288
 20
-8.466758827041723
 30
0.0
  0
VERTEX
  5
77E
  8
LAYER_1
 10
80.4046090273267
 20
-8.414268246753924
 30
0.0
  0
VERTEX
  5
77F
  8
LAYER_1
 10
80.407417325372
 20
-8.36158994224633
 30
0.0
  0
VERTEX
  5
780
  8
LAYER_1
 10
80.40980081638139
 20
-8.308727993908512
 30
0.0
  0
VERTEX
  5
781
  8
LAYER_1
 10
80.41175686190745
 20
-8.255686482130045
 30
0.0
  0
VERTEX
  5
782
  8
LAYER_1
 10
80.41328282350281
 20
-8.2024694873005
 30
0.0
  0
VERTEX
  5
783
  8
LAYER_1
 10
80.4143760627201
 20
-8.14908108980945
 30
0.0
  0
VERTEX
  5
784
  8
LAYER_1
 10
80.4150339411119
 20
-8.095525370046468
 30
0.0
  0
SEQEND
  5
A13
  8
LAYER_1
  0
POLYLINE
  5
B1
  8
LAYER_1
 66
     1
 10
0.0
 20
0.0
 30
0.0
 70
     1
  0
VERTEX
  5
785
  8
LAYER_1
 10
107.3807831997426
 20
-17.29115974705056
 30
0.0
  0
VERTEX
  5
786
  8
LAYER_1
 10
130.5057831997426
 20
-17.29115974705056
 30
0.0
  0
VERTEX
  5
787
  8
LAYER_1
 10
130.5057831997426
 20
-6.478659747050564
 30
0.0
  0
VERTEX
  5
788
  8
LAYER_1
 10
107.3807831997426
 20
-6.478659747050564
 30
0.0
  0
SEQEND
  5
A14
  8
LAYER_1
  0
POLYLINE
  5
B2
  8
LAYER_1
 66
     1
 10
0.0
 20
0.0
 30
0.0
 70
     1
  0
VERTEX
  5
789
  8
LAYER_1
 10
107.2557831997426
 20
-17.50995974705057
 30
0.0
  0
VERTEX
  5
78A
  8
LAYER_1
 10
130.6307831997426
 20
-17.50995974705057
 30
0.0
  0
VERTEX
  5
78B
  8
LAYER_1
 10
130.6307831997426
 20
-16.75995974705057
 30
0.0
  0
VERTEX
  5
78C
  8
LAYER_1
 10
107.2557831997426
 20
-16.75995974705057
 30
0.0
  0
SEQEND
  5
A15
  8
LAYER_1
  0
POLYLINE
  5
B3
  8
LAYER_1
 66
     1
 10
0.0
 20
0.0
 30
0.0
 70
     1
  0
VERTEX
  5
78D
  8
LAYER_1
 10
109.8182831997426
 20
-12.04115974705056
 30
0.0
  0
VERTEX
  5
78E
  8
LAYER_1
 10
115.0682831997426
 20
-12.04115974705056
 30
0.0
  0
VERTEX
  5
78F
  8
LAYER_1
 10
115.0682831997426
 20
-9.603659747050564
 30
0.0
  0
VERTEX
  5
790
  8
LAYER_1
 10
109.8182831997426
 20
-9.603659747050564
 30
0.0
  0
SEQEND
  5
A16
  8
LAYER_1
  0
POLYLINE
  5
B4
  8
LAYER_1
 66
     1
 10
0.0
 20
0.0
 30
0.0
 70
     1
  0
VERTEX
  5
791
  8
LAYER_1
 10
122.9432831997426
 20
-12.04115974705056
 30
0.0
  0
VERTEX
  5
792
  8
LAYER_1
 10
128.1932831997426
 20
-12.04115974705056
 30
0.0
  0
VERTEX
  5
793
  8
LAYER_1
 10
128.1932831997426
 20
-9.603659747050564
 30
0.0
  0
VERTEX
  5
794
  8
LAYER_1
 10
122.9432831997426
 20
-9.603659747050564
 30
0.0
  0
SEQEND
  5
A17
  8
LAYER_1
  0
POLYLINE
  5
B5
  8
LAYER_1
 66
     1
 10
0.0
 20
0.0
 30
0.0
 70
     1
  0
VERTEX
  5
795
  8
LAYER_1
 10
105.623794510737
 20
-16.8314574848517
 30
0.0
  0
VERTEX
  5
796
  8
LAYER_1
 10
82.24879451073704
 20
-16.83145748485169
 30
0.0
  0
VERTEX
  5
797
  8
LAYER_1
 10
82.24879451073704
 20
-17.51895748485169
 30
0.0
  0
VERTEX
  5
798
  8
LAYER_1
 10
105.623794510737
 20
-17.5189574848517
 30
0.0
  0
SEQEND
  5
A18
  8
LAYER_1
  0
POLYLINE
  5
B6
  8
LAYER_1
 66
     1
 10
0.0
 20
0.0
 30
0.0
 70
     1
  0
VERTEX
  5
799
  8
LAYER_1
 10
84.74841744615694
 20
-29.25367280389548
 30
0.0
  0
VERTEX
  5
79A
  8
LAYER_1
 10
84.74841744615694
 20
-19.25367280389548
 30
0.0
  0
VERTEX
  5
79B
  8
LAYER_1
 10
82.74841744615694
 20
-19.25367280389548
 30
0.0
  0
VERTEX
  5
79C
  8
LAYER_1
 10
82.74841744615694
 20
-29.25367280389548
 30
0.0
  0
SEQEND
  5
A19
  8
LAYER_1
  0
POLYLINE
  5
B7
  8
LAYER_1
 66
     1
 10
0.0
 20
0.0
 30
0.0
 70
     1
  0
VERTEX
  5
79D
  8
LAYER_1
 10
128.1915919587312
 20
38.61613614312657
 30
0.0
  0
VERTEX
  5
79E
  8
LAYER_1
 10
151.3165919587312
 20
38.61613614312657
 30
0.0
  0
VERTEX
  5
79F
  8
LAYER_1
 10
151.3165919587312
 20
47.42863614312657
 30
0.0
  0
VERTEX
  5
7A0
  8
LAYER_1
 10
128.1915919587312
 20
47.42863614312657
 30
0.0
  0
SEQEND
  5
A1A
  8
LAYER_1
  0
POLYLINE
  5
B8
  8
LAYER_1
 66
     1
 10
0.0
 20
0.0
 30
0.0
 70
     1
  0
VERTEX
  5
7A1
  8
LAYER_1
 10
128.0665919587312
 20
47.05363614312657
 30
0.0
  0
VERTEX
  5
7A2
  8
LAYER_1
 10
151.4415919587312
 20
47.05363614312657
 30
0.0
  0
VERTEX
  5
7A3
  8
LAYER_1
 10
151.4415919587312
 20
47.67863614312657
 30
0.0
  0
VERTEX
  5
7A4
  8
LAYER_1
 10
128.0665919587312
 20
47.67863614312657
 30
0.0
  0
SEQEND
  5
A1B
  8
LAYER_1
  0
POLYLINE
  5
B9
  8
LAYER_1
 66
     1
 10
0.0
 20
0.0
 30
0.0
 70
     1
  0
VERTEX
  5
7A5
  8
LAYER_1
 10
101.8737945107371
 20
-5.268957484851697
 30
0.0
  0
VERTEX
  5
7A6
  8
LAYER_1
 10
101.8737945107371
 20
-7.768957484851697
 30
0.0
  0
VERTEX
  5
7A7
  8
LAYER_1
 10
103.998794510737
 20
-7.768957484851697
 30
0.0
  0
VERTEX
  5
7A8
  8
LAYER_1
 10
103.998794510737
 20
-5.268957484851697
 30
0.0
  0
VERTEX
  5
7A9
  8
LAYER_1
 10
105.498794510737
 20
-5.268957484851697
 30
0.0
  0
VERTEX
  5
7AA
  8
LAYER_1
 10
105.498794510737
 20
-17.2689574848517
 30
0.0
  0
VERTEX
  5
7AB
  8
LAYER_1
 10
94.36359356165252
 20
-17.2689574848517
 30
0.0
  0
VERTEX
  5
7AC
  8
LAYER_1
 10
94.24879451073704
 20
-17.2689574848517
 30
0.0
  0
VERTEX
  5
7AD
  8
LAYER_1
 10
94.24879451073704
 20
-15.67910254881443
 30
0.0
  0
VERTEX
  5
7AE
  8
LAYER_1
 10
94.24879451073704
 20
-15.4564574848517
 30
0.0
 42
0.4142135623730951
  0
VERTEX
  5
7AF
  8
LAYER_1
 10
93.87379451073704
 20
-15.0814574848517
 30
0.0
 42
0.4142135623730951
  0
VERTEX
  5
7B0
  8
LAYER_1
 10
93.49879451073704
 20
-15.4564574848517
 30
0.0
  0
VERTEX
  5
7B1
  8
LAYER_1
 10
93.49879451073704
 20
-15.67910254881443
 30
0.0
  0
VERTEX
  5
7B2
  8
LAYER_1
 10
93.49879451073704
 20
-17.2689574848517
 30
0.0
  0
VERTEX
  5
7B3
  8
LAYER_1
 10
93.23041773816473
 20
-17.2689574848517
 30
0.0
  0
VERTEX
  5
7B4
  8
LAYER_1
 10
82.37379451073704
 20
-17.26895748485169
 30
0.0
  0
VERTEX
  5
7B5
  8
LAYER_1
 10
82.37379451073704
 20
-5.26895748485169
 30
0.0
  0
VERTEX
  5
7B6
  8
LAYER_1
 10
83.8737690292719
 20
-5.268962141121527
 30
0.0
  0
VERTEX
  5
7B7
  8
LAYER_1
 10
83.8737690292719
 20
-7.768962141121527
 30
0.0
  0
VERTEX
  5
7B8
  8
LAYER_1
 10
85.9987690292719
 20
-7.768962141121527
 30
0.0
  0
VERTEX
  5
7B9
  8
LAYER_1
 10
85.9987690292719
 20
-5.268962141121527
 30
0.0
  0
SEQEND
  5
A1C
  8
LAYER_1
  0
POLYLINE
  5
BA
  8
LAYER_1
 66
     1
 10
0.0
 20
0.0
 30
0.0
 70
     1
  0
VERTEX
  5
7BA
  8
LAYER_1
 10
35.54489824441502
 20
-2.493171176873521
 30
0.0
 42
-0.4142135623730951
  0
VERTEX
  5
7BB
  8
LAYER_1
 10
35.67039824441502
 20
-2.618671176873509
 30
0.0
 42
-0.4142135623730951
  0
VERTEX
  5
7BC
  8
LAYER_1
 10
35.54489824441502
 20
-2.744171176873525
 30
0.0
 42
-0.4142135623730951
  0
VERTEX
  5
7BD
  8
LAYER_1
 10
35.41939824441501
 20
-2.618671176873509
 30
0.0
 42
-0.4142135623730951
  0
SEQEND
  5
A1D
  8
LAYER_1
  0
POLYLINE
  5
BB
  8
LAYER_1
 66
     1
 10
0.0
 20
0.0
 30
0.0
 70
     1
  0
VERTEX
  5
7BE
  8
LAYER_1
 10
33.54489824441502
 20
-2.493171176873521
 30
0.0
 42
-0.4142135623730951
  0
VERTEX
  5
7BF
  8
LAYER_1
 10
33.67039824441502
 20
-2.618671176873509
 30
0.0
 42
-0.4142135623730951
  0
VERTEX
  5
7C0
  8
LAYER_1
 10
33.54489824441502
 20
-2.744171176873525
 30
0.0
 42
-0.4142135623730951
  0
VERTEX
  5
7C1
  8
LAYER_1
 10
33.41939824441501
 20
-2.618671176873509
 30
0.0
 42
-0.4142135623730951
  0
SEQEND
  5
A1E
  8
LAYER_1
  0
POLYLINE
  5
BC
  8
LAYER_1
 66
     1
 10
0.0
 20
0.0
 30
0.0
 70
     1
  0
VERTEX
  5
7C2
  8
LAYER_1
 10
33.54489824441502
 20
-7.493171176873521
 30
0.0
 42
-0.4142135623730951
  0
VERTEX
  5
7C3
  8
LAYER_1
 10
33.67039824441502
 20
-7.618671176873509
 30
0.0
 42
-0.4142135623730951
  0
VERTEX
  5
7C4
  8
LAYER_1
 10
33.54489824441502
 20
-7.744171176873525
 30
0.0
 42
-0.4142135623730951
  0
VERTEX
  5
7C5
  8
LAYER_1
 10
33.41939824441501
 20
-7.618671176873509
 30
0.0
 42
-0.4142135623730951
  0
SEQEND
  5
A1F
  8
LAYER_1
  0
POLYLINE
  5
BD
  8
LAYER_1
 66
     1
 10
0.0
 20
0.0
 30
0.0
 70
     1
  0
VERTEX
  5
7C6
  8
LAYER_1
 10
35.54489824441502
 20
-7.493171176873521
 30
0.0
 42
-0.4142135623730951
  0
VERTEX
  5
7C7
  8
LAYER_1
 10
35.67039824441502
 20
-7.618671176873509
 30
0.0
 42
-0.4142135623730951
  0
VERTEX
  5
7C8
  8
LAYER_1
 10
35.54489824441502
 20
-7.744171176873525
 30
0.0
 42
-0.4142135623730951
  0
VERTEX
  5
7C9
  8
LAYER_1
 10
35.41939824441501
 20
-7.618671176873509
 30
0.0
 42
-0.4142135623730951
  0
SEQEND
  5
A20
  8
LAYER_1
  0
POLYLINE
  5
BE
  8
LAYER_1
 66
     1
 10
0.0
 20
0.0
 30
0.0
 70
     1
  0
VERTEX
  5
7CA
  8
LAYER_1
 10
2.513598244787083
 20
-7.337371177002904
 30
0.0
  0
VERTEX
  5
7CB
  8
LAYER_1
 10
11.57609824423147
 20
-6.556171176796706
 30
0.0
  0
VERTEX
  5
7CC
  8
LAYER_1
 10
11.59228218287744
 20
-6.555054149702364
 30
0.0
  0
VERTEX
  5
7CD
  8
LAYER_1
 10
11.60870035217273
 20
-6.554486438661624
 30
0.0
  0
VERTEX
  5
7CE
  8
LAYER_1
 10
11.62528659015973
 20
-6.554493855294263
 30
0.0
  0
VERTEX
  5
7CF
  8
LAYER_1
 10
11.64197473488084
 20
-6.55510221122006
 30
0.0
  0
VERTEX
  5
7D0
  8
LAYER_1
 10
11.65869862437846
 20
-6.556337318058793
 30
0.0
  0
VERTEX
  5
7D1
  8
LAYER_1
 10
11.67539209669498
 20
-6.558224987430243
 30
0.0
  0
VERTEX
  5
7D2
  8
LAYER_1
 10
11.69198898987282
 20
-6.560791030954185
 30
0.0
  0
VERTEX
  5
7D3
  8
LAYER_1
 10
11.70842314195435
 20
-6.564061260250401
 30
0.0
  0
VERTEX
  5
7D4
  8
LAYER_1
 10
11.72462839098199
 20
-6.568061486938669
 30
0.0
  0
VERTEX
  5
7D5
  8
LAYER_1
 10
11.74053857499814
 20
-6.572817522638767
 30
0.0
  0
VERTEX
  5
7D6
  8
LAYER_1
 10
11.75608753204519
 20
-6.578355178970473
 30
0.0
  0
VERTEX
  5
7D7
  8
LAYER_1
 10
11.77120910016554
 20
-6.584700267553568
 30
0.0
  0
VERTEX
  5
7D8
  8
LAYER_1
 10
11.7858371174016
 20
-6.59187860000783
 30
0.0
  0
VERTEX
  5
7D9
  8
LAYER_1
 10
11.79990542179575
 20
-6.599915987953036
 30
0.0
  0
VERTEX
  5
7DA
  8
LAYER_1
 10
11.8133478513904
 20
-6.608838243008966
 30
0.0
  0
VERTEX
  5
7DB
  8
LAYER_1
 10
11.82609824422796
 20
-6.618671176795399
 30
0.0
  0
VERTEX
  5
7DC
  8
LAYER_1
 10
17.76359824433073
 20
-11.55617117684016
 30
0.0
  0
VERTEX
  5
7DD
  8
LAYER_1
 10
17.7864850647138
 20
-11.57496573520098
 30
0.0
  0
VERTEX
  5
7DE
  8
LAYER_1
 10
17.80976673704181
 20
-11.59361140055542
 30
0.0
  0
VERTEX
  5
7DF
  8
LAYER_1
 10
17.83343253050492
 20
-11.61209630295665
 30
0.0
  0
VERTEX
  5
7E0
  8
LAYER_1
 10
17.85747171429334
 20
-11.63040857245784
 30
0.0
  0
VERTEX
  5
7E1
  8
LAYER_1
 10
17.88187355759724
 20
-11.64853633911215
 30
0.0
  0
VERTEX
  5
7E2
  8
LAYER_1
 10
17.90662732960682
 20
-11.66646773297276
 30
0.0
  0
VERTEX
  5
7E3
  8
LAYER_1
 10
17.93172229951226
 20
-11.68419088409283
 30
0.0
  0
VERTEX
  5
7E4
  8
LAYER_1
 10
17.95714773650375
 20
-11.70169392252554
 30
0.0
  0
VERTEX
  5
7E5
  8
LAYER_1
 10
17.98289290977146
 20
-11.71896497832405
 30
0.0
  0
VERTEX
  5
7E6
  8
LAYER_1
 10
18.0089470885056
 20
-11.73599218154153
 30
0.0
  0
VERTEX
  5
7E7
  8
LAYER_1
 10
18.03529954189634
 20
-11.75276366223115
 30
0.0
  0
VERTEX
  5
7E8
  8
LAYER_1
 10
18.06193953913388
 20
-11.76926755044608
 30
0.0
  0
VERTEX
  5
7E9
  8
LAYER_1
 10
18.0888563494084
 20
-11.78549197623949
 30
0.0
  0
VERTEX
  5
7EA
  8
LAYER_1
 10
18.11603924191008
 20
-11.80142506966455
 30
0.0
  0
VERTEX
  5
7EB
  8
LAYER_1
 10
18.14347748582911
 20
-11.81705496077442
 30
0.0
  0
VERTEX
  5
7EC
  8
LAYER_1
 10
18.17116035035567
 20
-11.83236977962228
 30
0.0
  0
VERTEX
  5
7ED
  8
LAYER_1
 10
18.19907710467997
 20
-11.8473576562613
 30
0.0
  0
VERTEX
  5
7EE
  8
LAYER_1
 10
18.22721701799217
 20
-11.86200672074464
 30
0.0
  0
VERTEX
  5
7EF
  8
LAYER_1
 10
18.25556935948246
 20
-11.87630510312547
 30
0.0
  0
VERTEX
  5
7F0
  8
LAYER_1
 10
18.28412339834104
 20
-11.89024093345697
 30
0.0
  0
VERTEX
  5
7F1
  8
LAYER_1
 10
18.31286840375809
 20
-11.9038023417923
 30
0.0
  0
VERTEX
  5
7F2
  8
LAYER_1
 10
18.34179364492379
 20
-11.91697745818463
 30
0.0
  0
VERTEX
  5
7F3
  8
LAYER_1
 10
18.37088839102833
 20
-11.92975441268712
 30
0.0
  0
VERTEX
  5
7F4
  8
LAYER_1
 10
18.4001419112619
 20
-11.94212133535296
 30
0.0
  0
VERTEX
  5
7F5
  8
LAYER_1
 10
18.42954347481469
 20
-11.9540663562353
 30
0.0
  0
VERTEX
  5
7F6
  8
LAYER_1
 10
18.45908235087688
 20
-11.96557760538732
 30
0.0
  0
VERTEX
  5
7F7
  8
LAYER_1
 10
18.48874780863865
 20
-11.97664321286218
 30
0.0
  0
VERTEX
  5
7F8
  8
LAYER_1
 10
18.5185291172902
 20
-11.98725130871306
 30
0.0
  0
VERTEX
  5
7F9
  8
LAYER_1
 10
18.54841554602171
 20
-11.99739002299312
 30
0.0
  0
VERTEX
  5
7FA
  8
LAYER_1
 10
18.57839636402336
 20
-12.00704748575554
 30
0.0
  0
VERTEX
  5
7FB
  8
LAYER_1
 10
18.60846084048534
 20
-12.01621182705348
 30
0.0
  0
VERTEX
  5
7FC
  8
LAYER_1
 10
18.63859824459784
 20
-12.02487117694011
 30
0.0
  0
VERTEX
  5
7FD
  8
LAYER_1
 10
18.66633809354618
 20
-12.03236781252833
 30
0.0
  0
VERTEX
  5
7FE
  8
LAYER_1
 10
18.69412154062266
 20
-12.03941678387582
 30
0.0
  0
VERTEX
  5
7FF
  8
LAYER_1
 10
18.72194167053734
 20
-12.04601449201574
 30
0.0
  0
VERTEX
  5
800
  8
LAYER_1
 10
18.74979156800024
 20
-12.05215733798125
 30
0.0
  0
VERTEX
  5
801
  8
LAYER_1
 10
18.77766431772141
 20
-12.0578417228055
 30
0.0
  0
VERTEX
  5
802
  8
LAYER_1
 10
18.80555300441088
 20
-12.06306404752166
 30
0.0
  0
VERTEX
  5
803
  8
LAYER_1
 10
18.83345071277869
 20
-12.06782071316287
 30
0.0
  0
VERTEX
  5
804
  8
LAYER_1
 10
18.86135052753489
 20
-12.07210812076231
 30
0.0
  0
VERTEX
  5
805
  8
LAYER_1
 10
18.8892455333895
 20
-12.07592267135313
 30
0.0
  0
VERTEX
  5
806
  8
LAYER_1
 10
18.91712881505257
 20
-12.07926076596849
 30
0.0
  0
VERTEX
  5
807
  8
LAYER_1
 10
18.94499345723413
 20
-12.08211880564155
 30
0.0
  0
VERTEX
  5
808
  8
LAYER_1
 10
18.97283254464423
 20
-12.08449319140546
 30
0.0
  0
VERTEX
  5
809
  8
LAYER_1
 10
19.00063916199289
 20
-12.08638032429338
 30
0.0
  0
VERTEX
  5
80A
  8
LAYER_1
 10
19.02840639399016
 20
-12.08777660533848
 30
0.0
  0
VERTEX
  5
80B
  8
LAYER_1
 10
19.05612732534608
 20
-12.08867843557391
 30
0.0
  0
VERTEX
  5
80C
  8
LAYER_1
 10
19.08379504077068
 20
-12.08908221603282
 30
0.0
  0
VERTEX
  5
80D
  8
LAYER_1
 10
19.111402624974
 20
-12.08898434774839
 30
0.0
  0
VERTEX
  5
80E
  8
LAYER_1
 10
19.13894316266609
 20
-12.08838123175376
 30
0.0
  0
VERTEX
  5
80F
  8
LAYER_1
 10
19.16640973855698
 20
-12.0872692690821
 30
0.0
  0
VERTEX
  5
810
  8
LAYER_1
 10
19.1937954373567
 20
-12.08564486076656
 30
0.0
  0
VERTEX
  5
811
  8
LAYER_1
 10
19.22109334377529
 20
-12.08350440784031
 30
0.0
  0
VERTEX
  5
812
  8
LAYER_1
 10
19.24829654252281
 20
-12.08084431133649
 30
0.0
  0
VERTEX
  5
813
  8
LAYER_1
 10
19.27539811830927
 20
-12.07766097228827
 30
0.0
  0
VERTEX
  5
814
  8
LAYER_1
 10
19.30239115584472
 20
-12.07395079172882
 30
0.0
  0
VERTEX
  5
815
  8
LAYER_1
 10
19.32926873983919
 20
-12.06971017069128
 30
0.0
  0
VERTEX
  5
816
  8
LAYER_1
 10
19.35602395500274
 20
-12.06493551020881
 30
0.0
  0
VERTEX
  5
817
  8
LAYER_1
 10
19.38264988604539
 20
-12.05962321131458
 30
0.0
  0
VERTEX
  5
818
  8
LAYER_1
 10
19.40913961767717
 20
-12.05376967504174
 30
0.0
  0
VERTEX
  5
819
  8
LAYER_1
 10
19.43548623460814
 20
-12.04737130242345
 30
0.0
  0
VERTEX
  5
81A
  8
LAYER_1
 10
19.46168282154833
 20
-12.04042449449287
 30
0.0
  0
VERTEX
  5
81B
  8
LAYER_1
 10
19.48772246320777
 20
-12.03292565228316
 30
0.0
  0
VERTEX
  5
81C
  8
LAYER_1
 10
19.5135982442965
 20
-12.02487117682747
 30
0.0
  0
VERTEX
  5
81D
  8
LAYER_1
 10
32.76359824434026
 20
-7.743671176827416
 30
0.0
  0
VERTEX
  5
81E
  8
LAYER_1
 10
32.79137353419468
 20
-7.742186077314695
 30
0.0
 42
0.3300106339593533
  0
VERTEX
  5
81F
  8
LAYER_1
 10
32.9578770673798
 20
-7.517390094179145
 30
0.0
 42
0.3519260222810296
  0
VERTEX
  5
820
  8
LAYER_1
 10
32.77352737247408
 20
-7.287913414331594
 30
0.0
  0
VERTEX
  5
821
  8
LAYER_1
 10
32.7715690181245
 20
-7.287239007515727
 30
0.0
  0
VERTEX
  5
822
  8
LAYER_1
 10
32.76972526716212
 20
-7.286147076456023
 30
0.0
  0
VERTEX
  5
823
  8
LAYER_1
 10
32.76804127694086
 20
-7.284709830006907
 30
0.0
  0
VERTEX
  5
824
  8
LAYER_1
 10
32.76656220481465
 20
-7.282999477022807
 30
0.0
  0
VERTEX
  5
825
  8
LAYER_1
 10
32.76533320813742
 20
-7.281088226358149
 30
0.0
  0
VERTEX
  5
826
  8
LAYER_1
 10
32.76439944426309
 20
-7.279048286867358
 30
0.0
  0
VERTEX
  5
827
  8
LAYER_1
 10
32.7638060705456
 20
-7.276951867404859
 30
0.0
  0
VERTEX
  5
828
  8
LAYER_1
 10
32.76359824433886
 20
-7.274871176825084
 30
0.0
  0
VERTEX
  5
829
  8
LAYER_1
 10
32.76359824420454
 20
-1.899871176713855
 30
0.0
  0
VERTEX
  5
82A
  8
LAYER_1
 10
32.81844369402624
 20
-1.83488147969457
 30
0.0
  0
VERTEX
  5
82B
  8
LAYER_1
 10
32.84959678671434
 20
-1.80448821853545
 30
0.0
  0
VERTEX
  5
82C
  8
LAYER_1
 10
32.8885982445945
 20
-1.774871177010322
 30
0.0
  0
VERTEX
  5
82D
  8
LAYER_1
 10
32.90316133628372
 20
-1.762575768644444
 30
0.0
  0
VERTEX
  5
82E
  8
LAYER_1
 10
32.9179728167685
 20
-1.750896154125274
 30
0.0
  0
VERTEX
  5
82F
  8
LAYER_1
 10
32.93302729899705
 20
-1.739812276864031
 30
0.0
  0
VERTEX
  5
830
  8
LAYER_1
 10
32.94831939591762
 20
-1.729304080271936
 30
0.0
  0
VERTEX
  5
831
  8
LAYER_1
 10
32.96384372047844
 20
-1.719351507760209
 30
0.0
  0
VERTEX
  5
832
  8
LAYER_1
 10
32.97959488562773
 20
-1.709934502740069
 30
0.0
  0
VERTEX
  5
833
  8
LAYER_1
 10
32.99556750431373
 20
-1.701033008622737
 30
0.0
  0
VERTEX
  5
834
  8
LAYER_1
 10
33.01175618948469
 20
-1.692626968819431
 30
0.0
  0
VERTEX
  5
835
  8
LAYER_1
 10
33.0281555540888
 20
-1.684696326741373
 30
0.0
  0
VERTEX
  5
836
  8
LAYER_1
 10
33.04476021107433
 20
-1.677221025799782
 30
0.0
  0
VERTEX
  5
837
  8
LAYER_1
 10
33.06156477338951
 20
-1.670181009405877
 30
0.0
  0
VERTEX
  5
838
  8
LAYER_1
 10
33.07856385398254
 20
-1.66355622097088
 30
0.0
  0
VERTEX
  5
839
  8
LAYER_1
 10
33.09575206580168
 20
-1.657326603906009
 30
0.0
  0
VERTEX
  5
83A
  8
LAYER_1
 10
33.11312402179515
 20
-1.651472101622484
 30
0.0
  0
VERTEX
  5
83B
  8
LAYER_1
 10
33.1306743349112
 20
-1.645972657531526
 30
0.0
  0
VERTEX
  5
83C
  8
LAYER_1
 10
33.14839761809804
 20
-1.640808215044354
 30
0.0
  0
VERTEX
  5
83D
  8
LAYER_1
 10
33.16628848430391
 20
-1.635958717572188
 30
0.0
  0
VERTEX
  5
83E
  8
LAYER_1
 10
33.18434154647705
 20
-1.631404108526248
 30
0.0
  0
VERTEX
  5
83F
  8
LAYER_1
 10
33.22091271051804
 20
-1.623099329357926
 30
0.0
  0
VERTEX
  5
840
  8
LAYER_1
 10
33.25806801380686
 20
-1.615733424829146
 30
0.0
  0
VERTEX
  5
841
  8
LAYER_1
 10
33.29576435992939
 20
-1.609145942229669
 30
0.0
  0
VERTEX
  5
842
  8
LAYER_1
 10
33.33395865247147
 20
-1.603176428849251
 30
0.0
  0
VERTEX
  5
843
  8
LAYER_1
 10
33.37260779501895
 20
-1.597664431977654
 30
0.0
  0
VERTEX
  5
844
  8
LAYER_1
 10
33.45109824447358
 20
-1.587371176919955
 30
0.0
  0
VERTEX
  5
845
  8
LAYER_1
 10
33.54215230323764
 20
-1.575906051890213
 30
0.0
  0
VERTEX
  5
846
  8
LAYER_1
 10
33.6349919114842
 20
-1.564668131305023
 30
0.0
  0
VERTEX
  5
847
  8
LAYER_1
 10
33.72793728418636
 20
-1.554022228325171
 30
0.0
  0
VERTEX
  5
848
  8
LAYER_1
 10
33.81930863631722
 20
-1.544333156111446
 30
0.0
  0
VERTEX
  5
849
  8
LAYER_1
 10
33.90098918260176
 20
-1.536574115419404
 30
0.0
  0
VERTEX
  5
84A
  8
LAYER_1
 10
33.94100012069831
 20
-1.533260570035273
 30
0.0
  0
VERTEX
  5
84B
  8
LAYER_1
 10
33.98065272821976
 20
-1.530408294096281
 30
0.0
  0
VERTEX
  5
84C
  8
LAYER_1
 10
34.02009292475767
 20
-1.528080252205339
 30
0.0
  0
VERTEX
  5
84D
  8
LAYER_1
 10
34.05946662990358
 20
-1.526339408965356
 30
0.0
  0
VERTEX
  5
84E
  8
LAYER_1
 10
34.09891976324902
 20
-1.525248728979243
 30
0.0
  0
VERTEX
  5
84F
  8
LAYER_1
 10
34.13859824438556
 20
-1.52487117684991
 30
0.0
  0
VERTEX
  5
850
  8
LAYER_1
 10
71.45109824441502
 20
-1.524871176873528
 30
0.0
  0
VERTEX
  5
851
  8
LAYER_1
 10
71.45109824441502
 20
-31.52487117687351
 30
0.0
  0
VERTEX
  5
852
  8
LAYER_1
 10
11.4510982444158
 20
-31.52487117687351
 30
0.0
  0
VERTEX
  5
853
  8
LAYER_1
 10
2.451098244462706
 20
-15.77487117688539
 30
0.0
  0
VERTEX
  5
854
  8
LAYER_1
 10
2.446309982634244
 20
-15.76616086020622
 30
0.0
  0
VERTEX
  5
855
  8
LAYER_1
 10
2.441818720765989
 20
-15.75732567252735
 30
0.0
  0
VERTEX
  5
856
  8
LAYER_1
 10
2.433681561747307
 20
-15.73930339880725
 30
0.0
  0
VERTEX
  5
857
  8
LAYER_1
 10
2.426595497081093
 20
-15.72084978499858
 30
0.0
  0
VERTEX
  5
858
  8
LAYER_1
 10
2.420469256441774
 20
-15.70201026037483
 30
0.0
  0
VERTEX
  5
859
  8
LAYER_1
 10
2.415211569503783
 20
-15.68283025420948
 30
0.0
  0
VERTEX
  5
85A
  8
LAYER_1
 10
2.41073116594155
 20
-15.663355195776
 30
0.0
  0
VERTEX
  5
85B
  8
LAYER_1
 10
2.406936775429504
 20
-15.64363051434789
 30
0.0
  0
VERTEX
  5
85C
  8
LAYER_1
 10
2.403737127642076
 20
-15.62370163919863
 30
0.0
  0
VERTEX
  5
85D
  8
LAYER_1
 10
2.401040952253697
 20
-15.60361399960169
 30
0.0
  0
VERTEX
  5
85E
  8
LAYER_1
 10
2.398756978938796
 20
-15.58341302483056
 30
0.0
  0
VERTEX
  5
85F
  8
LAYER_1
 10
2.395060557227152
 20
-15.54285278685967
 30
0.0
  0
VERTEX
  5
860
  8
LAYER_1
 10
2.391917699902588
 20
-15.50238435947382
 30
0.0
  0
VERTEX
  5
861
  8
LAYER_1
 10
2.388598244360544
 20
-15.46237117686087
 30
0.0
  0
VERTEX
  5
862
  8
LAYER_1
 10
1.701098244684964
 20
-7.993671176965176
 30
0.0
  0
VERTEX
  5
863
  8
LAYER_1
 10
1.699287513055982
 20
-7.968106786358597
 30
0.0
  0
VERTEX
  5
864
  8
LAYER_1
 10
1.69852621651847
 20
-7.941890031627691
 30
0.0
  0
VERTEX
  5
865
  8
LAYER_1
 10
1.698864425598513
 20
-7.91516558053042
 30
0.0
  0
VERTEX
  5
866
  8
LAYER_1
 10
1.700352210822195
 20
-7.888078100824748
 30
0.0
  0
VERTEX
  5
867
  8
LAYER_1
 10
1.701542841527302
 20
-7.874443433918124
 30
0.0
  0
VERTEX
  5
868
  8
LAYER_1
 10
1.7030396427156
 20
-7.860772260268635
 30
0.0
  0
VERTEX
  5
869
  8
LAYER_1
 10
1.70484887320285
 20
-7.847082663346026
 30
0.0
  0
VERTEX
  5
86A
  8
LAYER_1
 10
1.706976791804813
 20
-7.833392726620043
 30
0.0
  0
VERTEX
  5
86B
  8
LAYER_1
 10
1.709429657337249
 20
-7.819720533560432
 30
0.0
  0
VERTEX
  5
86C
  8
LAYER_1
 10
1.712213728615918
 20
-7.806084167636937
 30
0.0
  0
VERTEX
  5
86D
  8
LAYER_1
 10
1.715335264456581
 20
-7.792501712319304
 30
0.0
  0
VERTEX
  5
86E
  8
LAYER_1
 10
1.718800523674998
 20
-7.778991251077278
 30
0.0
  0
VERTEX
  5
86F
  8
LAYER_1
 10
1.722615765086931
 20
-7.765570867380604
 30
0.0
  0
VERTEX
  5
870
  8
LAYER_1
 10
1.72678724750814
 20
-7.752258644699028
 30
0.0
  0
VERTEX
  5
871
  8
LAYER_1
 10
1.731321229754385
 20
-7.739072666502294
 30
0.0
  0
VERTEX
  5
872
  8
LAYER_1
 10
1.736223970641426
 20
-7.726031016260148
 30
0.0
  0
VERTEX
  5
873
  8
LAYER_1
 10
1.741501728985025
 20
-7.713151777442336
 30
0.0
  0
VERTEX
  5
874
  8
LAYER_1
 10
1.747160763600941
 20
-7.700453033518603
 30
0.0
  0
VERTEX
  5
875
  8
LAYER_1
 10
1.753207333304936
 20
-7.687952867958693
 30
0.0
  0
VERTEX
  5
876
  8
LAYER_1
 10
1.75964769691277
 20
-7.675669364232353
 30
0.0
  0
VERTEX
  5
877
  8
LAYER_1
 10
1.766488113240203
 20
-7.663620605809327
 30
0.0
  0
VERTEX
  5
878
  8
LAYER_1
 10
1.773734841102997
 20
-7.651824676159361
 30
0.0
  0
VERTEX
  5
879
  8
LAYER_1
 10
1.781394139316911
 20
-7.640299658752201
 30
0.0
  0
VERTEX
  5
87A
  8
LAYER_1
 10
1.789472266697706
 20
-7.629063637057591
 30
0.0
  0
VERTEX
  5
87B
  8
LAYER_1
 10
1.797975482061142
 20
-7.618134694545277
 30
0.0
  0
VERTEX
  5
87C
  8
LAYER_1
 10
1.806910044222981
 20
-7.607530914685004
 30
0.0
  0
VERTEX
  5
87D
  8
LAYER_1
 10
1.816282211998983
 20
-7.597270380946517
 30
0.0
  0
VERTEX
  5
87E
  8
LAYER_1
 10
1.826098244204907
 20
-7.587371176799561
 30
0.0
  0
VERTEX
  5
87F
  8
LAYER_1
 10
1.842357496384287
 20
-7.572301824029829
 30
0.0
  0
VERTEX
  5
880
  8
LAYER_1
 10
1.859375074499388
 20
-7.557785033148652
 30
0.0
  0
VERTEX
  5
881
  8
LAYER_1
 10
1.877108856426565
 20
-7.543812366372182
 30
0.0
  0
VERTEX
  5
882
  8
LAYER_1
 10
1.895516720042175
 20
-7.530375385916571
 30
0.0
  0
VERTEX
  5
883
  8
LAYER_1
 10
1.914556543222574
 20
-7.51746565399797
 30
0.0
  0
VERTEX
  5
884
  8
LAYER_1
 10
1.934186203844116
 20
-7.505074732832529
 30
0.0
  0
VERTEX
  5
885
  8
LAYER_1
 10
1.954363579783157
 20
-7.493194184636401
 30
0.0
  0
VERTEX
  5
886
  8
LAYER_1
 10
1.975046548916054
 20
-7.481815571625738
 30
0.0
  0
VERTEX
  5
887
  8
LAYER_1
 10
1.996192989119163
 20
-7.470930456016691
 30
0.0
  0
VERTEX
  5
888
  8
LAYER_1
 10
2.017760778268838
 20
-7.46053040002541
 30
0.0
  0
VERTEX
  5
889
  8
LAYER_1
 10
2.039707794241435
 20
-7.450606965868049
 30
0.0
  0
VERTEX
  5
88A
  8
LAYER_1
 10
2.061991914913311
 20
-7.441151715760759
 30
0.0
  0
VERTEX
  5
88B
  8
LAYER_1
 10
2.084571018160821
 20
-7.43215621191969
 30
0.0
  0
VERTEX
  5
88C
  8
LAYER_1
 10
2.107402981860321
 20
-7.423612016560993
 30
0.0
  0
VERTEX
  5
88D
  8
LAYER_1
 10
2.130445683888166
 20
-7.41551069190082
 30
0.0
  0
VERTEX
  5
88E
  8
LAYER_1
 10
2.153657002120712
 20
-7.407843800155325
 30
0.0
  0
VERTEX
  5
88F
  8
LAYER_1
 10
2.176994814434315
 20
-7.400602903540657
 30
0.0
  0
VERTEX
  5
890
  8
LAYER_1
 10
2.200416998705331
 20
-7.393779564272966
 30
0.0
  0
VERTEX
  5
891
  8
LAYER_1
 10
2.223881432810114
 20
-7.387365344568408
 30
0.0
  0
VERTEX
  5
892
  8
LAYER_1
 10
2.247345994625022
 20
-7.38135180664313
 30
0.0
  0
VERTEX
  5
893
  8
LAYER_1
 10
2.27076856202641
 20
-7.375730512713285
 30
0.0
  0
VERTEX
  5
894
  8
LAYER_1
 10
2.294107012890634
 20
-7.370493024995024
 30
0.0
  0
VERTEX
  5
895
  8
LAYER_1
 10
2.317319225094049
 20
-7.365630905704501
 30
0.0
  0
VERTEX
  5
896
  8
LAYER_1
 10
2.34036307651301
 20
-7.361135717057865
 30
0.0
  0
VERTEX
  5
897
  8
LAYER_1
 10
2.385777208502998
 20
-7.35321238056086
 30
0.0
  0
VERTEX
  5
898
  8
LAYER_1
 10
2.430012431871442
 20
-7.346655513233225
 30
0.0
  0
VERTEX
  5
899
  8
LAYER_1
 10
2.472731769629188
 20
-7.341397612804169
 30
0.0
  0
SEQEND
  5
A21
  8
LAYER_1
  0
POLYLINE
  5
BF
  8
LAYER_1
 66
     1
 10
0.0
 20
0.0
 30
0.0
 70
     1
  0
VERTEX
  5
89A
  8
LAYER_1
 10
5.251227273263673
 20
-17.15303017469198
 30
0.0
  0
VERTEX
  5
89B
  8
LAYER_1
 10
4.594895000119799
 20
-17.48624502105733
 30
0.0
  0
VERTEX
  5
89C
  8
LAYER_1
 10
4.58381711017757
 20
-17.49156475482164
 30
0.0
  0
VERTEX
  5
89D
  8
LAYER_1
 10
11.53142369774535
 20
-29.64986556935404
 30
0.0
  0
VERTEX
  5
89E
  8
LAYER_1
 10
12.2081393162827
 20
-29.32246682035027
 30
0.0
  0
VERTEX
  5
89F
  8
LAYER_1
 10
5.253489940292972
 20
-17.15181887971775
 30
0.0
  0
SEQEND
  5
A22
  8
LAYER_1
  0
POLYLINE
  5
C0
  8
LAYER_1
 66
     1
 10
0.0
 20
0.0
 30
0.0
 70
     1
  0
VERTEX
  5
8A0
  8
LAYER_1
 10
4.083222836410108
 20
-16.09536100841465
 30
0.0
  0
VERTEX
  5
8A1
  8
LAYER_1
 10
4.006757088945683
 20
-15.31341831958412
 30
0.0
  0
VERTEX
  5
8A2
  8
LAYER_1
 10
3.436725602012153
 20
-9.120844983715113
 30
0.0
  0
VERTEX
  5
8A3
  8
LAYER_1
 10
4.183568145666833
 20
-9.052097511125844
 30
0.0
  0
VERTEX
  5
8A4
  8
LAYER_1
 10
4.753404135922203
 20
-15.24254705638996
 30
0.0
  0
VERTEX
  5
8A5
  8
LAYER_1
 10
4.82966231115271
 20
-16.02236710081958
 30
0.0
  0
SEQEND
  5
A23
  8
LAYER_1
  0
POLYLINE
  5
C1
  8
LAYER_1
 66
     1
 10
0.0
 20
0.0
 30
0.0
  0
VERTEX
  5
8A6
  8
LAYER_1
 10
11.57609824423147
 20
-6.556171176796706
 30
0.0
  0
VERTEX
  5
8A7
  8
LAYER_1
 10
2.513598244787083
 20
-7.337371177002904
 30
0.0
  0
SEQEND
  5
A24
  8
LAYER_1
  0
POLYLINE
  5
C2
  8
LAYER_1
 66
     1
 10
0.0
 20
0.0
 30
0.0
 70
     1
  0
VERTEX
  5
8A8
  8
LAYER_1
 10
11.1433394420796
 20
-8.349965391930194
 30
0.0
  0
VERTEX
  5
8A9
  8
LAYER_1
 10
3.427071997848294
 20
-9.015086505374452
 30
0.0
  0
VERTEX
  5
8AA
  8
LAYER_1
 10
3.335334484586859
 20
-8.019327282165243
 30
0.0
  0
VERTEX
  5
8AB
  8
LAYER_1
 10
11.05745655620739
 20
-7.353660152601272
 30
0.0
  0
SEQEND
  5
A25
  8
LAYER_1
  0
POLYLINE
  5
C3
  8
LAYER_1
 66
     1
 10
0.0
 20
0.0
 30
0.0
 70
     1
  0
VERTEX
  5
8AC
  8
LAYER_1
 10
14.34117233752537
 20
-14.21517699935736
 30
0.0
  0
VERTEX
  5
8AD
  8
LAYER_1
 10
19.66730643315903
 20
-12.49425282651572
 30
0.0
  0
VERTEX
  5
8AE
  8
LAYER_1
 10
31.82607708411098
 20
-8.56563932382257
 30
0.0
  0
VERTEX
  5
8AF
  8
LAYER_1
 10
32.05667095549299
 20
-9.279310443093244
 30
0.0
  0
VERTEX
  5
8B0
  8
LAYER_1
 10
19.89790030454104
 20
-13.2079239457864
 30
0.0
  0
VERTEX
  5
8B1
  8
LAYER_1
 10
14.57176620890738
 20
-14.92884811862805
 30
0.0
  0
SEQEND
  5
A26
  8
LAYER_1
  0
POLYLINE
  5
C4
  8
LAYER_1
 66
     1
 10
0.0
 20
0.0
 30
0.0
 70
     1
  0
VERTEX
  5
8B2
  8
LAYER_1
 10
14.33431653538126
 20
-15.59661998880173
 30
0.0
  0
VERTEX
  5
8B3
  8
LAYER_1
 10
11.47962529193838
 20
-16.51899974260195
 30
0.0
  0
VERTEX
  5
8B4
  8
LAYER_1
 10
11.24903094926148
 20
-15.80532877561128
 30
0.0
  0
VERTEX
  5
8B5
  8
LAYER_1
 10
14.10372219270435
 20
-14.88294902181105
 30
0.0
  0
SEQEND
  5
A27
  8
LAYER_1
  0
POLYLINE
  5
C5
  8
LAYER_1
 66
     1
 10
0.0
 20
0.0
 30
0.0
 70
     1
  0
VERTEX
  5
8B6
  8
LAYER_1
 10
68.32609824441502
 20
-13.39987117687351
 30
0.0
  0
VERTEX
  5
8B7
  8
LAYER_1
 10
47.32609824441501
 20
-13.39987117687351
 30
0.0
  0
VERTEX
  5
8B8
  8
LAYER_1
 10
47.32609824441501
 20
-12.39987117687351
 30
0.0
  0
VERTEX
  5
8B9
  8
LAYER_1
 10
68.32609824441502
 20
-12.39987117687351
 30
0.0
  0
SEQEND
  5
A28
  8
LAYER_1
  0
POLYLINE
  5
C6
  8
LAYER_1
 66
     1
 10
0.0
 20
0.0
 30
0.0
 70
     1
  0
VERTEX
  5
8BA
  8
LAYER_1
 10
36.88859824441501
 20
-9.587371176873514
 30
0.0
  0
VERTEX
  5
8BB
  8
LAYER_1
 10
32.38859824441501
 20
-9.587371176873514
 30
0.0
  0
VERTEX
  5
8BC
  8
LAYER_1
 10
32.38859824441501
 20
-8.837371176873514
 30
0.0
  0
VERTEX
  5
8BD
  8
LAYER_1
 10
36.88859824441501
 20
-8.837371176873514
 30
0.0
  0
SEQEND
  5
A29
  8
LAYER_1
  0
POLYLINE
  5
C7
  8
LAYER_1
 66
     1
 10
0.0
 20
0.0
 30
0.0
 70
     1
  0
VERTEX
  5
8BE
  8
LAYER_1
 10
67.88859824441502
 20
-3.337371176873514
 30
0.0
  0
VERTEX
  5
8BF
  8
LAYER_1
 10
36.63859824441501
 20
-3.337371176873514
 30
0.0
  0
VERTEX
  5
8C0
  8
LAYER_1
 10
36.63859824441501
 20
-2.587371176873514
 30
0.0
  0
VERTEX
  5
8C1
  8
LAYER_1
 10
67.88859824441502
 20
-2.587371176873514
 30
0.0
  0
SEQEND
  5
A2A
  8
LAYER_1
  0
POLYLINE
  5
C8
  8
LAYER_1
 66
     1
 10
0.0
 20
0.0
 30
0.0
 70
     1
  0
VERTEX
  5
8C2
  8
LAYER_1
 10
70.70109824441502
 20
-11.71237117687351
 30
0.0
  0
VERTEX
  5
8C3
  8
LAYER_1
 10
69.70109824441502
 20
-11.71237117687351
 30
0.0
  0
VERTEX
  5
8C4
  8
LAYER_1
 10
69.70109824441502
 20
-3.712371176873514
 30
0.0
  0
VERTEX
  5
8C5
  8
LAYER_1
 10
70.70109824441502
 20
-3.712371176873514
 30
0.0
  0
SEQEND
  5
A2B
  8
LAYER_1
  0
POLYLINE
  5
C9
  8
LAYER_1
 66
     1
 10
0.0
 20
0.0
 30
0.0
 70
     1
  0
VERTEX
  5
8C6
  8
LAYER_1
 10
70.70109824441502
 20
-28.58737117687351
 30
0.0
  0
VERTEX
  5
8C7
  8
LAYER_1
 10
69.70109824441502
 20
-28.58737117687351
 30
0.0
  0
VERTEX
  5
8C8
  8
LAYER_1
 10
69.70109824441502
 20
-14.33737117687351
 30
0.0
  0
VERTEX
  5
8C9
  8
LAYER_1
 10
70.70109824441502
 20
-14.33737117687351
 30
0.0
  0
SEQEND
  5
A2C
  8
LAYER_1
  0
POLYLINE
  5
CA
  8
LAYER_1
 66
     1
 10
0.0
 20
0.0
 30
0.0
 70
     1
  0
VERTEX
  5
8CA
  8
LAYER_1
 10
37.50070804476814
 20
-25.58650309281694
 30
0.0
  0
VERTEX
  5
8CB
  8
LAYER_1
 10
36.54982816775395
 20
-25.89606319924133
 30
0.0
  0
VERTEX
  5
8CC
  8
LAYER_1
 10
32.13859665120634
 20
-12.34602495178914
 30
0.0
  0
VERTEX
  5
8CD
  8
LAYER_1
 10
33.08947652822053
 20
-12.03646484536475
 30
0.0
  0
SEQEND
  5
A2D
  8
LAYER_1
  0
POLYLINE
  5
CB
  8
LAYER_1
 66
     1
 10
0.0
 20
0.0
 30
0.0
 70
     1
  0
VERTEX
  5
8CE
  8
LAYER_1
 10
60.57609824441501
 20
-29.99487117687351
 30
0.0
  0
VERTEX
  5
8CF
  8
LAYER_1
 10
69.57609824441502
 20
-29.99487117687351
 30
0.0
  0
VERTEX
  5
8D0
  8
LAYER_1
 10
69.57609824441502
 20
-30.77487117687351
 30
0.0
  0
VERTEX
  5
8D1
  8
LAYER_1
 10
60.57609824441501
 20
-30.77487117687351
 30
0.0
  0
VERTEX
  5
8D2
  8
LAYER_1
 10
22.26359824441501
 20
-30.77487117687351
 30
0.0
  0
VERTEX
  5
8D3
  8
LAYER_1
 10
22.26359824441501
 20
-29.77487117687351
 30
0.0
  0
VERTEX
  5
8D4
  8
LAYER_1
 10
60.57609824441501
 20
-29.77487117687351
 30
0.0
  0
SEQEND
  5
A2E
  8
LAYER_1
  0
POLYLINE
  5
CC
  8
LAYER_1
 66
     1
 10
0.0
 20
0.0
 30
0.0
 70
     1
  0
VERTEX
  5
8D5
  8
LAYER_1
 10
13.46599686962745
 20
-14.01221391638715
 30
0.0
  0
VERTEX
  5
8D6
  8
LAYER_1
 10
12.75253965691459
 20
-14.24346876634277
 30
0.0
  0
VERTEX
  5
8D7
  8
LAYER_1
 10
10.90250085726955
 20
-8.535811064639919
 30
0.0
  0
VERTEX
  5
8D8
  8
LAYER_1
 10
11.6159580699824
 20
-8.304556214684297
 30
0.0
  0
SEQEND
  5
A2F
  8
LAYER_1
  0
POLYLINE
  5
CD
  8
LAYER_1
 66
     1
 10
0.0
 20
0.0
 30
0.0
 70
     1
  0
VERTEX
  5
8D9
  8
LAYER_1
 10
2.513598244787083
 20
-7.337371177002897
 30
0.0
  0
VERTEX
  5
8DA
  8
LAYER_1
 10
11.57609824423147
 20
-6.556171176796713
 30
0.0
  0
VERTEX
  5
8DB
  8
LAYER_1
 10
11.59228218287744
 20
-6.555054149702372
 30
0.0
  0
VERTEX
  5
8DC
  8
LAYER_1
 10
11.60870035217273
 20
-6.554486438661631
 30
0.0
  0
VERTEX
  5
8DD
  8
LAYER_1
 10
11.62528659015973
 20
-6.55449385529427
 30
0.0
  0
VERTEX
  5
8DE
  8
LAYER_1
 10
11.64197473488084
 20
-6.555102211220067
 30
0.0
  0
VERTEX
  5
8DF
  8
LAYER_1
 10
11.65869862437845
 20
-6.5563373180588
 30
0.0
  0
VERTEX
  5
8E0
  8
LAYER_1
 10
11.67539209669498
 20
-6.55822498743025
 30
0.0
  0
VERTEX
  5
8E1
  8
LAYER_1
 10
11.69198898987281
 20
-6.560791030954192
 30
0.0
  0
VERTEX
  5
8E2
  8
LAYER_1
 10
11.70842314195435
 20
-6.564061260250408
 30
0.0
  0
VERTEX
  5
8E3
  8
LAYER_1
 10
11.72462839098199
 20
-6.568061486938676
 30
0.0
  0
VERTEX
  5
8E4
  8
LAYER_1
 10
11.74053857499814
 20
-6.572817522638774
 30
0.0
  0
VERTEX
  5
8E5
  8
LAYER_1
 10
11.75608753204519
 20
-6.57835517897048
 30
0.0
  0
VERTEX
  5
8E6
  8
LAYER_1
 10
11.77120910016554
 20
-6.584700267553576
 30
0.0
  0
VERTEX
  5
8E7
  8
LAYER_1
 10
11.7858371174016
 20
-6.591878600007837
 30
0.0
  0
VERTEX
  5
8E8
  8
LAYER_1
 10
11.79990542179575
 20
-6.599915987953043
 30
0.0
  0
VERTEX
  5
8E9
  8
LAYER_1
 10
11.8133478513904
 20
-6.608838243008973
 30
0.0
  0
VERTEX
  5
8EA
  8
LAYER_1
 10
11.82609824422796
 20
-6.618671176795406
 30
0.0
  0
VERTEX
  5
8EB
  8
LAYER_1
 10
17.76359824433073
 20
-11.55617117684017
 30
0.0
  0
VERTEX
  5
8EC
  8
LAYER_1
 10
17.7864850647138
 20
-11.57496573520099
 30
0.0
  0
VERTEX
  5
8ED
  8
LAYER_1
 10
17.80976673704181
 20
-11.59361140055543
 30
0.0
  0
VERTEX
  5
8EE
  8
LAYER_1
 10
17.83343253050492
 20
-11.61209630295665
 30
0.0
  0
VERTEX
  5
8EF
  8
LAYER_1
 10
17.85747171429334
 20
-11.63040857245784
 30
0.0
  0
VERTEX
  5
8F0
  8
LAYER_1
 10
17.88187355759724
 20
-11.64853633911215
 30
0.0
  0
VERTEX
  5
8F1
  8
LAYER_1
 10
17.90662732960682
 20
-11.66646773297276
 30
0.0
  0
VERTEX
  5
8F2
  8
LAYER_1
 10
17.93172229951226
 20
-11.68419088409283
 30
0.0
  0
VERTEX
  5
8F3
  8
LAYER_1
 10
17.95714773650375
 20
-11.70169392252554
 30
0.0
  0
VERTEX
  5
8F4
  8
LAYER_1
 10
17.98289290977146
 20
-11.71896497832405
 30
0.0
  0
VERTEX
  5
8F5
  8
LAYER_1
 10
18.0089470885056
 20
-11.73599218154153
 30
0.0
  0
VERTEX
  5
8F6
  8
LAYER_1
 10
18.03529954189634
 20
-11.75276366223115
 30
0.0
  0
VERTEX
  5
8F7
  8
LAYER_1
 10
18.06193953913388
 20
-11.76926755044608
 30
0.0
  0
VERTEX
  5
8F8
  8
LAYER_1
 10
18.0888563494084
 20
-11.78549197623949
 30
0.0
  0
VERTEX
  5
8F9
  8
LAYER_1
 10
18.11603924191008
 20
-11.80142506966455
 30
0.0
  0
VERTEX
  5
8FA
  8
LAYER_1
 10
18.14347748582911
 20
-11.81705496077442
 30
0.0
  0
VERTEX
  5
8FB
  8
LAYER_1
 10
18.17116035035567
 20
-11.83236977962229
 30
0.0
  0
VERTEX
  5
8FC
  8
LAYER_1
 10
18.19907710467996
 20
-11.8473576562613
 30
0.0
  0
VERTEX
  5
8FD
  8
LAYER_1
 10
18.22721701799216
 20
-11.86200672074465
 30
0.0
  0
VERTEX
  5
8FE
  8
LAYER_1
 10
18.25556935948246
 20
-11.87630510312548
 30
0.0
  0
VERTEX
  5
8FF
  8
LAYER_1
 10
18.28412339834104
 20
-11.89024093345698
 30
0.0
  0
VERTEX
  5
900
  8
LAYER_1
 10
18.31286840375809
 20
-11.9038023417923
 30
0.0
  0
VERTEX
  5
901
  8
LAYER_1
 10
18.34179364492379
 20
-11.91697745818463
 30
0.0
  0
VERTEX
  5
902
  8
LAYER_1
 10
18.37088839102833
 20
-11.92975441268713
 30
0.0
  0
VERTEX
  5
903
  8
LAYER_1
 10
18.4001419112619
 20
-11.94212133535296
 30
0.0
  0
VERTEX
  5
904
  8
LAYER_1
 10
18.42954347481469
 20
-11.95406635623531
 30
0.0
  0
VERTEX
  5
905
  8
LAYER_1
 10
18.45908235087688
 20
-11.96557760538732
 30
0.0
  0
VERTEX
  5
906
  8
LAYER_1
 10
18.48874780863865
 20
-11.97664321286219
 30
0.0
  0
VERTEX
  5
907
  8
LAYER_1
 10
18.5185291172902
 20
-11.98725130871307
 30
0.0
  0
VERTEX
  5
908
  8
LAYER_1
 10
18.54841554602171
 20
-11.99739002299313
 30
0.0
  0
VERTEX
  5
909
  8
LAYER_1
 10
18.57839636402336
 20
-12.00704748575555
 30
0.0
  0
VERTEX
  5
90A
  8
LAYER_1
 10
18.60846084048535
 20
-12.01621182705349
 30
0.0
  0
VERTEX
  5
90B
  8
LAYER_1
 10
18.63859824459785
 20
-12.02487117694011
 30
0.0
  0
VERTEX
  5
90C
  8
LAYER_1
 10
18.66633809354618
 20
-12.03236781252833
 30
0.0
  0
VERTEX
  5
90D
  8
LAYER_1
 10
18.69412154062267
 20
-12.03941678387583
 30
0.0
  0
VERTEX
  5
90E
  8
LAYER_1
 10
18.72194167053734
 20
-12.04601449201574
 30
0.0
  0
VERTEX
  5
90F
  8
LAYER_1
 10
18.74979156800025
 20
-12.05215733798125
 30
0.0
  0
VERTEX
  5
910
  8
LAYER_1
 10
18.77766431772142
 20
-12.0578417228055
 30
0.0
  0
VERTEX
  5
911
  8
LAYER_1
 10
18.80555300441089
 20
-12.06306404752166
 30
0.0
  0
VERTEX
  5
912
  8
LAYER_1
 10
18.8334507127787
 20
-12.06782071316288
 30
0.0
  0
VERTEX
  5
913
  8
LAYER_1
 10
18.86135052753489
 20
-12.07210812076232
 30
0.0
  0
VERTEX
  5
914
  8
LAYER_1
 10
18.88924553338951
 20
-12.07592267135314
 30
0.0
  0
VERTEX
  5
915
  8
LAYER_1
 10
18.91712881505257
 20
-12.07926076596849
 30
0.0
  0
VERTEX
  5
916
  8
LAYER_1
 10
18.94499345723413
 20
-12.08211880564155
 30
0.0
  0
VERTEX
  5
917
  8
LAYER_1
 10
18.97283254464423
 20
-12.08449319140546
 30
0.0
  0
VERTEX
  5
918
  8
LAYER_1
 10
19.00063916199289
 20
-12.08638032429338
 30
0.0
  0
VERTEX
  5
919
  8
LAYER_1
 10
19.02840639399016
 20
-12.08777660533848
 30
0.0
  0
VERTEX
  5
91A
  8
LAYER_1
 10
19.05612732534608
 20
-12.08867843557391
 30
0.0
  0
VERTEX
  5
91B
  8
LAYER_1
 10
19.08379504077068
 20
-12.08908221603282
 30
0.0
  0
VERTEX
  5
91C
  8
LAYER_1
 10
19.111402624974
 20
-12.08898434774839
 30
0.0
  0
VERTEX
  5
91D
  8
LAYER_1
 10
19.13894316266609
 20
-12.08838123175376
 30
0.0
  0
VERTEX
  5
91E
  8
LAYER_1
 10
19.16640973855698
 20
-12.0872692690821
 30
0.0
  0
VERTEX
  5
91F
  8
LAYER_1
 10
19.1937954373567
 20
-12.08564486076656
 30
0.0
  0
VERTEX
  5
920
  8
LAYER_1
 10
19.22109334377529
 20
-12.08350440784031
 30
0.0
  0
VERTEX
  5
921
  8
LAYER_1
 10
19.2482965425228
 20
-12.08084431133649
 30
0.0
  0
VERTEX
  5
922
  8
LAYER_1
 10
19.27539811830926
 20
-12.07766097228828
 30
0.0
  0
VERTEX
  5
923
  8
LAYER_1
 10
19.30239115584471
 20
-12.07395079172882
 30
0.0
  0
VERTEX
  5
924
  8
LAYER_1
 10
19.32926873983919
 20
-12.06971017069128
 30
0.0
  0
VERTEX
  5
925
  8
LAYER_1
 10
19.35602395500273
 20
-12.06493551020881
 30
0.0
  0
VERTEX
  5
926
  8
LAYER_1
 10
19.38264988604538
 20
-12.05962321131458
 30
0.0
  0
VERTEX
  5
927
  8
LAYER_1
 10
19.40913961767717
 20
-12.05376967504174
 30
0.0
  0
VERTEX
  5
928
  8
LAYER_1
 10
19.43548623460813
 20
-12.04737130242345
 30
0.0
  0
VERTEX
  5
929
  8
LAYER_1
 10
19.46168282154832
 20
-12.04042449449287
 30
0.0
  0
VERTEX
  5
92A
  8
LAYER_1
 10
19.48772246320776
 20
-12.03292565228316
 30
0.0
  0
VERTEX
  5
92B
  8
LAYER_1
 10
19.5135982442965
 20
-12.02487117682748
 30
0.0
  0
VERTEX
  5
92C
  8
LAYER_1
 10
32.76359824434027
 20
-7.743671176827409
 30
0.0
  0
VERTEX
  5
92D
  8
LAYER_1
 10
32.79137353419468
 20
-7.742186077314702
 30
0.0
 42
0.3300106339593533
  0
VERTEX
  5
92E
  8
LAYER_1
 10
32.95787706737979
 20
-7.517390094179152
 30
0.0
 42
0.3519260222810296
  0
VERTEX
  5
92F
  8
LAYER_1
 10
32.77352737247408
 20
-7.287913414331602
 30
0.0
  0
VERTEX
  5
930
  8
LAYER_1
 10
32.7715690181245
 20
-7.287239007515731
 30
0.0
  0
VERTEX
  5
931
  8
LAYER_1
 10
32.76972526716212
 20
-7.286147076456024
 30
0.0
  0
VERTEX
  5
932
  8
LAYER_1
 10
32.76804127694086
 20
-7.284709830006908
 30
0.0
  0
VERTEX
  5
933
  8
LAYER_1
 10
32.76656220481465
 20
-7.282999477022809
 30
0.0
  0
VERTEX
  5
934
  8
LAYER_1
 10
32.76533320813742
 20
-7.281088226358151
 30
0.0
  0
VERTEX
  5
935
  8
LAYER_1
 10
32.76439944426309
 20
-7.279048286867362
 30
0.0
  0
VERTEX
  5
936
  8
LAYER_1
 10
32.7638060705456
 20
-7.276951867404867
 30
0.0
  0
VERTEX
  5
937
  8
LAYER_1
 10
32.76359824433886
 20
-7.274871176825091
 30
0.0
  0
VERTEX
  5
938
  8
LAYER_1
 10
32.76359824420454
 20
-1.899871176713848
 30
0.0
  0
VERTEX
  5
939
  8
LAYER_1
 10
32.81844369402625
 20
-1.834881479694563
 30
0.0
  0
VERTEX
  5
93A
  8
LAYER_1
 10
32.84959678671435
 20
-1.804488218535457
 30
0.0
  0
VERTEX
  5
93B
  8
LAYER_1
 10
32.8885982445945
 20
-1.774871177010315
 30
0.0
  0
VERTEX
  5
93C
  8
LAYER_1
 10
32.90316133628372
 20
-1.762575768644437
 30
0.0
  0
VERTEX
  5
93D
  8
LAYER_1
 10
32.9179728167685
 20
-1.750896154125267
 30
0.0
  0
VERTEX
  5
93E
  8
LAYER_1
 10
32.93302729899705
 20
-1.739812276864024
 30
0.0
  0
VERTEX
  5
93F
  8
LAYER_1
 10
32.94831939591762
 20
-1.729304080271929
 30
0.0
  0
VERTEX
  5
940
  8
LAYER_1
 10
32.96384372047844
 20
-1.719351507760202
 30
0.0
  0
VERTEX
  5
941
  8
LAYER_1
 10
32.97959488562773
 20
-1.709934502740062
 30
0.0
  0
VERTEX
  5
942
  8
LAYER_1
 10
32.99556750431373
 20
-1.70103300862273
 30
0.0
  0
VERTEX
  5
943
  8
LAYER_1
 10
33.01175618948468
 20
-1.692626968819424
 30
0.0
  0
VERTEX
  5
944
  8
LAYER_1
 10
33.0281555540888
 20
-1.684696326741366
 30
0.0
  0
VERTEX
  5
945
  8
LAYER_1
 10
33.04476021107433
 20
-1.677221025799775
 30
0.0
  0
VERTEX
  5
946
  8
LAYER_1
 10
33.06156477338949
 20
-1.670181009405871
 30
0.0
  0
VERTEX
  5
947
  8
LAYER_1
 10
33.07856385398253
 20
-1.663556220970873
 30
0.0
  0
VERTEX
  5
948
  8
LAYER_1
 10
33.09575206580167
 20
-1.657326603906002
 30
0.0
  0
VERTEX
  5
949
  8
LAYER_1
 10
33.11312402179514
 20
-1.651472101622478
 30
0.0
  0
VERTEX
  5
94A
  8
LAYER_1
 10
33.13067433491119
 20
-1.64597265753152
 30
0.0
  0
VERTEX
  5
94B
  8
LAYER_1
 10
33.14839761809803
 20
-1.640808215044348
 30
0.0
  0
VERTEX
  5
94C
  8
LAYER_1
 10
33.16628848430391
 20
-1.635958717572183
 30
0.0
  0
VERTEX
  5
94D
  8
LAYER_1
 10
33.18434154647704
 20
-1.631404108526243
 30
0.0
  0
VERTEX
  5
94E
  8
LAYER_1
 10
33.22091271051804
 20
-1.623099329357922
 30
0.0
  0
VERTEX
  5
94F
  8
LAYER_1
 10
33.25806801380686
 20
-1.615733424829144
 30
0.0
  0
VERTEX
  5
950
  8
LAYER_1
 10
33.29576435992939
 20
-1.609145942229667
 30
0.0
  0
VERTEX
  5
951
  8
LAYER_1
 10
33.33395865247147
 20
-1.603176428849252
 30
0.0
  0
VERTEX
  5
952
  8
LAYER_1
 10
33.37260779501896
 20
-1.597664431977657
 30
0.0
  0
VERTEX
  5
953
  8
LAYER_1
 10
33.45109824447359
 20
-1.587371176919962
 30
0.0
  0
VERTEX
  5
954
  8
LAYER_1
 10
33.54215230323764
 20
-1.575906051890218
 30
0.0
  0
VERTEX
  5
955
  8
LAYER_1
 10
33.6349919114842
 20
-1.564668131305023
 30
0.0
  0
VERTEX
  5
956
  8
LAYER_1
 10
33.72793728418636
 20
-1.554022228325167
 30
0.0
  0
VERTEX
  5
957
  8
LAYER_1
 10
33.81930863631722
 20
-1.544333156111438
 30
0.0
  0
VERTEX
  5
958
  8
LAYER_1
 10
33.90098918260176
 20
-1.536574115419399
 30
0.0
  0
VERTEX
  5
959
  8
LAYER_1
 10
33.94100012069831
 20
-1.533260570035269
 30
0.0
  0
VERTEX
  5
95A
  8
LAYER_1
 10
33.98065272821977
 20
-1.530408294096279
 30
0.0
  0
VERTEX
  5
95B
  8
LAYER_1
 10
34.02009292475768
 20
-1.528080252205338
 30
0.0
  0
VERTEX
  5
95C
  8
LAYER_1
 10
34.05946662990358
 20
-1.526339408965355
 30
0.0
  0
VERTEX
  5
95D
  8
LAYER_1
 10
34.09891976324902
 20
-1.52524872897924
 30
0.0
  0
VERTEX
  5
95E
  8
LAYER_1
 10
34.13859824438556
 20
-1.524871176849903
 30
0.0
  0
VERTEX
  5
95F
  8
LAYER_1
 10
71.45109824441502
 20
-1.524871176873521
 30
0.0
  0
VERTEX
  5
960
  8
LAYER_1
 10
71.45109824441502
 20
-31.52487117687351
 30
0.0
  0
VERTEX
  5
961
  8
LAYER_1
 10
11.4510982444158
 20
-31.52487117687351
 30
0.0
  0
VERTEX
  5
962
  8
LAYER_1
 10
2.451098244462706
 20
-15.7748711768854
 30
0.0
  0
VERTEX
  5
963
  8
LAYER_1
 10
2.446309982634244
 20
-15.76616086020623
 30
0.0
  0
VERTEX
  5
964
  8
LAYER_1
 10
2.441818720765989
 20
-15.75732567252735
 30
0.0
  0
VERTEX
  5
965
  8
LAYER_1
 10
2.433681561747307
 20
-15.73930339880725
 30
0.0
  0
VERTEX
  5
966
  8
LAYER_1
 10
2.426595497081093
 20
-15.72084978499858
 30
0.0
  0
VERTEX
  5
967
  8
LAYER_1
 10
2.420469256441774
 20
-15.70201026037483
 30
0.0
  0
VERTEX
  5
968
  8
LAYER_1
 10
2.415211569503783
 20
-15.68283025420948
 30
0.0
  0
VERTEX
  5
969
  8
LAYER_1
 10
2.41073116594155
 20
-15.66335519577601
 30
0.0
  0
VERTEX
  5
96A
  8
LAYER_1
 10
2.406936775429504
 20
-15.64363051434789
 30
0.0
  0
VERTEX
  5
96B
  8
LAYER_1
 10
2.403737127642076
 20
-15.62370163919863
 30
0.0
  0
VERTEX
  5
96C
  8
LAYER_1
 10
2.401040952253697
 20
-15.60361399960169
 30
0.0
  0
VERTEX
  5
96D
  8
LAYER_1
 10
2.398756978938796
 20
-15.58341302483057
 30
0.0
  0
VERTEX
  5
96E
  8
LAYER_1
 10
2.395060557227152
 20
-15.54285278685968
 30
0.0
  0
VERTEX
  5
96F
  8
LAYER_1
 10
2.391917699902588
 20
-15.50238435947383
 30
0.0
  0
VERTEX
  5
970
  8
LAYER_1
 10
2.388598244360544
 20
-15.46237117686087
 30
0.0
  0
VERTEX
  5
971
  8
LAYER_1
 10
1.701098244684964
 20
-7.993671176965169
 30
0.0
  0
VERTEX
  5
972
  8
LAYER_1
 10
1.699287513055982
 20
-7.968106786358592
 30
0.0
  0
VERTEX
  5
973
  8
LAYER_1
 10
1.69852621651847
 20
-7.941890031627689
 30
0.0
  0
VERTEX
  5
974
  8
LAYER_1
 10
1.698864425598513
 20
-7.91516558053042
 30
0.0
  0
VERTEX
  5
975
  8
LAYER_1
 10
1.700352210822195
 20
-7.888078100824749
 30
0.0
  0
VERTEX
  5
976
  8
LAYER_1
 10
1.701542841527302
 20
-7.874443433918124
 30
0.0
  0
VERTEX
  5
977
  8
LAYER_1
 10
1.7030396427156
 20
-7.860772260268636
 30
0.0
  0
VERTEX
  5
978
  8
LAYER_1
 10
1.70484887320285
 20
-7.847082663346029
 30
0.0
  0
VERTEX
  5
979
  8
LAYER_1
 10
1.706976791804813
 20
-7.833392726620047
 30
0.0
  0
VERTEX
  5
97A
  8
LAYER_1
 10
1.709429657337249
 20
-7.819720533560435
 30
0.0
  0
VERTEX
  5
97B
  8
LAYER_1
 10
1.712213728615918
 20
-7.806084167636941
 30
0.0
  0
VERTEX
  5
97C
  8
LAYER_1
 10
1.715335264456581
 20
-7.792501712319309
 30
0.0
  0
VERTEX
  5
97D
  8
LAYER_1
 10
1.718800523674998
 20
-7.778991251077283
 30
0.0
  0
VERTEX
  5
97E
  8
LAYER_1
 10
1.722615765086931
 20
-7.765570867380609
 30
0.0
  0
VERTEX
  5
97F
  8
LAYER_1
 10
1.72678724750814
 20
-7.752258644699033
 30
0.0
  0
VERTEX
  5
980
  8
LAYER_1
 10
1.731321229754385
 20
-7.739072666502299
 30
0.0
  0
VERTEX
  5
981
  8
LAYER_1
 10
1.736223970641426
 20
-7.726031016260154
 30
0.0
  0
VERTEX
  5
982
  8
LAYER_1
 10
1.741501728985025
 20
-7.713151777442341
 30
0.0
  0
VERTEX
  5
983
  8
LAYER_1
 10
1.747160763600941
 20
-7.70045303351861
 30
0.0
  0
VERTEX
  5
984
  8
LAYER_1
 10
1.753207333304936
 20
-7.687952867958701
 30
0.0
  0
VERTEX
  5
985
  8
LAYER_1
 10
1.75964769691277
 20
-7.67566936423236
 30
0.0
  0
VERTEX
  5
986
  8
LAYER_1
 10
1.766488113240203
 20
-7.663620605809334
 30
0.0
  0
VERTEX
  5
987
  8
LAYER_1
 10
1.773734841102997
 20
-7.651824676159368
 30
0.0
  0
VERTEX
  5
988
  8
LAYER_1
 10
1.781394139316911
 20
-7.640299658752208
 30
0.0
  0
VERTEX
  5
989
  8
LAYER_1
 10
1.789472266697706
 20
-7.629063637057598
 30
0.0
  0
VERTEX
  5
98A
  8
LAYER_1
 10
1.797975482061142
 20
-7.618134694545284
 30
0.0
  0
VERTEX
  5
98B
  8
LAYER_1
 10
1.806910044222981
 20
-7.607530914685011
 30
0.0
  0
VERTEX
  5
98C
  8
LAYER_1
 10
1.816282211998983
 20
-7.597270380946524
 30
0.0
  0
VERTEX
  5
98D
  8
LAYER_1
 10
1.826098244204907
 20
-7.587371176799568
 30
0.0
  0
VERTEX
  5
98E
  8
LAYER_1
 10
1.842357496384287
 20
-7.572301824029834
 30
0.0
  0
VERTEX
  5
98F
  8
LAYER_1
 10
1.859375074499388
 20
-7.557785033148656
 30
0.0
  0
VERTEX
  5
990
  8
LAYER_1
 10
1.877108856426565
 20
-7.543812366372185
 30
0.0
  0
VERTEX
  5
991
  8
LAYER_1
 10
1.895516720042175
 20
-7.530375385916573
 30
0.0
  0
VERTEX
  5
992
  8
LAYER_1
 10
1.914556543222574
 20
-7.517465653997971
 30
0.0
  0
VERTEX
  5
993
  8
LAYER_1
 10
1.934186203844116
 20
-7.505074732832529
 30
0.0
  0
VERTEX
  5
994
  8
LAYER_1
 10
1.954363579783157
 20
-7.493194184636401
 30
0.0
  0
VERTEX
  5
995
  8
LAYER_1
 10
1.975046548916054
 20
-7.481815571625738
 30
0.0
  0
VERTEX
  5
996
  8
LAYER_1
 10
1.996192989119163
 20
-7.47093045601669
 30
0.0
  0
VERTEX
  5
997
  8
LAYER_1
 10
2.017760778268838
 20
-7.46053040002541
 30
0.0
  0
VERTEX
  5
998
  8
LAYER_1
 10
2.039707794241435
 20
-7.450606965868047
 30
0.0
  0
VERTEX
  5
999
  8
LAYER_1
 10
2.061991914913311
 20
-7.441151715760755
 30
0.0
  0
VERTEX
  5
99A
  8
LAYER_1
 10
2.084571018160821
 20
-7.432156211919684
 30
0.0
  0
VERTEX
  5
99B
  8
LAYER_1
 10
2.107402981860321
 20
-7.423612016560988
 30
0.0
  0
VERTEX
  5
99C
  8
LAYER_1
 10
2.130445683888166
 20
-7.415510691900815
 30
0.0
  0
VERTEX
  5
99D
  8
LAYER_1
 10
2.153657002120712
 20
-7.40784380015532
 30
0.0
  0
VERTEX
  5
99E
  8
LAYER_1
 10
2.176994814434315
 20
-7.400602903540651
 30
0.0
  0
VERTEX
  5
99F
  8
LAYER_1
 10
2.200416998705331
 20
-7.39377956427296
 30
0.0
  0
VERTEX
  5
9A0
  8
LAYER_1
 10
2.223881432810114
 20
-7.3873653445684
 30
0.0
  0
VERTEX
  5
9A1
  8
LAYER_1
 10
2.247345994625022
 20
-7.381351806643123
 30
0.0
  0
VERTEX
  5
9A2
  8
LAYER_1
 10
2.27076856202641
 20
-7.375730512713278
 30
0.0
  0
VERTEX
  5
9A3
  8
LAYER_1
 10
2.294107012890634
 20
-7.370493024995017
 30
0.0
  0
VERTEX
  5
9A4
  8
LAYER_1
 10
2.317319225094049
 20
-7.365630905704494
 30
0.0
  0
VERTEX
  5
9A5
  8
LAYER_1
 10
2.34036307651301
 20
-7.361135717057858
 30
0.0
  0
VERTEX
  5
9A6
  8
LAYER_1
 10
2.385777208502998
 20
-7.353212380560853
 30
0.0
  0
VERTEX
  5
9A7
  8
LAYER_1
 10
2.430012431871442
 20
-7.346655513233218
 30
0.0
  0
VERTEX
  5
9A8
  8
LAYER_1
 10
2.472731769629188
 20
-7.341397612804162
 30
0.0
  0
SEQEND
  5
A30
  8
LAYER_1
  0
POLYLINE
  5
CE
  8
LAYER_1
 66
     1
 10
0.0
 20
0.0
 30
0.0
 70
     1
  0
VERTEX
  5
9A9
  8
LAYER_1
 10
28.01359824441501
 20
-14.3873711768735
 30
0.0
 42
-0.4142135623730951
  0
VERTEX
  5
9AA
  8
LAYER_1
 10
28.21359824441502
 20
-14.58737117687352
 30
0.0
 42
-0.4142135623730951
  0
VERTEX
  5
9AB
  8
LAYER_1
 10
28.01359824441501
 20
-14.78737117687351
 30
0.0
 42
-0.4142135623730951
  0
VERTEX
  5
9AC
  8
LAYER_1
 10
27.81359824441501
 20
-14.58737117687352
 30
0.0
 42
-0.4142135623730951
  0
SEQEND
  5
A31
  8
LAYER_1
  0
POLYLINE
  5
CF
  8
LAYER_1
 66
     1
 10
0.0
 20
0.0
 30
0.0
 70
     1
  0
VERTEX
  5
9AD
  8
LAYER_1
 10
21.32609824441501
 20
-16.60617117687352
 30
0.0
 42
-0.4142135623730951
  0
VERTEX
  5
9AE
  8
LAYER_1
 10
21.52609824441502
 20
-16.80617117687351
 30
0.0
 42
-0.4142135623730951
  0
VERTEX
  5
9AF
  8
LAYER_1
 10
21.32609824441501
 20
-17.00617117687353
 30
0.0
 42
-0.4142135623730951
  0
VERTEX
  5
9B0
  8
LAYER_1
 10
21.12609824441501
 20
-16.80617117687351
 30
0.0
 42
-0.4142135623730951
  0
SEQEND
  5
A32
  8
LAYER_1
  0
POLYLINE
  5
D0
  8
LAYER_1
 66
     1
 10
0.0
 20
0.0
 30
0.0
 70
     1
  0
VERTEX
  5
9B1
  8
LAYER_1
 10
122.8203035684582
 20
22.53426402143295
 30
0.0
 42
-0.4142135623730951
  0
VERTEX
  5
9B2
  8
LAYER_1
 10
123.0703035684582
 20
22.78426402143295
 30
0.0
 42
-0.4142135623730951
  0
VERTEX
  5
9B3
  8
LAYER_1
 10
123.3203035684582
 20
22.53426402143295
 30
0.0
 42
-0.4142135623730951
  0
VERTEX
  5
9B4
  8
LAYER_1
 10
123.0703035684582
 20
22.28426402143295
 30
0.0
 42
-0.4142135623730951
  0
SEQEND
  5
A33
  8
LAYER_1
  0
POLYLINE
  5
D1
  8
LAYER_1
 66
     1
 10
0.0
 20
0.0
 30
0.0
 70
     1
  0
VERTEX
  5
9B5
  8
LAYER_1
 10
122.8203035684582
 20
2.159264021432946
 30
0.0
 42
-0.4142135623730951
  0
VERTEX
  5
9B6
  8
LAYER_1
 10
123.0703035684582
 20
2.409264021432946
 30
0.0
 42
-0.4142135623730951
  0
VERTEX
  5
9B7
  8
LAYER_1
 10
123.3203035684582
 20
2.159264021432946
 30
0.0
 42
-0.4142135623730951
  0
VERTEX
  5
9B8
  8
LAYER_1
 10
123.0703035684582
 20
1.909264021432946
 30
0.0
 42
-0.4142135623730951
  0
SEQEND
  5
A34
  8
LAYER_1
  0
POLYLINE
  5
D2
  8
LAYER_1
 66
     1
 10
0.0
 20
0.0
 30
0.0
 70
     1
  0
VERTEX
  5
9B9
  8
LAYER_1
 10
99.57030356845823
 20
2.284264021432946
 30
0.0
 42
0.4142135623730951
  0
VERTEX
  5
9BA
  8
LAYER_1
 10
99.82030356845823
 20
2.034264021432946
 30
0.0
 42
0.4142135623730951
  0
VERTEX
  5
9BB
  8
LAYER_1
 10
100.0703035684582
 20
2.284264021432946
 30
0.0
 42
0.4142135623730951
  0
VERTEX
  5
9BC
  8
LAYER_1
 10
99.82030356845823
 20
2.534264021432946
 30
0.0
 42
0.4142135623730951
  0
SEQEND
  5
A35
  8
LAYER_1
  0
POLYLINE
  5
D3
  8
LAYER_1
 66
     1
 10
0.0
 20
0.0
 30
0.0
 70
     1
  0
VERTEX
  5
9BD
  8
LAYER_1
 10
99.57030356845823
 20
22.40926402143295
 30
0.0
 42
-0.4142135623730951
  0
VERTEX
  5
9BE
  8
LAYER_1
 10
99.82030356845823
 20
22.65926402143295
 30
0.0
 42
-0.4142135623730951
  0
VERTEX
  5
9BF
  8
LAYER_1
 10
100.0703035684582
 20
22.40926402143295
 30
0.0
 42
-0.4142135623730951
  0
VERTEX
  5
9C0
  8
LAYER_1
 10
99.82030356845823
 20
22.15926402143295
 30
0.0
 42
-0.4142135623730951
  0
SEQEND
  5
A36
  8
LAYER_1
  0
POLYLINE
  5
D4
  8
LAYER_1
 66
     1
 10
0.0
 20
0.0
 30
0.0
 70
     1
  0
VERTEX
  5
9C1
  8
LAYER_1
 10
121.4453035684582
 20
47.78426402143295
 30
0.0
  0
VERTEX
  5
9C2
  8
LAYER_1
 10
98.32030356845823
 20
47.78426402143295
 30
0.0
  0
VERTEX
  5
9C3
  8
LAYER_1
 10
98.32030356845823
 20
24.78426402143295
 30
0.0
  0
VERTEX
  5
9C4
  8
LAYER_1
 10
121.4453035684582
 20
24.78426402143295
 30
0.0
  0
SEQEND
  5
A37
  8
LAYER_1
  0
POLYLINE
  5
D5
  8
LAYER_1
 66
     1
 10
0.0
 20
0.0
 30
0.0
 70
     1
  0
VERTEX
  5
9C5
  8
LAYER_1
 10
126.4453035684582
 20
20.28426402143295
 30
0.0
  0
VERTEX
  5
9C6
  8
LAYER_1
 10
124.3203035684582
 20
20.28426402143295
 30
0.0
  0
VERTEX
  5
9C7
  8
LAYER_1
 10
124.3203035684582
 20
22.40926402143295
 30
0.0
  0
VERTEX
  5
9C8
  8
LAYER_1
 10
126.4453035684582
 20
22.40926402143295
 30
0.0
  0
VERTEX
  5
9C9
  8
LAYER_1
 10
126.4453035684582
 20
23.90926402143295
 30
0.0
  0
VERTEX
  5
9CA
  8
LAYER_1
 10
98.32030356845823
 20
23.90926402143295
 30
0.0
  0
VERTEX
  5
9CB
  8
LAYER_1
 10
98.32030356845823
 20
0.7842640214329464
 30
0.0
  0
VERTEX
  5
9CC
  8
LAYER_1
 10
126.4453035684582
 20
0.7842640214329464
 30
0.0
  0
VERTEX
  5
9CD
  8
LAYER_1
 10
126.4453035684582
 20
2.284264021432946
 30
0.0
  0
VERTEX
  5
9CE
  8
LAYER_1
 10
124.3203035684582
 20
2.284264021432946
 30
0.0
  0
VERTEX
  5
9CF
  8
LAYER_1
 10
124.3203035684582
 20
4.409264021432946
 30
0.0
  0
VERTEX
  5
9D0
  8
LAYER_1
 10
126.4453035684582
 20
4.409264021432946
 30
0.0
  0
SEQEND
  5
A38
  8
LAYER_1
  0
ENDSEC
  0
EOF
