  0
SECTION
  2
HEADER
  9
$ACADVER
  1
AC1009
  9
$DWGCODEPAGE
  3
ansi_1252
  9
$INSBASE
 10
0.0
 20
0.0
 30
0.0
  9
$EXTMIN
 10
0.9948731997492501
 20
-47.66213000941711
 30
0.0
  9
$EXTMAX
 10
133.4593797479816
 20
47.04752661239825
 30
0.0
  9
$LIMMIN
 10
0.0
 20
0.0
  9
$LIMMAX
 10
12.0
 20
9.0
  9
$ORTHOMODE
 70
     0
  9
$REGENMODE
 70
     1
  9
$FILLMODE
 70
     1
  9
$QTEXTMODE
 70
     0
  9
$MIRRTEXT
 70
     1
  9
$DRAGMODE
 70
     2
  9
$LTSCALE
 40
1.0
  9
$OSMODE
 70
    37
  9
$ATTMODE
 70
     1
  9
$TEXTSIZE
 40
0.2
  9
$TRACEWID
 40
0.05
  9
$TEXTSTYLE
  7
STANDARD
  9
$CLAYER
  8
0
  9
$CELTYPE
  6
BYLAYER
  9
$CECOLOR
 62
   256
  9
$DIMSCALE
 40
1.0
  9
$DIMASZ
 40
0.18
  9
$DIMEXO
 40
0.0625
  9
$DIMDLI
 40
0.38
  9
$DIMRND
 40
0.0
  9
$DIMDLE
 40
0.0
  9
$DIMEXE
 40
0.18
  9
$DIMTP
 40
0.0
  9
$DIMTM
 40
0.0
  9
$DIMTXT
 40
0.18
  9
$DIMCEN
 40
0.09
  9
$DIMTSZ
 40
0.0
  9
$DIMTOL
 70
     0
  9
$DIMLIM
 70
     0
  9
$DIMTIH
 70
     1
  9
$DIMTOH
 70
     1
  9
$DIMSE1
 70
     0
  9
$DIMSE2
 70
     0
  9
$DIMTAD
 70
     0
  9
$DIMZIN
 70
     0
  9
$DIMBLK
  1

  9
$DIMASO
 70
     1
  9
$DIMSHO
 70
     1
  9
$DIMPOST
  1

  9
$DIMAPOST
  1

  9
$DIMALT
 70
     0
  9
$DIMALTD
 70
     2
  9
$DIMALTF
 40
25.4
  9
$DIMLFAC
 40
1.0
  9
$DIMTOFL
 70
     0
  9
$DIMTVP
 40
0.0
  9
$DIMTIX
 70
     0
  9
$DIMSOXD
 70
     0
  9
$DIMSAH
 70
     0
  9
$DIMBLK1
  1

  9
$DIMBLK2
  1

  9
$DIMSTYLE
  2
STANDARD
  9
$DIMCLRD
 70
     0
  9
$DIMCLRE
 70
     0
  9
$DIMCLRT
 70
     0
  9
$DIMTFAC
 40
1.0
  9
$DIMGAP
 40
0.09
  9
$LUNITS
 70
     2
  9
$LUPREC
 70
     4
  9
$SKETCHINC
 40
0.1
  9
$FILLETRAD
 40
0.5
  9
$AUNITS
 70
     0
  9
$AUPREC
 70
     0
  9
$MENU
  1
.
  9
$ELEVATION
 40
0.0
  9
$PELEVATION
 40
0.0
  9
$THICKNESS
 40
0.0
  9
$LIMCHECK
 70
     0
  9
$CHAMFERA
 40
0.0
  9
$CHAMFERB
 40
0.0
  9
$SKPOLY
 70
     0
  9
$TDCREATE
 40
2454910.5
  9
$TDUPDATE
 40
2457501.338488079
  9
$TDINDWG
 40
0.0000000116
  9
$TDUSRTIMER
 40
0.0000000116
  9
$USRTIMER
 70
     1
  9
$ANGBASE
 50
0.0
  9
$ANGDIR
 70
     0
  9
$PDMODE
 70
     0
  9
$PDSIZE
 40
0.0
  9
$PLINEWID
 40
0.0
  9
$COORDS
 70
     1
  9
$SPLFRAME
 70
     0
  9
$SPLINETYPE
 70
     6
  9
$SPLINESEGS
 70
     8
  9
$ATTDIA
 70
     0
  9
$ATTREQ
 70
     1
  9
$HANDLING
 70
     1
  9
$HANDSEED
  5
AF9
  9
$SURFTAB1
 70
     6
  9
$SURFTAB2
 70
     6
  9
$SURFTYPE
 70
     6
  9
$SURFU
 70
     6
  9
$SURFV
 70
     6
  9
$UCSNAME
  2

  9
$UCSORG
 10
0.0
 20
0.0
 30
0.0
  9
$UCSXDIR
 10
1.0
 20
0.0
 30
0.0
  9
$UCSYDIR
 10
0.0
 20
1.0
 30
0.0
  9
$PUCSNAME
  2

  9
$PUCSORG
 10
0.0
 20
0.0
 30
0.0
  9
$PUCSXDIR
 10
1.0
 20
0.0
 30
0.0
  9
$PUCSYDIR
 10
0.0
 20
1.0
 30
0.0
  9
$USERI1
 70
     0
  9
$USERI2
 70
     0
  9
$USERI3
 70
     0
  9
$USERI4
 70
     0
  9
$USERI5
 70
     0
  9
$USERR1
 40
0.0
  9
$USERR2
 40
0.0
  9
$USERR3
 40
0.0
  9
$USERR4
 40
0.0
  9
$USERR5
 40
0.0
  9
$WORLDVIEW
 70
     1
  9
$SHADEDGE
 70
     3
  9
$SHADEDIF
 70
    70
  9
$TILEMODE
 70
     1
  9
$MAXACTVP
 70
    64
  9
$PLIMCHECK
 70
     0
  9
$PEXTMIN
 10
1.000000000000000E+20
 20
1.000000000000000E+20
 30
1.000000000000000E+20
  9
$PEXTMAX
 10
-1.000000000000000E+20
 20
-1.000000000000000E+20
 30
-1.000000000000000E+20
  9
$PLIMMIN
 10
0.0
 20
0.0
  9
$PLIMMAX
 10
12.0
 20
9.0
  9
$UNITMODE
 70
     0
  9
$VISRETAIN
 70
     1
  9
$PLINEGEN
 70
     0
  9
$PSLTSCALE
 70
     1
  0
ENDSEC
  0
SECTION
  2
TABLES
  0
TABLE
  2
VPORT
 70
     1
  0
VPORT
  2
*ACTIVE
 70
     0
 10
0.0
 20
0.0
 11
1.0
 21
1.0
 12
10.42990654205607
 22
4.5
 13
0.0
 23
0.0
 14
0.5
 24
0.5
 15
0.5
 25
0.5
 16
0.0
 26
0.0
 36
1.0
 17
0.0
 27
0.0
 37
0.0
 40
9.0
 41
1.972972972850329
 42
50.0
 43
0.0
 44
0.0
 50
0.0
 51
0.0
 71
     0
 72
   100
 73
     1
 74
     3
 75
     0
 76
     0
 77
     0
 78
     0
  0
ENDTAB
  0
TABLE
  2
LTYPE
 70
     2
  0
LTYPE
  2
CONTINUOUS
 70
     0
  3
Solid line
 72
    65
 73
     0
 40
0.0
  0
LTYPE
  2
CONTINUOUS2
 70
     0
  3
Solid Line
 72
    65
 73
     0
 40
0.0
  0
ENDTAB
  0
TABLE
  2
LAYER
 70
     2
  0
LAYER
  2
0
 70
     0
 62
     7
  6
CONTINUOUS
  0
LAYER
  2
LAYER_1
 70
     0
 62
    18
  6
CONTINUOUS
  0
ENDTAB
  0
TABLE
  2
STYLE
 70
     1
  0
STYLE
  2
STANDARD
 70
     0
 40
0.0
 41
1.0
 50
0.0
 71
     0
 42
0.2
  3
txt
  4

  0
ENDTAB
  0
TABLE
  2
VIEW
 70
     0
  0
ENDTAB
  0
TABLE
  2
UCS
 70
     0
  0
ENDTAB
  0
TABLE
  2
APPID
 70
     1
  0
APPID
  2
ACAD
 70
     0
  0
ENDTAB
  0
TABLE
  2
DIMSTYLE
 70
     1
  0
DIMSTYLE
  2
STANDARD
 70
     0
  3

  4

  5

  6

  7

 40
1.0
 41
0.18
 42
0.0625
 43
0.38
 44
0.18
 45
0.0
 46
0.0
 47
0.0
 48
0.0
140
0.18
141
0.09
142
0.0
143
25.4
144
1.0
145
0.0
146
1.0
147
0.09
 71
     0
 72
     0
 73
     1
 74
     1
 75
     0
 76
     0
 77
     0
 78
     0
170
     0
171
     2
172
     0
173
     0
174
     0
175
     0
176
     0
177
     0
178
     0
  0
ENDTAB
  0
ENDSEC
  0
SECTION
  2
BLOCKS
  0
BLOCK
  8
0
  2
$MODEL_SPACE
 70
     0
 10
0.0
 20
0.0
 30
0.0
  3
$MODEL_SPACE
  1

  0
ENDBLK
  5
21
  8
0
  0
BLOCK
 67
     1
  8
0
  2
$PAPER_SPACE
 70
     0
 10
0.0
 20
0.0
 30
0.0
  3
$PAPER_SPACE
  1

  0
ENDBLK
  5
1D
 67
     1
  8
0
  0
ENDSEC
  0
SECTION
  2
ENTITIES
  0
POLYLINE
  5
70
  8
LAYER_1
 66
     1
 10
0.0
 20
0.0
 30
0.0
 70
     1
  0
VERTEX
  5
109
  8
LAYER_1
 10
40.65323392578232
 20
-23.51280741236013
 30
0.0
  0
VERTEX
  5
10A
  8
LAYER_1
 10
41.02823392578232
 20
-23.51280741236013
 30
0.0
  0
VERTEX
  5
10B
  8
LAYER_1
 10
41.02823392578232
 20
-1.512807412360132
 30
0.0
  0
VERTEX
  5
10C
  8
LAYER_1
 10
40.65323392578232
 20
-1.512807412360132
 30
0.0
  0
SEQEND
  5
A67
  8
LAYER_1
  0
POLYLINE
  5
71
  8
LAYER_1
 66
     1
 10
0.0
 20
0.0
 30
0.0
 70
     1
  0
VERTEX
  5
10D
  8
LAYER_1
 10
40.65323392578232
 20
-23.51280741236013
 30
0.0
  0
VERTEX
  5
10E
  8
LAYER_1
 10
69.27823392578233
 20
-23.51280741236013
 30
0.0
  0
VERTEX
  5
10F
  8
LAYER_1
 10
69.27823392578233
 20
-23.13780741236013
 30
0.0
  0
VERTEX
  5
110
  8
LAYER_1
 10
40.65323392578232
 20
-23.13780741236013
 30
0.0
  0
SEQEND
  5
A68
  8
LAYER_1
  0
POLYLINE
  5
72
  8
LAYER_1
 66
     1
 10
0.0
 20
0.0
 30
0.0
 70
     1
  0
VERTEX
  5
111
  8
LAYER_1
 10
40.65323392578232
 20
-1.887807412360132
 30
0.0
  0
VERTEX
  5
112
  8
LAYER_1
 10
69.27823392578233
 20
-1.887807412360132
 30
0.0
  0
VERTEX
  5
113
  8
LAYER_1
 10
69.27823392578233
 20
-1.512807412360132
 30
0.0
  0
VERTEX
  5
114
  8
LAYER_1
 10
40.65323392578232
 20
-1.512807412360132
 30
0.0
  0
SEQEND
  5
A69
  8
LAYER_1
  0
POLYLINE
  5
73
  8
LAYER_1
 66
     1
 10
0.0
 20
0.0
 30
0.0
 70
     1
  0
VERTEX
  5
115
  8
LAYER_1
 10
68.59073392578233
 20
-23.51280741236013
 30
0.0
  0
VERTEX
  5
116
  8
LAYER_1
 10
69.21573392578233
 20
-23.51280741236013
 30
0.0
  0
VERTEX
  5
117
  8
LAYER_1
 10
69.21573392578233
 20
-1.512807412360132
 30
0.0
  0
VERTEX
  5
118
  8
LAYER_1
 10
68.59073392578233
 20
-1.512807412360132
 30
0.0
  0
SEQEND
  5
A6A
  8
LAYER_1
  0
POLYLINE
  5
74
  8
LAYER_1
 66
     1
 10
0.0
 20
0.0
 30
0.0
 70
     1
  0
VERTEX
  5
119
  8
LAYER_1
 10
44.34073392578232
 20
-21.51280741236013
 30
0.0
 42
0.4142135623730951
  0
VERTEX
  5
11A
  8
LAYER_1
 10
44.09073392578232
 20
-21.76280741236013
 30
0.0
 42
0.4142135623730951
  0
VERTEX
  5
11B
  8
LAYER_1
 10
44.34073392578232
 20
-22.01280741236013
 30
0.0
 42
0.4142135623730951
  0
VERTEX
  5
11C
  8
LAYER_1
 10
44.59073392578232
 20
-21.76280741236013
 30
0.0
 42
0.4142135623730951
  0
SEQEND
  5
A6B
  8
LAYER_1
  0
POLYLINE
  5
75
  8
LAYER_1
 66
     1
 10
0.0
 20
0.0
 30
0.0
 70
     1
  0
VERTEX
  5
11D
  8
LAYER_1
 10
67.09073392578233
 20
-21.51280741236013
 30
0.0
 42
0.4142135623730951
  0
VERTEX
  5
11E
  8
LAYER_1
 10
66.84073392578233
 20
-21.76280741236013
 30
0.0
 42
0.4142135623730951
  0
VERTEX
  5
11F
  8
LAYER_1
 10
67.09073392578233
 20
-22.01280741236013
 30
0.0
 42
0.4142135623730951
  0
VERTEX
  5
120
  8
LAYER_1
 10
67.34073392578233
 20
-21.76280741236013
 30
0.0
 42
0.4142135623730951
  0
SEQEND
  5
A6C
  8
LAYER_1
  0
POLYLINE
  5
76
  8
LAYER_1
 66
     1
 10
0.0
 20
0.0
 30
0.0
 70
     1
  0
VERTEX
  5
121
  8
LAYER_1
 10
67.09073392578233
 20
-3.012807412360132
 30
0.0
 42
0.4142135623730951
  0
VERTEX
  5
122
  8
LAYER_1
 10
66.84073392578233
 20
-3.262807412360132
 30
0.0
 42
0.4142135623730951
  0
VERTEX
  5
123
  8
LAYER_1
 10
67.09073392578233
 20
-3.512807412360132
 30
0.0
 42
0.4142135623730951
  0
VERTEX
  5
124
  8
LAYER_1
 10
67.34073392578233
 20
-3.262807412360132
 30
0.0
 42
0.4142135623730951
  0
SEQEND
  5
A6D
  8
LAYER_1
  0
POLYLINE
  5
77
  8
LAYER_1
 66
     1
 10
0.0
 20
0.0
 30
0.0
 70
     1
  0
VERTEX
  5
125
  8
LAYER_1
 10
44.34073392578232
 20
-3.012807412360132
 30
0.0
 42
0.4142135623730951
  0
VERTEX
  5
126
  8
LAYER_1
 10
44.09073392578232
 20
-3.262807412360132
 30
0.0
 42
0.4142135623730951
  0
VERTEX
  5
127
  8
LAYER_1
 10
44.34073392578232
 20
-3.512807412360132
 30
0.0
 42
0.4142135623730951
  0
VERTEX
  5
128
  8
LAYER_1
 10
44.59073392578232
 20
-3.262807412360132
 30
0.0
 42
0.4142135623730951
  0
SEQEND
  5
A6E
  8
LAYER_1
  0
POLYLINE
  5
78
  8
LAYER_1
 66
     1
 10
0.0
 20
0.0
 30
0.0
 70
     1
  0
VERTEX
  5
129
  8
LAYER_1
 10
44.65323392578232
 20
-19.57530741236013
 30
0.0
 42
0.4142135623730951
  0
VERTEX
  5
12A
  8
LAYER_1
 10
44.90323392578232
 20
-19.82530741236013
 30
0.0
 42
0.4142135623730951
  0
VERTEX
  5
12B
  8
LAYER_1
 10
45.15323392578232
 20
-19.57530741236013
 30
0.0
  0
VERTEX
  5
12C
  8
LAYER_1
 10
45.15323392578232
 20
-16.07530741236013
 30
0.0
 42
0.4142135623730951
  0
VERTEX
  5
12D
  8
LAYER_1
 10
44.90323392578232
 20
-15.82530741236013
 30
0.0
 42
0.4142135623730951
  0
VERTEX
  5
12E
  8
LAYER_1
 10
44.65323392578232
 20
-16.07530741236013
 30
0.0
  0
SEQEND
  5
A6F
  8
LAYER_1
  0
POLYLINE
  5
79
  8
LAYER_1
 66
     1
 10
0.0
 20
0.0
 30
0.0
 70
     1
  0
VERTEX
  5
12F
  8
LAYER_1
 10
61.71573392578232
 20
-19.57530741236013
 30
0.0
 42
0.4142135623730951
  0
VERTEX
  5
130
  8
LAYER_1
 10
61.96573392578232
 20
-19.82530741236013
 30
0.0
 42
0.4142135623730951
  0
VERTEX
  5
131
  8
LAYER_1
 10
62.21573392578232
 20
-19.57530741236013
 30
0.0
  0
VERTEX
  5
132
  8
LAYER_1
 10
62.21573392578232
 20
-16.07530741236013
 30
0.0
 42
0.4142135623730951
  0
VERTEX
  5
133
  8
LAYER_1
 10
61.96573392578232
 20
-15.82530741236013
 30
0.0
 42
0.4142135623730951
  0
VERTEX
  5
134
  8
LAYER_1
 10
61.71573392578232
 20
-16.07530741236013
 30
0.0
  0
SEQEND
  5
A70
  8
LAYER_1
  0
POLYLINE
  5
7A
  8
LAYER_1
 66
     1
 10
0.0
 20
0.0
 30
0.0
 70
     1
  0
VERTEX
  5
135
  8
LAYER_1
 10
61.71573392578232
 20
-8.887807412360132
 30
0.0
 42
0.4142135623730951
  0
VERTEX
  5
136
  8
LAYER_1
 10
61.96573392578232
 20
-9.137807412360132
 30
0.0
 42
0.4142135623730951
  0
VERTEX
  5
137
  8
LAYER_1
 10
62.21573392578232
 20
-8.887807412360132
 30
0.0
  0
VERTEX
  5
138
  8
LAYER_1
 10
62.21573392578232
 20
-5.387807412360132
 30
0.0
 42
0.4142135623730951
  0
VERTEX
  5
139
  8
LAYER_1
 10
61.96573392578232
 20
-5.137807412360132
 30
0.0
 42
0.4142135623730951
  0
VERTEX
  5
13A
  8
LAYER_1
 10
61.71573392578232
 20
-5.387807412360132
 30
0.0
  0
SEQEND
  5
A71
  8
LAYER_1
  0
POLYLINE
  5
7B
  8
LAYER_1
 66
     1
 10
0.0
 20
0.0
 30
0.0
 70
     1
  0
VERTEX
  5
13B
  8
LAYER_1
 10
44.34073392578232
 20
-8.887807412360132
 30
0.0
 42
0.4142135623730951
  0
VERTEX
  5
13C
  8
LAYER_1
 10
44.59073392578232
 20
-9.137807412360132
 30
0.0
 42
0.4142135623730951
  0
VERTEX
  5
13D
  8
LAYER_1
 10
44.84073392578232
 20
-8.887807412360132
 30
0.0
  0
VERTEX
  5
13E
  8
LAYER_1
 10
44.84073392578232
 20
-5.387807412360132
 30
0.0
 42
0.4142135623730951
  0
VERTEX
  5
13F
  8
LAYER_1
 10
44.59073392578232
 20
-5.137807412360132
 30
0.0
 42
0.4142135623730951
  0
VERTEX
  5
140
  8
LAYER_1
 10
44.34073392578232
 20
-5.387807412360132
 30
0.0
  0
SEQEND
  5
A72
  8
LAYER_1
  0
POLYLINE
  5
7C
  8
LAYER_1
 66
     1
 10
0.0
 20
0.0
 30
0.0
 70
     1
  0
VERTEX
  5
141
  8
LAYER_1
 10
40.77823392578232
 20
-19.76280741236013
 30
0.0
  0
VERTEX
  5
142
  8
LAYER_1
 10
43.15323392578232
 20
-19.76280741236013
 30
0.0
  0
VERTEX
  5
143
  8
LAYER_1
 10
43.15323392578232
 20
-21.63780741236013
 30
0.0
  0
VERTEX
  5
144
  8
LAYER_1
 10
40.77823392578232
 20
-21.63780741236013
 30
0.0
  0
VERTEX
  5
145
  8
LAYER_1
 10
40.77823392578232
 20
-21.69414718215658
 30
0.0
  0
VERTEX
  5
146
  8
LAYER_1
 10
40.77823392578232
 20
-23.38780741236013
 30
0.0
  0
VERTEX
  5
147
  8
LAYER_1
 10
69.09073392578233
 20
-23.38780741236013
 30
0.0
  0
VERTEX
  5
148
  8
LAYER_1
 10
69.09073392578233
 20
-1.637807412360132
 30
0.0
  0
VERTEX
  5
149
  8
LAYER_1
 10
40.77823392578232
 20
-1.637807412360132
 30
0.0
  0
VERTEX
  5
14A
  8
LAYER_1
 10
40.77823392578232
 20
-3.265163588990475
 30
0.0
  0
VERTEX
  5
14B
  8
LAYER_1
 10
40.77823392578232
 20
-3.387807412360132
 30
0.0
  0
VERTEX
  5
14C
  8
LAYER_1
 10
43.15323392578232
 20
-3.387807412360132
 30
0.0
  0
VERTEX
  5
14D
  8
LAYER_1
 10
43.15323392578232
 20
-5.262807412360132
 30
0.0
  0
VERTEX
  5
14E
  8
LAYER_1
 10
40.77823392578232
 20
-5.262807412360132
 30
0.0
  0
VERTEX
  5
14F
  8
LAYER_1
 10
40.77823392578232
 20
-5.305487723369701
 30
0.0
  0
VERTEX
  5
150
  8
LAYER_1
 10
40.77823392578232
 20
-19.649116676202
 30
0.0
  0
SEQEND
  5
A73
  8
LAYER_1
  0
POLYLINE
  5
7D
  8
LAYER_1
 66
     1
 10
0.0
 20
0.0
 30
0.0
 70
     1
  0
VERTEX
  5
151
  8
LAYER_1
 10
73.19892052565709
 20
-47.64276557610465
 30
0.0
  0
VERTEX
  5
152
  8
LAYER_1
 10
94.94892052565709
 20
-47.64276557610465
 30
0.0
  0
VERTEX
  5
153
  8
LAYER_1
 10
94.94892052565709
 20
-26.26776557610465
 30
0.0
  0
VERTEX
  5
154
  8
LAYER_1
 10
73.19892052565709
 20
-26.26776557610465
 30
0.0
  0
SEQEND
  5
A74
  8
LAYER_1
  0
POLYLINE
  5
7E
  8
LAYER_1
 66
     1
 10
0.0
 20
0.0
 30
0.0
 70
     1
  0
VERTEX
  5
155
  8
LAYER_1
 10
77.88409618321643
 20
-42.14572623188491
 30
0.0
 42
0.4142135623730951
  0
VERTEX
  5
156
  8
LAYER_1
 10
78.13409618321643
 20
-42.39572623188491
 30
0.0
  0
VERTEX
  5
157
  8
LAYER_1
 10
90.00909618321643
 20
-42.39572623188491
 30
0.0
 42
0.4142135623730951
  0
VERTEX
  5
158
  8
LAYER_1
 10
90.25909618321643
 20
-42.14572623188491
 30
0.0
  0
VERTEX
  5
159
  8
LAYER_1
 10
90.25909618321643
 20
-32.64572623188491
 30
0.0
 42
0.4142135623730951
  0
VERTEX
  5
15A
  8
LAYER_1
 10
90.00909618321643
 20
-32.39572623188491
 30
0.0
  0
VERTEX
  5
15B
  8
LAYER_1
 10
78.13409618321643
 20
-32.39572623188491
 30
0.0
 42
0.4142135623730951
  0
VERTEX
  5
15C
  8
LAYER_1
 10
77.88409618321643
 20
-32.64572623188491
 30
0.0
  0
SEQEND
  5
A75
  8
LAYER_1
  0
POLYLINE
  5
7F
  8
LAYER_1
 66
     1
 10
0.0
 20
0.0
 30
0.0
 70
     1
  0
VERTEX
  5
15D
  8
LAYER_1
 10
77.41534618321643
 20
-36.7707262318849
 30
0.0
 42
0.4142135623730951
  0
VERTEX
  5
15E
  8
LAYER_1
 10
76.79034618321643
 20
-37.3957262318849
 30
0.0
 42
0.4142135623730951
  0
VERTEX
  5
15F
  8
LAYER_1
 10
77.41534618321643
 20
-38.0207262318849
 30
0.0
 42
0.4142135623730951
  0
VERTEX
  5
160
  8
LAYER_1
 10
78.04034618321643
 20
-37.3957262318849
 30
0.0
 42
0.4142135623730951
  0
SEQEND
  5
A76
  8
LAYER_1
  0
POLYLINE
  5
80
  8
LAYER_1
 66
     1
 10
0.0
 20
0.0
 30
0.0
 70
     1
  0
VERTEX
  5
161
  8
LAYER_1
 10
77.41534618321643
 20
-37.25512623188491
 30
0.0
 42
0.4142135623730951
  0
VERTEX
  5
162
  8
LAYER_1
 10
77.27474618321642
 20
-37.3957262318849
 30
0.0
 42
0.4142135623730951
  0
VERTEX
  5
163
  8
LAYER_1
 10
77.41534618321643
 20
-37.53632623188491
 30
0.0
 42
0.4142135623730951
  0
VERTEX
  5
164
  8
LAYER_1
 10
77.55594618321643
 20
-37.3957262318849
 30
0.0
 42
0.4142135623730951
  0
SEQEND
  5
A77
  8
LAYER_1
  0
POLYLINE
  5
81
  8
LAYER_1
 66
     1
 10
0.0
 20
0.0
 30
0.0
 70
     1
  0
VERTEX
  5
165
  8
LAYER_1
 10
90.72784618321643
 20
-37.25512623188491
 30
0.0
 42
0.4142135623730951
  0
VERTEX
  5
166
  8
LAYER_1
 10
90.58724618321642
 20
-37.3957262318849
 30
0.0
 42
0.4142135623730951
  0
VERTEX
  5
167
  8
LAYER_1
 10
90.72784618321643
 20
-37.53632623188491
 30
0.0
 42
0.4142135623730951
  0
VERTEX
  5
168
  8
LAYER_1
 10
90.86844618321643
 20
-37.3957262318849
 30
0.0
 42
0.4142135623730951
  0
SEQEND
  5
A78
  8
LAYER_1
  0
POLYLINE
  5
82
  8
LAYER_1
 66
     1
 10
0.0
 20
0.0
 30
0.0
 70
     1
  0
VERTEX
  5
169
  8
LAYER_1
 10
84.07159618321643
 20
-31.8801262318849
 30
0.0
 42
0.4142135623730951
  0
VERTEX
  5
16A
  8
LAYER_1
 10
83.93099618321642
 20
-32.02072623188491
 30
0.0
 42
0.4142135623730951
  0
VERTEX
  5
16B
  8
LAYER_1
 10
84.07159618321643
 20
-32.1613262318849
 30
0.0
 42
0.4142135623730951
  0
VERTEX
  5
16C
  8
LAYER_1
 10
84.21219618321643
 20
-32.02072623188491
 30
0.0
 42
0.4142135623730951
  0
SEQEND
  5
A79
  8
LAYER_1
  0
POLYLINE
  5
83
  8
LAYER_1
 66
     1
 10
0.0
 20
0.0
 30
0.0
 70
     1
  0
VERTEX
  5
16D
  8
LAYER_1
 10
84.07159618321643
 20
-42.6301262318849
 30
0.0
 42
0.4142135623730951
  0
VERTEX
  5
16E
  8
LAYER_1
 10
83.93099618321642
 20
-42.77072623188491
 30
0.0
 42
0.4142135623730951
  0
VERTEX
  5
16F
  8
LAYER_1
 10
84.07159618321643
 20
-42.9113262318849
 30
0.0
 42
0.4142135623730951
  0
VERTEX
  5
170
  8
LAYER_1
 10
84.21219618321643
 20
-42.77072623188491
 30
0.0
 42
0.4142135623730951
  0
SEQEND
  5
A7A
  8
LAYER_1
  0
POLYLINE
  5
84
  8
LAYER_1
 66
     1
 10
0.0
 20
0.0
 30
0.0
 70
     1
  0
VERTEX
  5
171
  8
LAYER_1
 10
84.07164618321642
 20
-42.14572623188491
 30
0.0
 42
0.4142135623730951
  0
VERTEX
  5
172
  8
LAYER_1
 10
83.44664618321642
 20
-42.77072623188491
 30
0.0
 42
0.4142135623730951
  0
VERTEX
  5
173
  8
LAYER_1
 10
84.07164618321642
 20
-43.39572623188491
 30
0.0
 42
0.4142135623730951
  0
VERTEX
  5
174
  8
LAYER_1
 10
84.69664618321642
 20
-42.77072623188491
 30
0.0
 42
0.4142135623730951
  0
SEQEND
  5
A7B
  8
LAYER_1
  0
POLYLINE
  5
85
  8
LAYER_1
 66
     1
 10
0.0
 20
0.0
 30
0.0
 70
     1
  0
VERTEX
  5
175
  8
LAYER_1
 10
90.16534618321643
 20
-32.95822623188491
 30
0.0
 42
0.4142135623730951
  0
VERTEX
  5
176
  8
LAYER_1
 10
89.91534618321643
 20
-33.20822623188491
 30
0.0
 42
0.4142135623730951
  0
VERTEX
  5
177
  8
LAYER_1
 10
90.16534618321643
 20
-33.45822623188491
 30
0.0
 42
0.4142135623730951
  0
VERTEX
  5
178
  8
LAYER_1
 10
90.41534618321643
 20
-33.20822623188491
 30
0.0
 42
0.4142135623730951
  0
SEQEND
  5
A7C
  8
LAYER_1
  0
POLYLINE
  5
86
  8
LAYER_1
 66
     1
 10
0.0
 20
0.0
 30
0.0
 70
     1
  0
VERTEX
  5
179
  8
LAYER_1
 10
90.13724998714738
 20
-41.35033858800195
 30
0.0
 42
0.4142135623730951
  0
VERTEX
  5
17A
  8
LAYER_1
 10
89.88724998714738
 20
-41.60033858800195
 30
0.0
 42
0.4142135623730951
  0
VERTEX
  5
17B
  8
LAYER_1
 10
90.13724998714738
 20
-41.85033858800195
 30
0.0
 42
0.4142135623730951
  0
VERTEX
  5
17C
  8
LAYER_1
 10
90.38724998714738
 20
-41.60033858800195
 30
0.0
 42
0.4142135623730951
  0
SEQEND
  5
A7D
  8
LAYER_1
  0
POLYLINE
  5
87
  8
LAYER_1
 66
     1
 10
0.0
 20
0.0
 30
0.0
 70
     1
  0
VERTEX
  5
17D
  8
LAYER_1
 10
90.16534618321643
 20
-37.1457262318849
 30
0.0
 42
0.4142135623730951
  0
VERTEX
  5
17E
  8
LAYER_1
 10
89.91534618321643
 20
-37.3957262318849
 30
0.0
 42
0.4142135623730951
  0
VERTEX
  5
17F
  8
LAYER_1
 10
90.16534618321643
 20
-37.6457262318849
 30
0.0
 42
0.4142135623730951
  0
VERTEX
  5
180
  8
LAYER_1
 10
90.41534618321643
 20
-37.3957262318849
 30
0.0
 42
0.4142135623730951
  0
SEQEND
  5
A7E
  8
LAYER_1
  0
POLYLINE
  5
88
  8
LAYER_1
 66
     1
 10
0.0
 20
0.0
 30
0.0
 70
     1
  0
VERTEX
  5
181
  8
LAYER_1
 10
73.07392052565709
 20
-46.39276557610465
 30
0.0
  0
VERTEX
  5
182
  8
LAYER_1
 10
95.07392052565709
 20
-46.39276557610465
 30
0.0
  0
VERTEX
  5
183
  8
LAYER_1
 10
95.07392052565709
 20
-46.01776557610465
 30
0.0
  0
VERTEX
  5
184
  8
LAYER_1
 10
73.07392052565709
 20
-46.01776557610465
 30
0.0
  0
SEQEND
  5
A7F
  8
LAYER_1
  0
POLYLINE
  5
89
  8
LAYER_1
 66
     1
 10
0.0
 20
0.0
 30
0.0
 70
     1
  0
VERTEX
  5
185
  8
LAYER_1
 10
73.07392052565709
 20
-26.64276557610465
 30
0.0
  0
VERTEX
  5
186
  8
LAYER_1
 10
95.07392052565709
 20
-26.64276557610465
 30
0.0
  0
VERTEX
  5
187
  8
LAYER_1
 10
95.07392052565709
 20
-26.20526557610465
 30
0.0
  0
VERTEX
  5
188
  8
LAYER_1
 10
73.07392052565709
 20
-26.20526557610465
 30
0.0
  0
SEQEND
  5
A80
  8
LAYER_1
  0
POLYLINE
  5
8A
  8
LAYER_1
 66
     1
 10
0.0
 20
0.0
 30
0.0
 70
     1
  0
VERTEX
  5
189
  8
LAYER_1
 10
78.57392052565709
 20
-30.89276557610465
 30
0.0
  0
VERTEX
  5
18A
  8
LAYER_1
 10
78.63522034360469
 20
-30.89231649086662
 30
0.0
  0
VERTEX
  5
18B
  8
LAYER_1
 10
78.69613771064505
 20
-30.8909764346369
 30
0.0
  0
VERTEX
  5
18C
  8
LAYER_1
 10
78.75665397356863
 20
-30.88875620664201
 30
0.0
  0
VERTEX
  5
18D
  8
LAYER_1
 10
78.81675047916599
 20
-30.8856666061085
 30
0.0
  0
VERTEX
  5
18E
  8
LAYER_1
 10
78.87640857422765
 20
-30.88171843226291
 30
0.0
  0
VERTEX
  5
18F
  8
LAYER_1
 10
78.93560960554416
 20
-30.87692248433178
 30
0.0
  0
VERTEX
  5
190
  8
LAYER_1
 10
78.99433491990598
 20
-30.87128956154164
 30
0.0
  0
VERTEX
  5
191
  8
LAYER_1
 10
79.05256586410371
 20
-30.86483046311903
 30
0.0
  0
VERTEX
  5
192
  8
LAYER_1
 10
79.11028378492784
 20
-30.8575559882905
 30
0.0
  0
VERTEX
  5
193
  8
LAYER_1
 10
79.16747002916888
 20
-30.84947693628257
 30
0.0
  0
VERTEX
  5
194
  8
LAYER_1
 10
79.22410594361737
 20
-30.84060410632179
 30
0.0
  0
VERTEX
  5
195
  8
LAYER_1
 10
79.28017287506384
 20
-30.8309482976347
 30
0.0
  0
VERTEX
  5
196
  8
LAYER_1
 10
79.33565217029879
 20
-30.82052030944783
 30
0.0
  0
VERTEX
  5
197
  8
LAYER_1
 10
79.39052517611276
 20
-30.80933094098773
 30
0.0
  0
VERTEX
  5
198
  8
LAYER_1
 10
79.4447732392963
 20
-30.79739099148092
 30
0.0
  0
VERTEX
  5
199
  8
LAYER_1
 10
79.4983777066399
 20
-30.78471126015396
 30
0.0
  0
VERTEX
  5
19A
  8
LAYER_1
 10
79.5513199249341
 20
-30.77130254623338
 30
0.0
  0
VERTEX
  5
19B
  8
LAYER_1
 10
79.60358124096942
 20
-30.75717564894571
 30
0.0
  0
VERTEX
  5
19C
  8
LAYER_1
 10
79.65514300153637
 20
-30.7423413675175
 30
0.0
  0
VERTEX
  5
19D
  8
LAYER_1
 10
79.7059865534255
 20
-30.72681050117528
 30
0.0
  0
VERTEX
  5
19E
  8
LAYER_1
 10
79.7560932434273
 20
-30.7105938491456
 30
0.0
  0
VERTEX
  5
19F
  8
LAYER_1
 10
79.80544441833234
 20
-30.69370221065498
 30
0.0
  0
VERTEX
  5
1A0
  8
LAYER_1
 10
79.85402142493112
 20
-30.67614638492997
 30
0.0
  0
VERTEX
  5
1A1
  8
LAYER_1
 10
79.90180561001418
 20
-30.65793717119711
 30
0.0
  0
VERTEX
  5
1A2
  8
LAYER_1
 10
79.94877832037201
 20
-30.63908536868294
 30
0.0
  0
VERTEX
  5
1A3
  8
LAYER_1
 10
79.99492090279517
 20
-30.61960177661399
 30
0.0
  0
VERTEX
  5
1A4
  8
LAYER_1
 10
80.04021470407416
 20
-30.5994971942168
 30
0.0
  0
VERTEX
  5
1A5
  8
LAYER_1
 10
80.08464107099954
 20
-30.57878242071792
 30
0.0
  0
VERTEX
  5
1A6
  8
LAYER_1
 10
80.12818135036179
 20
-30.55746825534387
 30
0.0
  0
VERTEX
  5
1A7
  8
LAYER_1
 10
80.17081688895145
 20
-30.5355654973212
 30
0.0
  0
VERTEX
  5
1A8
  8
LAYER_1
 10
80.21252903355906
 20
-30.51308494587645
 30
0.0
  0
VERTEX
  5
1A9
  8
LAYER_1
 10
80.25329913097514
 20
-30.49003740023615
 30
0.0
  0
VERTEX
  5
1AA
  8
LAYER_1
 10
80.2931085279902
 20
-30.46643365962685
 30
0.0
  0
VERTEX
  5
1AB
  8
LAYER_1
 10
80.33193857139477
 20
-30.44228452327508
 30
0.0
  0
VERTEX
  5
1AC
  8
LAYER_1
 10
80.36977060797936
 20
-30.41760079040738
 30
0.0
  0
VERTEX
  5
1AD
  8
LAYER_1
 10
80.40658598453453
 20
-30.39239326025028
 30
0.0
  0
VERTEX
  5
1AE
  8
LAYER_1
 10
80.44236604785078
 20
-30.36667273203034
 30
0.0
  0
VERTEX
  5
1AF
  8
LAYER_1
 10
80.47709214471865
 20
-30.34045000497408
 30
0.0
  0
VERTEX
  5
1B0
  8
LAYER_1
 10
80.51074562192866
 20
-30.31373587830804
 30
0.0
  0
VERTEX
  5
1B1
  8
LAYER_1
 10
80.54330782627133
 20
-30.28654115125876
 30
0.0
  0
VERTEX
  5
1B2
  8
LAYER_1
 10
80.57476010453719
 20
-30.25887662305278
 30
0.0
  0
VERTEX
  5
1B3
  8
LAYER_1
 10
80.60508380351675
 20
-30.23075309291664
 30
0.0
  0
VERTEX
  5
1B4
  8
LAYER_1
 10
80.63426027000051
 20
-30.20218136007689
 30
0.0
  0
VERTEX
  5
1B5
  8
LAYER_1
 10
80.66227085077907
 20
-30.17317222376004
 30
0.0
  0
VERTEX
  5
1B6
  8
LAYER_1
 10
80.68909689264291
 20
-30.14373648319265
 30
0.0
  0
VERTEX
  5
1B7
  8
LAYER_1
 10
80.71471974238254
 20
-30.11388493760126
 30
0.0
  0
VERTEX
  5
1B8
  8
LAYER_1
 10
80.72707414107782
 20
-30.09880661267985
 30
0.0
  0
VERTEX
  5
1B9
  8
LAYER_1
 10
80.73912074678852
 20
-30.08362838621239
 30
0.0
  0
VERTEX
  5
1BA
  8
LAYER_1
 10
80.7508572278634
 20
-30.0683516081022
 30
0.0
  0
VERTEX
  5
1BB
  8
LAYER_1
 10
80.76228125265135
 20
-30.0529776282526
 30
0.0
  0
VERTEX
  5
1BC
  8
LAYER_1
 10
80.77339048950112
 20
-30.03750779656689
 30
0.0
  0
VERTEX
  5
1BD
  8
LAYER_1
 10
80.78418260676155
 20
-30.02194346294841
 30
0.0
  0
VERTEX
  5
1BE
  8
LAYER_1
 10
80.79465527278145
 20
-30.00628597730046
 30
0.0
  0
VERTEX
  5
1BF
  8
LAYER_1
 10
80.80480615590966
 20
-29.99053668952637
 30
0.0
  0
VERTEX
  5
1C0
  8
LAYER_1
 10
80.81463292449499
 20
-29.97469694952944
 30
0.0
  0
VERTEX
  5
1C1
  8
LAYER_1
 10
80.82413324688622
 20
-29.95876810721301
 30
0.0
  0
VERTEX
  5
1C2
  8
LAYER_1
 10
80.83330479143218
 20
-29.94275151248038
 30
0.0
  0
VERTEX
  5
1C3
  8
LAYER_1
 10
80.84214522648172
 20
-29.92664851523487
 30
0.0
  0
VERTEX
  5
1C4
  8
LAYER_1
 10
80.85065222038362
 20
-29.91046046537981
 30
0.0
  0
VERTEX
  5
1C5
  8
LAYER_1
 10
80.85882344148669
 20
-29.8941887128185
 30
0.0
  0
VERTEX
  5
1C6
  8
LAYER_1
 10
80.86665655813977
 20
-29.87783460745426
 30
0.0
  0
VERTEX
  5
1C7
  8
LAYER_1
 10
80.87414923869167
 20
-29.86139949919043
 30
0.0
  0
VERTEX
  5
1C8
  8
LAYER_1
 10
80.88129915149119
 20
-29.84488473793029
 30
0.0
  0
VERTEX
  5
1C9
  8
LAYER_1
 10
80.8881039648872
 20
-29.82829167357719
 30
0.0
  0
VERTEX
  5
1CA
  8
LAYER_1
 10
80.89456134722843
 20
-29.81162165603443
 30
0.0
  0
VERTEX
  5
1CB
  8
LAYER_1
 10
80.90066896686375
 20
-29.79487603520533
 30
0.0
  0
VERTEX
  5
1CC
  8
LAYER_1
 10
80.90642449214195
 20
-29.77805616099322
 30
0.0
  0
VERTEX
  5
1CD
  8
LAYER_1
 10
80.91182559141188
 20
-29.76116338330139
 30
0.0
  0
VERTEX
  5
1CE
  8
LAYER_1
 10
80.91686993302234
 20
-29.74419905203318
 30
0.0
  0
VERTEX
  5
1CF
  8
LAYER_1
 10
80.92155518532213
 20
-29.7271645170919
 30
0.0
  0
VERTEX
  5
1D0
  8
LAYER_1
 10
80.92587901666008
 20
-29.71006112838087
 30
0.0
  0
VERTEX
  5
1D1
  8
LAYER_1
 10
80.929839095385
 20
-29.6928902358034
 30
0.0
  0
VERTEX
  5
1D2
  8
LAYER_1
 10
80.93343308984572
 20
-29.67565318926282
 30
0.0
  0
VERTEX
  5
1D3
  8
LAYER_1
 10
80.93665866839102
 20
-29.65835133866244
 30
0.0
  0
VERTEX
  5
1D4
  8
LAYER_1
 10
80.93951349936975
 20
-29.64098603390557
 30
0.0
  0
VERTEX
  5
1D5
  8
LAYER_1
 10
80.9419952511307
 20
-29.62355862489554
 30
0.0
  0
VERTEX
  5
1D6
  8
LAYER_1
 10
80.94410159202272
 20
-29.60607046153567
 30
0.0
  0
VERTEX
  5
1D7
  8
LAYER_1
 10
80.9458301903946
 20
-29.58852289372926
 30
0.0
  0
VERTEX
  5
1D8
  8
LAYER_1
 10
80.94717871459517
 20
-29.57091727137963
 30
0.0
  0
VERTEX
  5
1D9
  8
LAYER_1
 10
80.94814483297321
 20
-29.55325494439011
 30
0.0
  0
VERTEX
  5
1DA
  8
LAYER_1
 10
80.94872621387759
 20
-29.53553726266401
 30
0.0
  0
VERTEX
  5
1DB
  8
LAYER_1
 10
80.94892052565709
 20
-29.51776557610465
 30
0.0
  0
VERTEX
  5
1DC
  8
LAYER_1
 10
80.94872621387759
 20
-29.49999388954529
 30
0.0
  0
VERTEX
  5
1DD
  8
LAYER_1
 10
80.94814483297321
 20
-29.48227620781919
 30
0.0
  0
VERTEX
  5
1DE
  8
LAYER_1
 10
80.94717871459517
 20
-29.46461388082967
 30
0.0
  0
VERTEX
  5
1DF
  8
LAYER_1
 10
80.9458301903946
 20
-29.44700825848005
 30
0.0
  0
VERTEX
  5
1E0
  8
LAYER_1
 10
80.94410159202272
 20
-29.42946069067364
 30
0.0
  0
VERTEX
  5
1E1
  8
LAYER_1
 10
80.9419952511307
 20
-29.41197252731376
 30
0.0
  0
VERTEX
  5
1E2
  8
LAYER_1
 10
80.93951349936975
 20
-29.39454511830373
 30
0.0
  0
VERTEX
  5
1E3
  8
LAYER_1
 10
80.93665866839102
 20
-29.37717981354686
 30
0.0
  0
VERTEX
  5
1E4
  8
LAYER_1
 10
80.93343308984572
 20
-29.35987796294648
 30
0.0
  0
VERTEX
  5
1E5
  8
LAYER_1
 10
80.929839095385
 20
-29.3426409164059
 30
0.0
  0
VERTEX
  5
1E6
  8
LAYER_1
 10
80.92587901666008
 20
-29.32547002382843
 30
0.0
  0
VERTEX
  5
1E7
  8
LAYER_1
 10
80.92155518532213
 20
-29.3083666351174
 30
0.0
  0
VERTEX
  5
1E8
  8
LAYER_1
 10
80.91686993302234
 20
-29.29133210017612
 30
0.0
  0
VERTEX
  5
1E9
  8
LAYER_1
 10
80.91182559141188
 20
-29.27436776890791
 30
0.0
  0
VERTEX
  5
1EA
  8
LAYER_1
 10
80.90642449214195
 20
-29.25747499121609
 30
0.0
  0
VERTEX
  5
1EB
  8
LAYER_1
 10
80.90066896686375
 20
-29.24065511700397
 30
0.0
  0
VERTEX
  5
1EC
  8
LAYER_1
 10
80.89456134722843
 20
-29.22390949617487
 30
0.0
  0
VERTEX
  5
1ED
  8
LAYER_1
 10
80.8881039648872
 20
-29.20723947863211
 30
0.0
  0
VERTEX
  5
1EE
  8
LAYER_1
 10
80.88129915149119
 20
-29.19064641427901
 30
0.0
  0
VERTEX
  5
1EF
  8
LAYER_1
 10
80.87414923869167
 20
-29.17413165301888
 30
0.0
  0
VERTEX
  5
1F0
  8
LAYER_1
 10
80.86665655813977
 20
-29.15769654475504
 30
0.0
  0
VERTEX
  5
1F1
  8
LAYER_1
 10
80.85882344148669
 20
-29.1413424393908
 30
0.0
  0
VERTEX
  5
1F2
  8
LAYER_1
 10
80.85065222038362
 20
-29.1250706868295
 30
0.0
  0
VERTEX
  5
1F3
  8
LAYER_1
 10
80.84214522648172
 20
-29.10888263697443
 30
0.0
  0
VERTEX
  5
1F4
  8
LAYER_1
 10
80.83330479143218
 20
-29.09277963972892
 30
0.0
  0
VERTEX
  5
1F5
  8
LAYER_1
 10
80.82413324688622
 20
-29.07676304499629
 30
0.0
  0
VERTEX
  5
1F6
  8
LAYER_1
 10
80.81463292449499
 20
-29.06083420267986
 30
0.0
  0
VERTEX
  5
1F7
  8
LAYER_1
 10
80.80480615590966
 20
-29.04499446268294
 30
0.0
  0
VERTEX
  5
1F8
  8
LAYER_1
 10
80.79465527278145
 20
-29.02924517490884
 30
0.0
  0
VERTEX
  5
1F9
  8
LAYER_1
 10
80.78418260676155
 20
-29.01358768926089
 30
0.0
  0
VERTEX
  5
1FA
  8
LAYER_1
 10
80.77339048950112
 20
-28.99802335564241
 30
0.0
  0
VERTEX
  5
1FB
  8
LAYER_1
 10
80.76228125265135
 20
-28.98255352395671
 30
0.0
  0
VERTEX
  5
1FC
  8
LAYER_1
 10
80.7508572278634
 20
-28.9671795441071
 30
0.0
  0
VERTEX
  5
1FD
  8
LAYER_1
 10
80.73912074678852
 20
-28.95190276599691
 30
0.0
  0
VERTEX
  5
1FE
  8
LAYER_1
 10
80.72707414107782
 20
-28.93672453952945
 30
0.0
  0
VERTEX
  5
1FF
  8
LAYER_1
 10
80.71471974238254
 20
-28.92164621460804
 30
0.0
  0
VERTEX
  5
200
  8
LAYER_1
 10
80.68909689264291
 20
-28.89179466901665
 30
0.0
  0
VERTEX
  5
201
  8
LAYER_1
 10
80.66227085077907
 20
-28.86235892844926
 30
0.0
  0
VERTEX
  5
202
  8
LAYER_1
 10
80.63426027000051
 20
-28.83334979213242
 30
0.0
  0
VERTEX
  5
203
  8
LAYER_1
 10
80.60508380351675
 20
-28.80477805929266
 30
0.0
  0
VERTEX
  5
204
  8
LAYER_1
 10
80.57476010453719
 20
-28.77665452915652
 30
0.0
  0
VERTEX
  5
205
  8
LAYER_1
 10
80.54330782627133
 20
-28.74899000095054
 30
0.0
  0
VERTEX
  5
206
  8
LAYER_1
 10
80.51074562192866
 20
-28.72179527390126
 30
0.0
  0
VERTEX
  5
207
  8
LAYER_1
 10
80.47709214471865
 20
-28.69508114723522
 30
0.0
  0
VERTEX
  5
208
  8
LAYER_1
 10
80.44236604785078
 20
-28.66885842017896
 30
0.0
  0
VERTEX
  5
209
  8
LAYER_1
 10
80.40658598453453
 20
-28.64313789195902
 30
0.0
  0
VERTEX
  5
20A
  8
LAYER_1
 10
80.36977060797936
 20
-28.61793036180192
 30
0.0
  0
VERTEX
  5
20B
  8
LAYER_1
 10
80.33193857139477
 20
-28.59324662893422
 30
0.0
  0
VERTEX
  5
20C
  8
LAYER_1
 10
80.2931085279902
 20
-28.56909749258245
 30
0.0
  0
VERTEX
  5
20D
  8
LAYER_1
 10
80.25329913097514
 20
-28.54549375197315
 30
0.0
  0
VERTEX
  5
20E
  8
LAYER_1
 10
80.21252903355906
 20
-28.52244620633285
 30
0.0
  0
VERTEX
  5
20F
  8
LAYER_1
 10
80.17081688895145
 20
-28.4999656548881
 30
0.0
  0
VERTEX
  5
210
  8
LAYER_1
 10
80.12818135036179
 20
-28.47806289686543
 30
0.0
  0
VERTEX
  5
211
  8
LAYER_1
 10
80.08464107099954
 20
-28.45674873149138
 30
0.0
  0
VERTEX
  5
212
  8
LAYER_1
 10
80.04021470407416
 20
-28.4360339579925
 30
0.0
  0
VERTEX
  5
213
  8
LAYER_1
 10
79.99492090279517
 20
-28.41592937559531
 30
0.0
  0
VERTEX
  5
214
  8
LAYER_1
 10
79.94877832037201
 20
-28.39644578352636
 30
0.0
  0
VERTEX
  5
215
  8
LAYER_1
 10
79.90180561001418
 20
-28.37759398101219
 30
0.0
  0
VERTEX
  5
216
  8
LAYER_1
 10
79.85402142493112
 20
-28.35938476727933
 30
0.0
  0
VERTEX
  5
217
  8
LAYER_1
 10
79.80544441833234
 20
-28.34182894155432
 30
0.0
  0
VERTEX
  5
218
  8
LAYER_1
 10
79.7560932434273
 20
-28.32493730306371
 30
0.0
  0
VERTEX
  5
219
  8
LAYER_1
 10
79.7059865534255
 20
-28.30872065103402
 30
0.0
  0
VERTEX
  5
21A
  8
LAYER_1
 10
79.65514300153637
 20
-28.2931897846918
 30
0.0
  0
VERTEX
  5
21B
  8
LAYER_1
 10
79.60358124096942
 20
-28.27835550326359
 30
0.0
  0
VERTEX
  5
21C
  8
LAYER_1
 10
79.5513199249341
 20
-28.26422860597593
 30
0.0
  0
VERTEX
  5
21D
  8
LAYER_1
 10
79.4983777066399
 20
-28.25081989205534
 30
0.0
  0
VERTEX
  5
21E
  8
LAYER_1
 10
79.4447732392963
 20
-28.23814016072838
 30
0.0
  0
VERTEX
  5
21F
  8
LAYER_1
 10
79.39052517611276
 20
-28.22620021122157
 30
0.0
  0
VERTEX
  5
220
  8
LAYER_1
 10
79.33565217029879
 20
-28.21501084276147
 30
0.0
  0
VERTEX
  5
221
  8
LAYER_1
 10
79.28017287506384
 20
-28.2045828545746
 30
0.0
  0
VERTEX
  5
222
  8
LAYER_1
 10
79.22410594361737
 20
-28.19492704588751
 30
0.0
  0
VERTEX
  5
223
  8
LAYER_1
 10
79.16747002916888
 20
-28.18605421592673
 30
0.0
  0
VERTEX
  5
224
  8
LAYER_1
 10
79.11028378492784
 20
-28.17797516391881
 30
0.0
  0
VERTEX
  5
225
  8
LAYER_1
 10
79.05256586410371
 20
-28.17070068909027
 30
0.0
  0
VERTEX
  5
226
  8
LAYER_1
 10
78.99433491990598
 20
-28.16424159066766
 30
0.0
  0
VERTEX
  5
227
  8
LAYER_1
 10
78.93560960554416
 20
-28.15860866787752
 30
0.0
  0
VERTEX
  5
228
  8
LAYER_1
 10
78.87640857422765
 20
-28.15381271994639
 30
0.0
  0
VERTEX
  5
229
  8
LAYER_1
 10
78.81675047916599
 20
-28.1498645461008
 30
0.0
  0
VERTEX
  5
22A
  8
LAYER_1
 10
78.75665397356863
 20
-28.14677494556729
 30
0.0
  0
VERTEX
  5
22B
  8
LAYER_1
 10
78.69613771064505
 20
-28.1445547175724
 30
0.0
  0
VERTEX
  5
22C
  8
LAYER_1
 10
78.63522034360469
 20
-28.14321466134268
 30
0.0
  0
VERTEX
  5
22D
  8
LAYER_1
 10
78.57392052565709
 20
-28.14276557610465
 30
0.0
  0
VERTEX
  5
22E
  8
LAYER_1
 10
78.51262070770949
 20
-28.14321466134268
 30
0.0
  0
VERTEX
  5
22F
  8
LAYER_1
 10
78.45170334066913
 20
-28.1445547175724
 30
0.0
  0
VERTEX
  5
230
  8
LAYER_1
 10
78.39118707774554
 20
-28.14677494556729
 30
0.0
  0
VERTEX
  5
231
  8
LAYER_1
 10
78.33109057214818
 20
-28.1498645461008
 30
0.0
  0
VERTEX
  5
232
  8
LAYER_1
 10
78.27143247708652
 20
-28.15381271994639
 30
0.0
  0
VERTEX
  5
233
  8
LAYER_1
 10
78.21223144577002
 20
-28.15860866787752
 30
0.0
  0
VERTEX
  5
234
  8
LAYER_1
 10
78.1535061314082
 20
-28.16424159066766
 30
0.0
  0
VERTEX
  5
235
  8
LAYER_1
 10
78.09527518721046
 20
-28.17070068909027
 30
0.0
  0
VERTEX
  5
236
  8
LAYER_1
 10
78.03755726638633
 20
-28.17797516391881
 30
0.0
  0
VERTEX
  5
237
  8
LAYER_1
 10
77.98037102214529
 20
-28.18605421592673
 30
0.0
  0
VERTEX
  5
238
  8
LAYER_1
 10
77.9237351076968
 20
-28.19492704588751
 30
0.0
  0
VERTEX
  5
239
  8
LAYER_1
 10
77.86766817625033
 20
-28.2045828545746
 30
0.0
  0
VERTEX
  5
23A
  8
LAYER_1
 10
77.81218888101539
 20
-28.21501084276147
 30
0.0
  0
VERTEX
  5
23B
  8
LAYER_1
 10
77.75731587520141
 20
-28.22620021122157
 30
0.0
  0
VERTEX
  5
23C
  8
LAYER_1
 10
77.70306781201788
 20
-28.23814016072838
 30
0.0
  0
VERTEX
  5
23D
  8
LAYER_1
 10
77.64946334467427
 20
-28.25081989205534
 30
0.0
  0
VERTEX
  5
23E
  8
LAYER_1
 10
77.59652112638007
 20
-28.26422860597593
 30
0.0
  0
VERTEX
  5
23F
  8
LAYER_1
 10
77.54425981034476
 20
-28.27835550326359
 30
0.0
  0
VERTEX
  5
240
  8
LAYER_1
 10
77.4926980497778
 20
-28.2931897846918
 30
0.0
  0
VERTEX
  5
241
  8
LAYER_1
 10
77.44185449788867
 20
-28.30872065103402
 30
0.0
  0
VERTEX
  5
242
  8
LAYER_1
 10
77.39174780788684
 20
-28.32493730306371
 30
0.0
  0
VERTEX
  5
243
  8
LAYER_1
 10
77.3423966329818
 20
-28.34182894155432
 30
0.0
  0
VERTEX
  5
244
  8
LAYER_1
 10
77.29381962638303
 20
-28.35938476727933
 30
0.0
  0
VERTEX
  5
245
  8
LAYER_1
 10
77.2460354413
 20
-28.37759398101219
 30
0.0
  0
VERTEX
  5
246
  8
LAYER_1
 10
77.19906273094215
 20
-28.39644578352636
 30
0.0
  0
VERTEX
  5
247
  8
LAYER_1
 10
77.15292014851899
 20
-28.41592937559531
 30
0.0
  0
VERTEX
  5
248
  8
LAYER_1
 10
77.10762634724
 20
-28.4360339579925
 30
0.0
  0
VERTEX
  5
249
  8
LAYER_1
 10
77.06319998031464
 20
-28.45674873149138
 30
0.0
  0
VERTEX
  5
24A
  8
LAYER_1
 10
77.01965970095239
 20
-28.47806289686543
 30
0.0
  0
VERTEX
  5
24B
  8
LAYER_1
 10
76.97702416236272
 20
-28.4999656548881
 30
0.0
  0
VERTEX
  5
24C
  8
LAYER_1
 10
76.93531201775511
 20
-28.52244620633285
 30
0.0
  0
VERTEX
  5
24D
  8
LAYER_1
 10
76.89454192033904
 20
-28.54549375197315
 30
0.0
  0
VERTEX
  5
24E
  8
LAYER_1
 10
76.85473252332397
 20
-28.56909749258245
 30
0.0
  0
VERTEX
  5
24F
  8
LAYER_1
 10
76.8159024799194
 20
-28.59324662893422
 30
0.0
  0
VERTEX
  5
250
  8
LAYER_1
 10
76.77807044333481
 20
-28.61793036180192
 30
0.0
  0
VERTEX
  5
251
  8
LAYER_1
 10
76.74125506677964
 20
-28.64313789195902
 30
0.0
  0
VERTEX
  5
252
  8
LAYER_1
 10
76.70547500346339
 20
-28.66885842017896
 30
0.0
  0
VERTEX
  5
253
  8
LAYER_1
 10
76.67074890659552
 20
-28.69508114723522
 30
0.0
  0
VERTEX
  5
254
  8
LAYER_1
 10
76.63709542938551
 20
-28.72179527390126
 30
0.0
  0
VERTEX
  5
255
  8
LAYER_1
 10
76.60453322504284
 20
-28.74899000095054
 30
0.0
  0
VERTEX
  5
256
  8
LAYER_1
 10
76.57308094677698
 20
-28.77665452915652
 30
0.0
  0
VERTEX
  5
257
  8
LAYER_1
 10
76.54275724779743
 20
-28.80477805929266
 30
0.0
  0
VERTEX
  5
258
  8
LAYER_1
 10
76.51358078131366
 20
-28.83334979213242
 30
0.0
  0
VERTEX
  5
259
  8
LAYER_1
 10
76.48557020053511
 20
-28.86235892844926
 30
0.0
  0
VERTEX
  5
25A
  8
LAYER_1
 10
76.45874415867127
 20
-28.89179466901665
 30
0.0
  0
VERTEX
  5
25B
  8
LAYER_1
 10
76.43312130893163
 20
-28.92164621460804
 30
0.0
  0
VERTEX
  5
25C
  8
LAYER_1
 10
76.42076691023635
 20
-28.93672453952945
 30
0.0
  0
VERTEX
  5
25D
  8
LAYER_1
 10
76.40872030452566
 20
-28.95190276599691
 30
0.0
  0
VERTEX
  5
25E
  8
LAYER_1
 10
76.39698382345077
 20
-28.9671795441071
 30
0.0
  0
VERTEX
  5
25F
  8
LAYER_1
 10
76.38555979866283
 20
-28.98255352395671
 30
0.0
  0
VERTEX
  5
260
  8
LAYER_1
 10
76.37445056181305
 20
-28.99802335564241
 30
0.0
  0
VERTEX
  5
261
  8
LAYER_1
 10
76.36365844455263
 20
-29.01358768926089
 30
0.0
  0
VERTEX
  5
262
  8
LAYER_1
 10
76.35318577853272
 20
-29.02924517490884
 30
0.0
  0
VERTEX
  5
263
  8
LAYER_1
 10
76.34303489540451
 20
-29.04499446268294
 30
0.0
  0
VERTEX
  5
264
  8
LAYER_1
 10
76.33320812681919
 20
-29.06083420267986
 30
0.0
  0
VERTEX
  5
265
  8
LAYER_1
 10
76.32370780442795
 20
-29.07676304499629
 30
0.0
  0
VERTEX
  5
266
  8
LAYER_1
 10
76.31453625988199
 20
-29.09277963972892
 30
0.0
  0
VERTEX
  5
267
  8
LAYER_1
 10
76.30569582483245
 20
-29.10888263697443
 30
0.0
  0
VERTEX
  5
268
  8
LAYER_1
 10
76.29718883093055
 20
-29.1250706868295
 30
0.0
  0
VERTEX
  5
269
  8
LAYER_1
 10
76.28901760982748
 20
-29.1413424393908
 30
0.0
  0
VERTEX
  5
26A
  8
LAYER_1
 10
76.28118449317441
 20
-29.15769654475504
 30
0.0
  0
VERTEX
  5
26B
  8
LAYER_1
 10
76.2736918126225
 20
-29.17413165301888
 30
0.0
  0
VERTEX
  5
26C
  8
LAYER_1
 10
76.26654189982298
 20
-29.19064641427901
 30
0.0
  0
VERTEX
  5
26D
  8
LAYER_1
 10
76.25973708642698
 20
-29.20723947863211
 30
0.0
  0
VERTEX
  5
26E
  8
LAYER_1
 10
76.25327970408574
 20
-29.22390949617487
 30
0.0
  0
VERTEX
  5
26F
  8
LAYER_1
 10
76.24717208445043
 20
-29.24065511700397
 30
0.0
  0
VERTEX
  5
270
  8
LAYER_1
 10
76.24141655917222
 20
-29.25747499121609
 30
0.0
  0
VERTEX
  5
271
  8
LAYER_1
 10
76.23601545990229
 20
-29.27436776890791
 30
0.0
  0
VERTEX
  5
272
  8
LAYER_1
 10
76.23097111829183
 20
-29.29133210017612
 30
0.0
  0
VERTEX
  5
273
  8
LAYER_1
 10
76.22628586599204
 20
-29.3083666351174
 30
0.0
  0
VERTEX
  5
274
  8
LAYER_1
 10
76.2219620346541
 20
-29.32547002382843
 30
0.0
  0
VERTEX
  5
275
  8
LAYER_1
 10
76.21800195592917
 20
-29.3426409164059
 30
0.0
  0
VERTEX
  5
276
  8
LAYER_1
 10
76.21440796146845
 20
-29.35987796294648
 30
0.0
  0
VERTEX
  5
277
  8
LAYER_1
 10
76.21118238292316
 20
-29.37717981354686
 30
0.0
  0
VERTEX
  5
278
  8
LAYER_1
 10
76.20832755194442
 20
-29.39454511830373
 30
0.0
  0
VERTEX
  5
279
  8
LAYER_1
 10
76.20584580018347
 20
-29.41197252731376
 30
0.0
  0
VERTEX
  5
27A
  8
LAYER_1
 10
76.20373945929146
 20
-29.42946069067364
 30
0.0
  0
VERTEX
  5
27B
  8
LAYER_1
 10
76.20201086091957
 20
-29.44700825848005
 30
0.0
  0
VERTEX
  5
27C
  8
LAYER_1
 10
76.200662336719
 20
-29.46461388082967
 30
0.0
  0
VERTEX
  5
27D
  8
LAYER_1
 10
76.19969621834096
 20
-29.48227620781919
 30
0.0
  0
VERTEX
  5
27E
  8
LAYER_1
 10
76.19911483743658
 20
-29.49999388954529
 30
0.0
  0
VERTEX
  5
27F
  8
LAYER_1
 10
76.19892052565709
 20
-29.51776557610465
 30
0.0
  0
VERTEX
  5
280
  8
LAYER_1
 10
76.19911483743658
 20
-29.53553726266401
 30
0.0
  0
VERTEX
  5
281
  8
LAYER_1
 10
76.19969621834096
 20
-29.55325494439011
 30
0.0
  0
VERTEX
  5
282
  8
LAYER_1
 10
76.200662336719
 20
-29.57091727137963
 30
0.0
  0
VERTEX
  5
283
  8
LAYER_1
 10
76.20201086091957
 20
-29.58852289372926
 30
0.0
  0
VERTEX
  5
284
  8
LAYER_1
 10
76.20373945929146
 20
-29.60607046153567
 30
0.0
  0
VERTEX
  5
285
  8
LAYER_1
 10
76.20584580018347
 20
-29.62355862489554
 30
0.0
  0
VERTEX
  5
286
  8
LAYER_1
 10
76.20832755194442
 20
-29.64098603390557
 30
0.0
  0
VERTEX
  5
287
  8
LAYER_1
 10
76.21118238292316
 20
-29.65835133866244
 30
0.0
  0
VERTEX
  5
288
  8
LAYER_1
 10
76.21440796146845
 20
-29.67565318926282
 30
0.0
  0
VERTEX
  5
289
  8
LAYER_1
 10
76.21800195592917
 20
-29.6928902358034
 30
0.0
  0
VERTEX
  5
28A
  8
LAYER_1
 10
76.2219620346541
 20
-29.71006112838087
 30
0.0
  0
VERTEX
  5
28B
  8
LAYER_1
 10
76.22628586599204
 20
-29.7271645170919
 30
0.0
  0
VERTEX
  5
28C
  8
LAYER_1
 10
76.23097111829183
 20
-29.74419905203318
 30
0.0
  0
VERTEX
  5
28D
  8
LAYER_1
 10
76.23601545990229
 20
-29.76116338330139
 30
0.0
  0
VERTEX
  5
28E
  8
LAYER_1
 10
76.24141655917222
 20
-29.77805616099322
 30
0.0
  0
VERTEX
  5
28F
  8
LAYER_1
 10
76.24717208445043
 20
-29.79487603520533
 30
0.0
  0
VERTEX
  5
290
  8
LAYER_1
 10
76.25327970408574
 20
-29.81162165603443
 30
0.0
  0
VERTEX
  5
291
  8
LAYER_1
 10
76.25973708642698
 20
-29.82829167357719
 30
0.0
  0
VERTEX
  5
292
  8
LAYER_1
 10
76.26654189982298
 20
-29.84488473793029
 30
0.0
  0
VERTEX
  5
293
  8
LAYER_1
 10
76.2736918126225
 20
-29.86139949919043
 30
0.0
  0
VERTEX
  5
294
  8
LAYER_1
 10
76.28118449317441
 20
-29.87783460745426
 30
0.0
  0
VERTEX
  5
295
  8
LAYER_1
 10
76.28901760982748
 20
-29.8941887128185
 30
0.0
  0
VERTEX
  5
296
  8
LAYER_1
 10
76.29718883093055
 20
-29.91046046537981
 30
0.0
  0
VERTEX
  5
297
  8
LAYER_1
 10
76.30569582483245
 20
-29.92664851523487
 30
0.0
  0
VERTEX
  5
298
  8
LAYER_1
 10
76.31453625988199
 20
-29.94275151248038
 30
0.0
  0
VERTEX
  5
299
  8
LAYER_1
 10
76.32370780442795
 20
-29.95876810721301
 30
0.0
  0
VERTEX
  5
29A
  8
LAYER_1
 10
76.33320812681919
 20
-29.97469694952944
 30
0.0
  0
VERTEX
  5
29B
  8
LAYER_1
 10
76.34303489540451
 20
-29.99053668952637
 30
0.0
  0
VERTEX
  5
29C
  8
LAYER_1
 10
76.35318577853272
 20
-30.00628597730046
 30
0.0
  0
VERTEX
  5
29D
  8
LAYER_1
 10
76.36365844455263
 20
-30.02194346294841
 30
0.0
  0
VERTEX
  5
29E
  8
LAYER_1
 10
76.37445056181305
 20
-30.03750779656689
 30
0.0
  0
VERTEX
  5
29F
  8
LAYER_1
 10
76.38555979866283
 20
-30.0529776282526
 30
0.0
  0
VERTEX
  5
2A0
  8
LAYER_1
 10
76.39698382345077
 20
-30.0683516081022
 30
0.0
  0
VERTEX
  5
2A1
  8
LAYER_1
 10
76.40872030452566
 20
-30.08362838621239
 30
0.0
  0
VERTEX
  5
2A2
  8
LAYER_1
 10
76.42076691023635
 20
-30.09880661267985
 30
0.0
  0
VERTEX
  5
2A3
  8
LAYER_1
 10
76.43312130893163
 20
-30.11388493760126
 30
0.0
  0
VERTEX
  5
2A4
  8
LAYER_1
 10
76.45874415867127
 20
-30.14373648319265
 30
0.0
  0
VERTEX
  5
2A5
  8
LAYER_1
 10
76.48557020053511
 20
-30.17317222376004
 30
0.0
  0
VERTEX
  5
2A6
  8
LAYER_1
 10
76.51358078131366
 20
-30.20218136007689
 30
0.0
  0
VERTEX
  5
2A7
  8
LAYER_1
 10
76.54275724779743
 20
-30.23075309291664
 30
0.0
  0
VERTEX
  5
2A8
  8
LAYER_1
 10
76.57308094677698
 20
-30.25887662305278
 30
0.0
  0
VERTEX
  5
2A9
  8
LAYER_1
 10
76.60453322504284
 20
-30.28654115125876
 30
0.0
  0
VERTEX
  5
2AA
  8
LAYER_1
 10
76.63709542938551
 20
-30.31373587830804
 30
0.0
  0
VERTEX
  5
2AB
  8
LAYER_1
 10
76.67074890659552
 20
-30.34045000497408
 30
0.0
  0
VERTEX
  5
2AC
  8
LAYER_1
 10
76.70547500346339
 20
-30.36667273203034
 30
0.0
  0
VERTEX
  5
2AD
  8
LAYER_1
 10
76.74125506677964
 20
-30.39239326025028
 30
0.0
  0
VERTEX
  5
2AE
  8
LAYER_1
 10
76.77807044333481
 20
-30.41760079040738
 30
0.0
  0
VERTEX
  5
2AF
  8
LAYER_1
 10
76.8159024799194
 20
-30.44228452327508
 30
0.0
  0
VERTEX
  5
2B0
  8
LAYER_1
 10
76.85473252332397
 20
-30.46643365962685
 30
0.0
  0
VERTEX
  5
2B1
  8
LAYER_1
 10
76.89454192033904
 20
-30.49003740023615
 30
0.0
  0
VERTEX
  5
2B2
  8
LAYER_1
 10
76.93531201775511
 20
-30.51308494587645
 30
0.0
  0
VERTEX
  5
2B3
  8
LAYER_1
 10
76.97702416236272
 20
-30.5355654973212
 30
0.0
  0
VERTEX
  5
2B4
  8
LAYER_1
 10
77.01965970095239
 20
-30.55746825534387
 30
0.0
  0
VERTEX
  5
2B5
  8
LAYER_1
 10
77.06319998031464
 20
-30.57878242071792
 30
0.0
  0
VERTEX
  5
2B6
  8
LAYER_1
 10
77.10762634724
 20
-30.5994971942168
 30
0.0
  0
VERTEX
  5
2B7
  8
LAYER_1
 10
77.15292014851899
 20
-30.61960177661399
 30
0.0
  0
VERTEX
  5
2B8
  8
LAYER_1
 10
77.19906273094215
 20
-30.63908536868294
 30
0.0
  0
VERTEX
  5
2B9
  8
LAYER_1
 10
77.2460354413
 20
-30.65793717119711
 30
0.0
  0
VERTEX
  5
2BA
  8
LAYER_1
 10
77.29381962638303
 20
-30.67614638492997
 30
0.0
  0
VERTEX
  5
2BB
  8
LAYER_1
 10
77.3423966329818
 20
-30.69370221065498
 30
0.0
  0
VERTEX
  5
2BC
  8
LAYER_1
 10
77.39174780788684
 20
-30.7105938491456
 30
0.0
  0
VERTEX
  5
2BD
  8
LAYER_1
 10
77.44185449788867
 20
-30.72681050117528
 30
0.0
  0
VERTEX
  5
2BE
  8
LAYER_1
 10
77.4926980497778
 20
-30.7423413675175
 30
0.0
  0
VERTEX
  5
2BF
  8
LAYER_1
 10
77.54425981034476
 20
-30.75717564894571
 30
0.0
  0
VERTEX
  5
2C0
  8
LAYER_1
 10
77.59652112638007
 20
-30.77130254623338
 30
0.0
  0
VERTEX
  5
2C1
  8
LAYER_1
 10
77.64946334467427
 20
-30.78471126015396
 30
0.0
  0
VERTEX
  5
2C2
  8
LAYER_1
 10
77.70306781201788
 20
-30.79739099148092
 30
0.0
  0
VERTEX
  5
2C3
  8
LAYER_1
 10
77.75731587520141
 20
-30.80933094098773
 30
0.0
  0
VERTEX
  5
2C4
  8
LAYER_1
 10
77.81218888101539
 20
-30.82052030944783
 30
0.0
  0
VERTEX
  5
2C5
  8
LAYER_1
 10
77.86766817625033
 20
-30.8309482976347
 30
0.0
  0
VERTEX
  5
2C6
  8
LAYER_1
 10
77.9237351076968
 20
-30.84060410632179
 30
0.0
  0
VERTEX
  5
2C7
  8
LAYER_1
 10
77.98037102214529
 20
-30.84947693628257
 30
0.0
  0
VERTEX
  5
2C8
  8
LAYER_1
 10
78.03755726638633
 20
-30.8575559882905
 30
0.0
  0
VERTEX
  5
2C9
  8
LAYER_1
 10
78.09527518721046
 20
-30.86483046311903
 30
0.0
  0
VERTEX
  5
2CA
  8
LAYER_1
 10
78.1535061314082
 20
-30.87128956154164
 30
0.0
  0
VERTEX
  5
2CB
  8
LAYER_1
 10
78.21223144577002
 20
-30.87692248433178
 30
0.0
  0
VERTEX
  5
2CC
  8
LAYER_1
 10
78.27143247708652
 20
-30.88171843226291
 30
0.0
  0
VERTEX
  5
2CD
  8
LAYER_1
 10
78.33109057214818
 20
-30.8856666061085
 30
0.0
  0
VERTEX
  5
2CE
  8
LAYER_1
 10
78.39118707774554
 20
-30.88875620664201
 30
0.0
  0
VERTEX
  5
2CF
  8
LAYER_1
 10
78.45170334066913
 20
-30.8909764346369
 30
0.0
  0
VERTEX
  5
2D0
  8
LAYER_1
 10
78.51262070770949
 20
-30.89231649086662
 30
0.0
  0
SEQEND
  5
A81
  8
LAYER_1
  0
POLYLINE
  5
8B
  8
LAYER_1
 66
     1
 10
0.0
 20
0.0
 30
0.0
 70
     1
  0
VERTEX
  5
2D1
  8
LAYER_1
 10
89.57392052565709
 20
-30.89276557610465
 30
0.0
  0
VERTEX
  5
2D2
  8
LAYER_1
 10
89.63522034360469
 20
-30.89231649086662
 30
0.0
  0
VERTEX
  5
2D3
  8
LAYER_1
 10
89.69613771064505
 20
-30.8909764346369
 30
0.0
  0
VERTEX
  5
2D4
  8
LAYER_1
 10
89.75665397356863
 20
-30.88875620664201
 30
0.0
  0
VERTEX
  5
2D5
  8
LAYER_1
 10
89.81675047916599
 20
-30.8856666061085
 30
0.0
  0
VERTEX
  5
2D6
  8
LAYER_1
 10
89.87640857422765
 20
-30.88171843226291
 30
0.0
  0
VERTEX
  5
2D7
  8
LAYER_1
 10
89.93560960554416
 20
-30.87692248433178
 30
0.0
  0
VERTEX
  5
2D8
  8
LAYER_1
 10
89.99433491990598
 20
-30.87128956154164
 30
0.0
  0
VERTEX
  5
2D9
  8
LAYER_1
 10
90.05256586410371
 20
-30.86483046311903
 30
0.0
  0
VERTEX
  5
2DA
  8
LAYER_1
 10
90.11028378492784
 20
-30.8575559882905
 30
0.0
  0
VERTEX
  5
2DB
  8
LAYER_1
 10
90.16747002916888
 20
-30.84947693628257
 30
0.0
  0
VERTEX
  5
2DC
  8
LAYER_1
 10
90.22410594361737
 20
-30.84060410632179
 30
0.0
  0
VERTEX
  5
2DD
  8
LAYER_1
 10
90.28017287506384
 20
-30.8309482976347
 30
0.0
  0
VERTEX
  5
2DE
  8
LAYER_1
 10
90.33565217029879
 20
-30.82052030944783
 30
0.0
  0
VERTEX
  5
2DF
  8
LAYER_1
 10
90.39052517611276
 20
-30.80933094098773
 30
0.0
  0
VERTEX
  5
2E0
  8
LAYER_1
 10
90.4447732392963
 20
-30.79739099148092
 30
0.0
  0
VERTEX
  5
2E1
  8
LAYER_1
 10
90.4983777066399
 20
-30.78471126015396
 30
0.0
  0
VERTEX
  5
2E2
  8
LAYER_1
 10
90.5513199249341
 20
-30.77130254623338
 30
0.0
  0
VERTEX
  5
2E3
  8
LAYER_1
 10
90.60358124096942
 20
-30.75717564894571
 30
0.0
  0
VERTEX
  5
2E4
  8
LAYER_1
 10
90.65514300153637
 20
-30.7423413675175
 30
0.0
  0
VERTEX
  5
2E5
  8
LAYER_1
 10
90.7059865534255
 20
-30.72681050117528
 30
0.0
  0
VERTEX
  5
2E6
  8
LAYER_1
 10
90.7560932434273
 20
-30.7105938491456
 30
0.0
  0
VERTEX
  5
2E7
  8
LAYER_1
 10
90.80544441833234
 20
-30.69370221065498
 30
0.0
  0
VERTEX
  5
2E8
  8
LAYER_1
 10
90.85402142493112
 20
-30.67614638492997
 30
0.0
  0
VERTEX
  5
2E9
  8
LAYER_1
 10
90.90180561001418
 20
-30.65793717119711
 30
0.0
  0
VERTEX
  5
2EA
  8
LAYER_1
 10
90.94877832037201
 20
-30.63908536868294
 30
0.0
  0
VERTEX
  5
2EB
  8
LAYER_1
 10
90.99492090279517
 20
-30.61960177661399
 30
0.0
  0
VERTEX
  5
2EC
  8
LAYER_1
 10
91.04021470407416
 20
-30.5994971942168
 30
0.0
  0
VERTEX
  5
2ED
  8
LAYER_1
 10
91.08464107099954
 20
-30.57878242071792
 30
0.0
  0
VERTEX
  5
2EE
  8
LAYER_1
 10
91.12818135036179
 20
-30.55746825534387
 30
0.0
  0
VERTEX
  5
2EF
  8
LAYER_1
 10
91.17081688895145
 20
-30.5355654973212
 30
0.0
  0
VERTEX
  5
2F0
  8
LAYER_1
 10
91.21252903355906
 20
-30.51308494587645
 30
0.0
  0
VERTEX
  5
2F1
  8
LAYER_1
 10
91.25329913097514
 20
-30.49003740023615
 30
0.0
  0
VERTEX
  5
2F2
  8
LAYER_1
 10
91.2931085279902
 20
-30.46643365962685
 30
0.0
  0
VERTEX
  5
2F3
  8
LAYER_1
 10
91.33193857139477
 20
-30.44228452327508
 30
0.0
  0
VERTEX
  5
2F4
  8
LAYER_1
 10
91.36977060797936
 20
-30.41760079040738
 30
0.0
  0
VERTEX
  5
2F5
  8
LAYER_1
 10
91.40658598453453
 20
-30.39239326025028
 30
0.0
  0
VERTEX
  5
2F6
  8
LAYER_1
 10
91.44236604785078
 20
-30.36667273203034
 30
0.0
  0
VERTEX
  5
2F7
  8
LAYER_1
 10
91.47709214471865
 20
-30.34045000497408
 30
0.0
  0
VERTEX
  5
2F8
  8
LAYER_1
 10
91.51074562192866
 20
-30.31373587830804
 30
0.0
  0
VERTEX
  5
2F9
  8
LAYER_1
 10
91.54330782627133
 20
-30.28654115125876
 30
0.0
  0
VERTEX
  5
2FA
  8
LAYER_1
 10
91.57476010453719
 20
-30.25887662305278
 30
0.0
  0
VERTEX
  5
2FB
  8
LAYER_1
 10
91.60508380351675
 20
-30.23075309291664
 30
0.0
  0
VERTEX
  5
2FC
  8
LAYER_1
 10
91.63426027000051
 20
-30.20218136007689
 30
0.0
  0
VERTEX
  5
2FD
  8
LAYER_1
 10
91.66227085077907
 20
-30.17317222376004
 30
0.0
  0
VERTEX
  5
2FE
  8
LAYER_1
 10
91.68909689264291
 20
-30.14373648319265
 30
0.0
  0
VERTEX
  5
2FF
  8
LAYER_1
 10
91.71471974238254
 20
-30.11388493760126
 30
0.0
  0
VERTEX
  5
300
  8
LAYER_1
 10
91.72707414107782
 20
-30.09880661267985
 30
0.0
  0
VERTEX
  5
301
  8
LAYER_1
 10
91.73912074678852
 20
-30.08362838621239
 30
0.0
  0
VERTEX
  5
302
  8
LAYER_1
 10
91.7508572278634
 20
-30.0683516081022
 30
0.0
  0
VERTEX
  5
303
  8
LAYER_1
 10
91.76228125265135
 20
-30.0529776282526
 30
0.0
  0
VERTEX
  5
304
  8
LAYER_1
 10
91.77339048950112
 20
-30.03750779656689
 30
0.0
  0
VERTEX
  5
305
  8
LAYER_1
 10
91.78418260676155
 20
-30.02194346294841
 30
0.0
  0
VERTEX
  5
306
  8
LAYER_1
 10
91.79465527278145
 20
-30.00628597730046
 30
0.0
  0
VERTEX
  5
307
  8
LAYER_1
 10
91.80480615590966
 20
-29.99053668952637
 30
0.0
  0
VERTEX
  5
308
  8
LAYER_1
 10
91.81463292449499
 20
-29.97469694952944
 30
0.0
  0
VERTEX
  5
309
  8
LAYER_1
 10
91.82413324688622
 20
-29.95876810721301
 30
0.0
  0
VERTEX
  5
30A
  8
LAYER_1
 10
91.83330479143218
 20
-29.94275151248038
 30
0.0
  0
VERTEX
  5
30B
  8
LAYER_1
 10
91.84214522648172
 20
-29.92664851523487
 30
0.0
  0
VERTEX
  5
30C
  8
LAYER_1
 10
91.85065222038362
 20
-29.91046046537981
 30
0.0
  0
VERTEX
  5
30D
  8
LAYER_1
 10
91.85882344148669
 20
-29.8941887128185
 30
0.0
  0
VERTEX
  5
30E
  8
LAYER_1
 10
91.86665655813977
 20
-29.87783460745426
 30
0.0
  0
VERTEX
  5
30F
  8
LAYER_1
 10
91.87414923869167
 20
-29.86139949919043
 30
0.0
  0
VERTEX
  5
310
  8
LAYER_1
 10
91.88129915149119
 20
-29.84488473793029
 30
0.0
  0
VERTEX
  5
311
  8
LAYER_1
 10
91.8881039648872
 20
-29.82829167357719
 30
0.0
  0
VERTEX
  5
312
  8
LAYER_1
 10
91.89456134722843
 20
-29.81162165603443
 30
0.0
  0
VERTEX
  5
313
  8
LAYER_1
 10
91.90066896686375
 20
-29.79487603520533
 30
0.0
  0
VERTEX
  5
314
  8
LAYER_1
 10
91.90642449214195
 20
-29.77805616099322
 30
0.0
  0
VERTEX
  5
315
  8
LAYER_1
 10
91.91182559141188
 20
-29.76116338330139
 30
0.0
  0
VERTEX
  5
316
  8
LAYER_1
 10
91.91686993302234
 20
-29.74419905203318
 30
0.0
  0
VERTEX
  5
317
  8
LAYER_1
 10
91.92155518532213
 20
-29.7271645170919
 30
0.0
  0
VERTEX
  5
318
  8
LAYER_1
 10
91.92587901666008
 20
-29.71006112838087
 30
0.0
  0
VERTEX
  5
319
  8
LAYER_1
 10
91.929839095385
 20
-29.6928902358034
 30
0.0
  0
VERTEX
  5
31A
  8
LAYER_1
 10
91.93343308984572
 20
-29.67565318926282
 30
0.0
  0
VERTEX
  5
31B
  8
LAYER_1
 10
91.93665866839102
 20
-29.65835133866244
 30
0.0
  0
VERTEX
  5
31C
  8
LAYER_1
 10
91.93951349936975
 20
-29.64098603390557
 30
0.0
  0
VERTEX
  5
31D
  8
LAYER_1
 10
91.9419952511307
 20
-29.62355862489554
 30
0.0
  0
VERTEX
  5
31E
  8
LAYER_1
 10
91.94410159202272
 20
-29.60607046153567
 30
0.0
  0
VERTEX
  5
31F
  8
LAYER_1
 10
91.9458301903946
 20
-29.58852289372926
 30
0.0
  0
VERTEX
  5
320
  8
LAYER_1
 10
91.94717871459517
 20
-29.57091727137963
 30
0.0
  0
VERTEX
  5
321
  8
LAYER_1
 10
91.94814483297321
 20
-29.55325494439011
 30
0.0
  0
VERTEX
  5
322
  8
LAYER_1
 10
91.94872621387759
 20
-29.53553726266401
 30
0.0
  0
VERTEX
  5
323
  8
LAYER_1
 10
91.94892052565709
 20
-29.51776557610465
 30
0.0
  0
VERTEX
  5
324
  8
LAYER_1
 10
91.94872621387759
 20
-29.49999388954529
 30
0.0
  0
VERTEX
  5
325
  8
LAYER_1
 10
91.94814483297321
 20
-29.48227620781919
 30
0.0
  0
VERTEX
  5
326
  8
LAYER_1
 10
91.94717871459517
 20
-29.46461388082967
 30
0.0
  0
VERTEX
  5
327
  8
LAYER_1
 10
91.9458301903946
 20
-29.44700825848005
 30
0.0
  0
VERTEX
  5
328
  8
LAYER_1
 10
91.94410159202272
 20
-29.42946069067364
 30
0.0
  0
VERTEX
  5
329
  8
LAYER_1
 10
91.9419952511307
 20
-29.41197252731376
 30
0.0
  0
VERTEX
  5
32A
  8
LAYER_1
 10
91.93951349936975
 20
-29.39454511830373
 30
0.0
  0
VERTEX
  5
32B
  8
LAYER_1
 10
91.93665866839102
 20
-29.37717981354686
 30
0.0
  0
VERTEX
  5
32C
  8
LAYER_1
 10
91.93343308984572
 20
-29.35987796294648
 30
0.0
  0
VERTEX
  5
32D
  8
LAYER_1
 10
91.929839095385
 20
-29.3426409164059
 30
0.0
  0
VERTEX
  5
32E
  8
LAYER_1
 10
91.92587901666008
 20
-29.32547002382843
 30
0.0
  0
VERTEX
  5
32F
  8
LAYER_1
 10
91.92155518532213
 20
-29.3083666351174
 30
0.0
  0
VERTEX
  5
330
  8
LAYER_1
 10
91.91686993302234
 20
-29.29133210017612
 30
0.0
  0
VERTEX
  5
331
  8
LAYER_1
 10
91.91182559141188
 20
-29.27436776890791
 30
0.0
  0
VERTEX
  5
332
  8
LAYER_1
 10
91.90642449214195
 20
-29.25747499121609
 30
0.0
  0
VERTEX
  5
333
  8
LAYER_1
 10
91.90066896686375
 20
-29.24065511700397
 30
0.0
  0
VERTEX
  5
334
  8
LAYER_1
 10
91.89456134722843
 20
-29.22390949617487
 30
0.0
  0
VERTEX
  5
335
  8
LAYER_1
 10
91.8881039648872
 20
-29.20723947863211
 30
0.0
  0
VERTEX
  5
336
  8
LAYER_1
 10
91.88129915149119
 20
-29.19064641427901
 30
0.0
  0
VERTEX
  5
337
  8
LAYER_1
 10
91.87414923869167
 20
-29.17413165301888
 30
0.0
  0
VERTEX
  5
338
  8
LAYER_1
 10
91.86665655813977
 20
-29.15769654475504
 30
0.0
  0
VERTEX
  5
339
  8
LAYER_1
 10
91.85882344148669
 20
-29.1413424393908
 30
0.0
  0
VERTEX
  5
33A
  8
LAYER_1
 10
91.85065222038362
 20
-29.1250706868295
 30
0.0
  0
VERTEX
  5
33B
  8
LAYER_1
 10
91.84214522648172
 20
-29.10888263697443
 30
0.0
  0
VERTEX
  5
33C
  8
LAYER_1
 10
91.83330479143218
 20
-29.09277963972892
 30
0.0
  0
VERTEX
  5
33D
  8
LAYER_1
 10
91.82413324688622
 20
-29.07676304499629
 30
0.0
  0
VERTEX
  5
33E
  8
LAYER_1
 10
91.81463292449499
 20
-29.06083420267986
 30
0.0
  0
VERTEX
  5
33F
  8
LAYER_1
 10
91.80480615590966
 20
-29.04499446268294
 30
0.0
  0
VERTEX
  5
340
  8
LAYER_1
 10
91.79465527278145
 20
-29.02924517490884
 30
0.0
  0
VERTEX
  5
341
  8
LAYER_1
 10
91.78418260676155
 20
-29.01358768926089
 30
0.0
  0
VERTEX
  5
342
  8
LAYER_1
 10
91.77339048950112
 20
-28.99802335564241
 30
0.0
  0
VERTEX
  5
343
  8
LAYER_1
 10
91.76228125265135
 20
-28.98255352395671
 30
0.0
  0
VERTEX
  5
344
  8
LAYER_1
 10
91.7508572278634
 20
-28.9671795441071
 30
0.0
  0
VERTEX
  5
345
  8
LAYER_1
 10
91.73912074678852
 20
-28.95190276599691
 30
0.0
  0
VERTEX
  5
346
  8
LAYER_1
 10
91.72707414107782
 20
-28.93672453952945
 30
0.0
  0
VERTEX
  5
347
  8
LAYER_1
 10
91.71471974238254
 20
-28.92164621460804
 30
0.0
  0
VERTEX
  5
348
  8
LAYER_1
 10
91.68909689264291
 20
-28.89179466901665
 30
0.0
  0
VERTEX
  5
349
  8
LAYER_1
 10
91.66227085077907
 20
-28.86235892844926
 30
0.0
  0
VERTEX
  5
34A
  8
LAYER_1
 10
91.63426027000051
 20
-28.83334979213242
 30
0.0
  0
VERTEX
  5
34B
  8
LAYER_1
 10
91.60508380351675
 20
-28.80477805929266
 30
0.0
  0
VERTEX
  5
34C
  8
LAYER_1
 10
91.57476010453719
 20
-28.77665452915652
 30
0.0
  0
VERTEX
  5
34D
  8
LAYER_1
 10
91.54330782627133
 20
-28.74899000095054
 30
0.0
  0
VERTEX
  5
34E
  8
LAYER_1
 10
91.51074562192866
 20
-28.72179527390126
 30
0.0
  0
VERTEX
  5
34F
  8
LAYER_1
 10
91.47709214471865
 20
-28.69508114723522
 30
0.0
  0
VERTEX
  5
350
  8
LAYER_1
 10
91.44236604785078
 20
-28.66885842017896
 30
0.0
  0
VERTEX
  5
351
  8
LAYER_1
 10
91.40658598453453
 20
-28.64313789195902
 30
0.0
  0
VERTEX
  5
352
  8
LAYER_1
 10
91.36977060797936
 20
-28.61793036180192
 30
0.0
  0
VERTEX
  5
353
  8
LAYER_1
 10
91.33193857139477
 20
-28.59324662893422
 30
0.0
  0
VERTEX
  5
354
  8
LAYER_1
 10
91.2931085279902
 20
-28.56909749258245
 30
0.0
  0
VERTEX
  5
355
  8
LAYER_1
 10
91.25329913097514
 20
-28.54549375197315
 30
0.0
  0
VERTEX
  5
356
  8
LAYER_1
 10
91.21252903355906
 20
-28.52244620633285
 30
0.0
  0
VERTEX
  5
357
  8
LAYER_1
 10
91.17081688895145
 20
-28.4999656548881
 30
0.0
  0
VERTEX
  5
358
  8
LAYER_1
 10
91.12818135036179
 20
-28.47806289686543
 30
0.0
  0
VERTEX
  5
359
  8
LAYER_1
 10
91.08464107099954
 20
-28.45674873149138
 30
0.0
  0
VERTEX
  5
35A
  8
LAYER_1
 10
91.04021470407416
 20
-28.4360339579925
 30
0.0
  0
VERTEX
  5
35B
  8
LAYER_1
 10
90.99492090279517
 20
-28.41592937559531
 30
0.0
  0
VERTEX
  5
35C
  8
LAYER_1
 10
90.94877832037201
 20
-28.39644578352636
 30
0.0
  0
VERTEX
  5
35D
  8
LAYER_1
 10
90.90180561001418
 20
-28.37759398101219
 30
0.0
  0
VERTEX
  5
35E
  8
LAYER_1
 10
90.85402142493112
 20
-28.35938476727933
 30
0.0
  0
VERTEX
  5
35F
  8
LAYER_1
 10
90.80544441833234
 20
-28.34182894155432
 30
0.0
  0
VERTEX
  5
360
  8
LAYER_1
 10
90.7560932434273
 20
-28.32493730306371
 30
0.0
  0
VERTEX
  5
361
  8
LAYER_1
 10
90.7059865534255
 20
-28.30872065103402
 30
0.0
  0
VERTEX
  5
362
  8
LAYER_1
 10
90.65514300153637
 20
-28.2931897846918
 30
0.0
  0
VERTEX
  5
363
  8
LAYER_1
 10
90.60358124096942
 20
-28.27835550326359
 30
0.0
  0
VERTEX
  5
364
  8
LAYER_1
 10
90.5513199249341
 20
-28.26422860597593
 30
0.0
  0
VERTEX
  5
365
  8
LAYER_1
 10
90.4983777066399
 20
-28.25081989205534
 30
0.0
  0
VERTEX
  5
366
  8
LAYER_1
 10
90.4447732392963
 20
-28.23814016072838
 30
0.0
  0
VERTEX
  5
367
  8
LAYER_1
 10
90.39052517611276
 20
-28.22620021122157
 30
0.0
  0
VERTEX
  5
368
  8
LAYER_1
 10
90.33565217029879
 20
-28.21501084276147
 30
0.0
  0
VERTEX
  5
369
  8
LAYER_1
 10
90.28017287506384
 20
-28.2045828545746
 30
0.0
  0
VERTEX
  5
36A
  8
LAYER_1
 10
90.22410594361737
 20
-28.19492704588751
 30
0.0
  0
VERTEX
  5
36B
  8
LAYER_1
 10
90.16747002916888
 20
-28.18605421592673
 30
0.0
  0
VERTEX
  5
36C
  8
LAYER_1
 10
90.11028378492784
 20
-28.17797516391881
 30
0.0
  0
VERTEX
  5
36D
  8
LAYER_1
 10
90.05256586410371
 20
-28.17070068909027
 30
0.0
  0
VERTEX
  5
36E
  8
LAYER_1
 10
89.99433491990598
 20
-28.16424159066766
 30
0.0
  0
VERTEX
  5
36F
  8
LAYER_1
 10
89.93560960554416
 20
-28.15860866787752
 30
0.0
  0
VERTEX
  5
370
  8
LAYER_1
 10
89.87640857422765
 20
-28.15381271994639
 30
0.0
  0
VERTEX
  5
371
  8
LAYER_1
 10
89.81675047916599
 20
-28.1498645461008
 30
0.0
  0
VERTEX
  5
372
  8
LAYER_1
 10
89.75665397356863
 20
-28.14677494556729
 30
0.0
  0
VERTEX
  5
373
  8
LAYER_1
 10
89.69613771064505
 20
-28.1445547175724
 30
0.0
  0
VERTEX
  5
374
  8
LAYER_1
 10
89.63522034360469
 20
-28.14321466134268
 30
0.0
  0
VERTEX
  5
375
  8
LAYER_1
 10
89.57392052565709
 20
-28.14276557610465
 30
0.0
  0
VERTEX
  5
376
  8
LAYER_1
 10
89.51262070770949
 20
-28.14321466134268
 30
0.0
  0
VERTEX
  5
377
  8
LAYER_1
 10
89.45170334066913
 20
-28.1445547175724
 30
0.0
  0
VERTEX
  5
378
  8
LAYER_1
 10
89.39118707774554
 20
-28.14677494556729
 30
0.0
  0
VERTEX
  5
379
  8
LAYER_1
 10
89.33109057214818
 20
-28.1498645461008
 30
0.0
  0
VERTEX
  5
37A
  8
LAYER_1
 10
89.27143247708652
 20
-28.15381271994639
 30
0.0
  0
VERTEX
  5
37B
  8
LAYER_1
 10
89.21223144577002
 20
-28.15860866787752
 30
0.0
  0
VERTEX
  5
37C
  8
LAYER_1
 10
89.1535061314082
 20
-28.16424159066766
 30
0.0
  0
VERTEX
  5
37D
  8
LAYER_1
 10
89.09527518721046
 20
-28.17070068909027
 30
0.0
  0
VERTEX
  5
37E
  8
LAYER_1
 10
89.03755726638633
 20
-28.17797516391881
 30
0.0
  0
VERTEX
  5
37F
  8
LAYER_1
 10
88.98037102214529
 20
-28.18605421592673
 30
0.0
  0
VERTEX
  5
380
  8
LAYER_1
 10
88.9237351076968
 20
-28.19492704588751
 30
0.0
  0
VERTEX
  5
381
  8
LAYER_1
 10
88.86766817625033
 20
-28.2045828545746
 30
0.0
  0
VERTEX
  5
382
  8
LAYER_1
 10
88.81218888101539
 20
-28.21501084276147
 30
0.0
  0
VERTEX
  5
383
  8
LAYER_1
 10
88.75731587520141
 20
-28.22620021122157
 30
0.0
  0
VERTEX
  5
384
  8
LAYER_1
 10
88.70306781201788
 20
-28.23814016072838
 30
0.0
  0
VERTEX
  5
385
  8
LAYER_1
 10
88.64946334467427
 20
-28.25081989205534
 30
0.0
  0
VERTEX
  5
386
  8
LAYER_1
 10
88.59652112638007
 20
-28.26422860597593
 30
0.0
  0
VERTEX
  5
387
  8
LAYER_1
 10
88.54425981034476
 20
-28.27835550326359
 30
0.0
  0
VERTEX
  5
388
  8
LAYER_1
 10
88.4926980497778
 20
-28.2931897846918
 30
0.0
  0
VERTEX
  5
389
  8
LAYER_1
 10
88.44185449788867
 20
-28.30872065103402
 30
0.0
  0
VERTEX
  5
38A
  8
LAYER_1
 10
88.39174780788684
 20
-28.32493730306371
 30
0.0
  0
VERTEX
  5
38B
  8
LAYER_1
 10
88.3423966329818
 20
-28.34182894155432
 30
0.0
  0
VERTEX
  5
38C
  8
LAYER_1
 10
88.29381962638303
 20
-28.35938476727933
 30
0.0
  0
VERTEX
  5
38D
  8
LAYER_1
 10
88.2460354413
 20
-28.37759398101219
 30
0.0
  0
VERTEX
  5
38E
  8
LAYER_1
 10
88.19906273094215
 20
-28.39644578352636
 30
0.0
  0
VERTEX
  5
38F
  8
LAYER_1
 10
88.15292014851899
 20
-28.41592937559531
 30
0.0
  0
VERTEX
  5
390
  8
LAYER_1
 10
88.10762634724
 20
-28.4360339579925
 30
0.0
  0
VERTEX
  5
391
  8
LAYER_1
 10
88.06319998031464
 20
-28.45674873149138
 30
0.0
  0
VERTEX
  5
392
  8
LAYER_1
 10
88.01965970095239
 20
-28.47806289686543
 30
0.0
  0
VERTEX
  5
393
  8
LAYER_1
 10
87.97702416236272
 20
-28.4999656548881
 30
0.0
  0
VERTEX
  5
394
  8
LAYER_1
 10
87.93531201775511
 20
-28.52244620633285
 30
0.0
  0
VERTEX
  5
395
  8
LAYER_1
 10
87.89454192033904
 20
-28.54549375197315
 30
0.0
  0
VERTEX
  5
396
  8
LAYER_1
 10
87.85473252332397
 20
-28.56909749258245
 30
0.0
  0
VERTEX
  5
397
  8
LAYER_1
 10
87.8159024799194
 20
-28.59324662893422
 30
0.0
  0
VERTEX
  5
398
  8
LAYER_1
 10
87.77807044333481
 20
-28.61793036180192
 30
0.0
  0
VERTEX
  5
399
  8
LAYER_1
 10
87.74125506677964
 20
-28.64313789195902
 30
0.0
  0
VERTEX
  5
39A
  8
LAYER_1
 10
87.70547500346339
 20
-28.66885842017896
 30
0.0
  0
VERTEX
  5
39B
  8
LAYER_1
 10
87.67074890659552
 20
-28.69508114723522
 30
0.0
  0
VERTEX
  5
39C
  8
LAYER_1
 10
87.63709542938551
 20
-28.72179527390126
 30
0.0
  0
VERTEX
  5
39D
  8
LAYER_1
 10
87.60453322504284
 20
-28.74899000095054
 30
0.0
  0
VERTEX
  5
39E
  8
LAYER_1
 10
87.57308094677698
 20
-28.77665452915652
 30
0.0
  0
VERTEX
  5
39F
  8
LAYER_1
 10
87.54275724779743
 20
-28.80477805929266
 30
0.0
  0
VERTEX
  5
3A0
  8
LAYER_1
 10
87.51358078131366
 20
-28.83334979213242
 30
0.0
  0
VERTEX
  5
3A1
  8
LAYER_1
 10
87.48557020053511
 20
-28.86235892844926
 30
0.0
  0
VERTEX
  5
3A2
  8
LAYER_1
 10
87.45874415867127
 20
-28.89179466901665
 30
0.0
  0
VERTEX
  5
3A3
  8
LAYER_1
 10
87.43312130893163
 20
-28.92164621460804
 30
0.0
  0
VERTEX
  5
3A4
  8
LAYER_1
 10
87.42076691023635
 20
-28.93672453952945
 30
0.0
  0
VERTEX
  5
3A5
  8
LAYER_1
 10
87.40872030452566
 20
-28.95190276599691
 30
0.0
  0
VERTEX
  5
3A6
  8
LAYER_1
 10
87.39698382345077
 20
-28.9671795441071
 30
0.0
  0
VERTEX
  5
3A7
  8
LAYER_1
 10
87.38555979866283
 20
-28.98255352395671
 30
0.0
  0
VERTEX
  5
3A8
  8
LAYER_1
 10
87.37445056181305
 20
-28.99802335564241
 30
0.0
  0
VERTEX
  5
3A9
  8
LAYER_1
 10
87.36365844455263
 20
-29.01358768926089
 30
0.0
  0
VERTEX
  5
3AA
  8
LAYER_1
 10
87.35318577853272
 20
-29.02924517490884
 30
0.0
  0
VERTEX
  5
3AB
  8
LAYER_1
 10
87.34303489540451
 20
-29.04499446268294
 30
0.0
  0
VERTEX
  5
3AC
  8
LAYER_1
 10
87.33320812681919
 20
-29.06083420267986
 30
0.0
  0
VERTEX
  5
3AD
  8
LAYER_1
 10
87.32370780442795
 20
-29.07676304499629
 30
0.0
  0
VERTEX
  5
3AE
  8
LAYER_1
 10
87.31453625988199
 20
-29.09277963972892
 30
0.0
  0
VERTEX
  5
3AF
  8
LAYER_1
 10
87.30569582483245
 20
-29.10888263697443
 30
0.0
  0
VERTEX
  5
3B0
  8
LAYER_1
 10
87.29718883093055
 20
-29.1250706868295
 30
0.0
  0
VERTEX
  5
3B1
  8
LAYER_1
 10
87.28901760982748
 20
-29.1413424393908
 30
0.0
  0
VERTEX
  5
3B2
  8
LAYER_1
 10
87.28118449317441
 20
-29.15769654475504
 30
0.0
  0
VERTEX
  5
3B3
  8
LAYER_1
 10
87.2736918126225
 20
-29.17413165301888
 30
0.0
  0
VERTEX
  5
3B4
  8
LAYER_1
 10
87.26654189982298
 20
-29.19064641427901
 30
0.0
  0
VERTEX
  5
3B5
  8
LAYER_1
 10
87.25973708642698
 20
-29.20723947863211
 30
0.0
  0
VERTEX
  5
3B6
  8
LAYER_1
 10
87.25327970408574
 20
-29.22390949617487
 30
0.0
  0
VERTEX
  5
3B7
  8
LAYER_1
 10
87.24717208445043
 20
-29.24065511700397
 30
0.0
  0
VERTEX
  5
3B8
  8
LAYER_1
 10
87.24141655917222
 20
-29.25747499121609
 30
0.0
  0
VERTEX
  5
3B9
  8
LAYER_1
 10
87.23601545990229
 20
-29.27436776890791
 30
0.0
  0
VERTEX
  5
3BA
  8
LAYER_1
 10
87.23097111829183
 20
-29.29133210017612
 30
0.0
  0
VERTEX
  5
3BB
  8
LAYER_1
 10
87.22628586599204
 20
-29.3083666351174
 30
0.0
  0
VERTEX
  5
3BC
  8
LAYER_1
 10
87.2219620346541
 20
-29.32547002382843
 30
0.0
  0
VERTEX
  5
3BD
  8
LAYER_1
 10
87.21800195592917
 20
-29.3426409164059
 30
0.0
  0
VERTEX
  5
3BE
  8
LAYER_1
 10
87.21440796146845
 20
-29.35987796294648
 30
0.0
  0
VERTEX
  5
3BF
  8
LAYER_1
 10
87.21118238292316
 20
-29.37717981354686
 30
0.0
  0
VERTEX
  5
3C0
  8
LAYER_1
 10
87.20832755194442
 20
-29.39454511830373
 30
0.0
  0
VERTEX
  5
3C1
  8
LAYER_1
 10
87.20584580018347
 20
-29.41197252731376
 30
0.0
  0
VERTEX
  5
3C2
  8
LAYER_1
 10
87.20373945929146
 20
-29.42946069067364
 30
0.0
  0
VERTEX
  5
3C3
  8
LAYER_1
 10
87.20201086091957
 20
-29.44700825848005
 30
0.0
  0
VERTEX
  5
3C4
  8
LAYER_1
 10
87.200662336719
 20
-29.46461388082967
 30
0.0
  0
VERTEX
  5
3C5
  8
LAYER_1
 10
87.19969621834096
 20
-29.48227620781919
 30
0.0
  0
VERTEX
  5
3C6
  8
LAYER_1
 10
87.19911483743658
 20
-29.49999388954529
 30
0.0
  0
VERTEX
  5
3C7
  8
LAYER_1
 10
87.19892052565709
 20
-29.51776557610465
 30
0.0
  0
VERTEX
  5
3C8
  8
LAYER_1
 10
87.19911483743658
 20
-29.53553726266401
 30
0.0
  0
VERTEX
  5
3C9
  8
LAYER_1
 10
87.19969621834096
 20
-29.55325494439011
 30
0.0
  0
VERTEX
  5
3CA
  8
LAYER_1
 10
87.200662336719
 20
-29.57091727137963
 30
0.0
  0
VERTEX
  5
3CB
  8
LAYER_1
 10
87.20201086091957
 20
-29.58852289372926
 30
0.0
  0
VERTEX
  5
3CC
  8
LAYER_1
 10
87.20373945929146
 20
-29.60607046153567
 30
0.0
  0
VERTEX
  5
3CD
  8
LAYER_1
 10
87.20584580018347
 20
-29.62355862489554
 30
0.0
  0
VERTEX
  5
3CE
  8
LAYER_1
 10
87.20832755194442
 20
-29.64098603390557
 30
0.0
  0
VERTEX
  5
3CF
  8
LAYER_1
 10
87.21118238292316
 20
-29.65835133866244
 30
0.0
  0
VERTEX
  5
3D0
  8
LAYER_1
 10
87.21440796146845
 20
-29.67565318926282
 30
0.0
  0
VERTEX
  5
3D1
  8
LAYER_1
 10
87.21800195592917
 20
-29.6928902358034
 30
0.0
  0
VERTEX
  5
3D2
  8
LAYER_1
 10
87.2219620346541
 20
-29.71006112838087
 30
0.0
  0
VERTEX
  5
3D3
  8
LAYER_1
 10
87.22628586599204
 20
-29.7271645170919
 30
0.0
  0
VERTEX
  5
3D4
  8
LAYER_1
 10
87.23097111829183
 20
-29.74419905203318
 30
0.0
  0
VERTEX
  5
3D5
  8
LAYER_1
 10
87.23601545990229
 20
-29.76116338330139
 30
0.0
  0
VERTEX
  5
3D6
  8
LAYER_1
 10
87.24141655917222
 20
-29.77805616099322
 30
0.0
  0
VERTEX
  5
3D7
  8
LAYER_1
 10
87.24717208445043
 20
-29.79487603520533
 30
0.0
  0
VERTEX
  5
3D8
  8
LAYER_1
 10
87.25327970408574
 20
-29.81162165603443
 30
0.0
  0
VERTEX
  5
3D9
  8
LAYER_1
 10
87.25973708642698
 20
-29.82829167357719
 30
0.0
  0
VERTEX
  5
3DA
  8
LAYER_1
 10
87.26654189982298
 20
-29.84488473793029
 30
0.0
  0
VERTEX
  5
3DB
  8
LAYER_1
 10
87.2736918126225
 20
-29.86139949919043
 30
0.0
  0
VERTEX
  5
3DC
  8
LAYER_1
 10
87.28118449317441
 20
-29.87783460745426
 30
0.0
  0
VERTEX
  5
3DD
  8
LAYER_1
 10
87.28901760982748
 20
-29.8941887128185
 30
0.0
  0
VERTEX
  5
3DE
  8
LAYER_1
 10
87.29718883093055
 20
-29.91046046537981
 30
0.0
  0
VERTEX
  5
3DF
  8
LAYER_1
 10
87.30569582483245
 20
-29.92664851523487
 30
0.0
  0
VERTEX
  5
3E0
  8
LAYER_1
 10
87.31453625988199
 20
-29.94275151248038
 30
0.0
  0
VERTEX
  5
3E1
  8
LAYER_1
 10
87.32370780442795
 20
-29.95876810721301
 30
0.0
  0
VERTEX
  5
3E2
  8
LAYER_1
 10
87.33320812681919
 20
-29.97469694952944
 30
0.0
  0
VERTEX
  5
3E3
  8
LAYER_1
 10
87.34303489540451
 20
-29.99053668952637
 30
0.0
  0
VERTEX
  5
3E4
  8
LAYER_1
 10
87.35318577853272
 20
-30.00628597730046
 30
0.0
  0
VERTEX
  5
3E5
  8
LAYER_1
 10
87.36365844455263
 20
-30.02194346294841
 30
0.0
  0
VERTEX
  5
3E6
  8
LAYER_1
 10
87.37445056181305
 20
-30.03750779656689
 30
0.0
  0
VERTEX
  5
3E7
  8
LAYER_1
 10
87.38555979866283
 20
-30.0529776282526
 30
0.0
  0
VERTEX
  5
3E8
  8
LAYER_1
 10
87.39698382345077
 20
-30.0683516081022
 30
0.0
  0
VERTEX
  5
3E9
  8
LAYER_1
 10
87.40872030452566
 20
-30.08362838621239
 30
0.0
  0
VERTEX
  5
3EA
  8
LAYER_1
 10
87.42076691023635
 20
-30.09880661267985
 30
0.0
  0
VERTEX
  5
3EB
  8
LAYER_1
 10
87.43312130893163
 20
-30.11388493760126
 30
0.0
  0
VERTEX
  5
3EC
  8
LAYER_1
 10
87.45874415867127
 20
-30.14373648319265
 30
0.0
  0
VERTEX
  5
3ED
  8
LAYER_1
 10
87.48557020053511
 20
-30.17317222376004
 30
0.0
  0
VERTEX
  5
3EE
  8
LAYER_1
 10
87.51358078131366
 20
-30.20218136007689
 30
0.0
  0
VERTEX
  5
3EF
  8
LAYER_1
 10
87.54275724779743
 20
-30.23075309291664
 30
0.0
  0
VERTEX
  5
3F0
  8
LAYER_1
 10
87.57308094677698
 20
-30.25887662305278
 30
0.0
  0
VERTEX
  5
3F1
  8
LAYER_1
 10
87.60453322504284
 20
-30.28654115125876
 30
0.0
  0
VERTEX
  5
3F2
  8
LAYER_1
 10
87.63709542938551
 20
-30.31373587830804
 30
0.0
  0
VERTEX
  5
3F3
  8
LAYER_1
 10
87.67074890659552
 20
-30.34045000497408
 30
0.0
  0
VERTEX
  5
3F4
  8
LAYER_1
 10
87.70547500346339
 20
-30.36667273203034
 30
0.0
  0
VERTEX
  5
3F5
  8
LAYER_1
 10
87.74125506677964
 20
-30.39239326025028
 30
0.0
  0
VERTEX
  5
3F6
  8
LAYER_1
 10
87.77807044333481
 20
-30.41760079040738
 30
0.0
  0
VERTEX
  5
3F7
  8
LAYER_1
 10
87.8159024799194
 20
-30.44228452327508
 30
0.0
  0
VERTEX
  5
3F8
  8
LAYER_1
 10
87.85473252332397
 20
-30.46643365962685
 30
0.0
  0
VERTEX
  5
3F9
  8
LAYER_1
 10
87.89454192033904
 20
-30.49003740023615
 30
0.0
  0
VERTEX
  5
3FA
  8
LAYER_1
 10
87.93531201775511
 20
-30.51308494587645
 30
0.0
  0
VERTEX
  5
3FB
  8
LAYER_1
 10
87.97702416236272
 20
-30.5355654973212
 30
0.0
  0
VERTEX
  5
3FC
  8
LAYER_1
 10
88.01965970095239
 20
-30.55746825534387
 30
0.0
  0
VERTEX
  5
3FD
  8
LAYER_1
 10
88.06319998031464
 20
-30.57878242071792
 30
0.0
  0
VERTEX
  5
3FE
  8
LAYER_1
 10
88.10762634724
 20
-30.5994971942168
 30
0.0
  0
VERTEX
  5
3FF
  8
LAYER_1
 10
88.15292014851899
 20
-30.61960177661399
 30
0.0
  0
VERTEX
  5
400
  8
LAYER_1
 10
88.19906273094215
 20
-30.63908536868294
 30
0.0
  0
VERTEX
  5
401
  8
LAYER_1
 10
88.2460354413
 20
-30.65793717119711
 30
0.0
  0
VERTEX
  5
402
  8
LAYER_1
 10
88.29381962638303
 20
-30.67614638492997
 30
0.0
  0
VERTEX
  5
403
  8
LAYER_1
 10
88.3423966329818
 20
-30.69370221065498
 30
0.0
  0
VERTEX
  5
404
  8
LAYER_1
 10
88.39174780788684
 20
-30.7105938491456
 30
0.0
  0
VERTEX
  5
405
  8
LAYER_1
 10
88.44185449788867
 20
-30.72681050117528
 30
0.0
  0
VERTEX
  5
406
  8
LAYER_1
 10
88.4926980497778
 20
-30.7423413675175
 30
0.0
  0
VERTEX
  5
407
  8
LAYER_1
 10
88.54425981034476
 20
-30.75717564894571
 30
0.0
  0
VERTEX
  5
408
  8
LAYER_1
 10
88.59652112638007
 20
-30.77130254623338
 30
0.0
  0
VERTEX
  5
409
  8
LAYER_1
 10
88.64946334467427
 20
-30.78471126015396
 30
0.0
  0
VERTEX
  5
40A
  8
LAYER_1
 10
88.70306781201788
 20
-30.79739099148092
 30
0.0
  0
VERTEX
  5
40B
  8
LAYER_1
 10
88.75731587520141
 20
-30.80933094098773
 30
0.0
  0
VERTEX
  5
40C
  8
LAYER_1
 10
88.81218888101539
 20
-30.82052030944783
 30
0.0
  0
VERTEX
  5
40D
  8
LAYER_1
 10
88.86766817625033
 20
-30.8309482976347
 30
0.0
  0
VERTEX
  5
40E
  8
LAYER_1
 10
88.9237351076968
 20
-30.84060410632179
 30
0.0
  0
VERTEX
  5
40F
  8
LAYER_1
 10
88.98037102214529
 20
-30.84947693628257
 30
0.0
  0
VERTEX
  5
410
  8
LAYER_1
 10
89.03755726638633
 20
-30.8575559882905
 30
0.0
  0
VERTEX
  5
411
  8
LAYER_1
 10
89.09527518721046
 20
-30.86483046311903
 30
0.0
  0
VERTEX
  5
412
  8
LAYER_1
 10
89.1535061314082
 20
-30.87128956154164
 30
0.0
  0
VERTEX
  5
413
  8
LAYER_1
 10
89.21223144577002
 20
-30.87692248433178
 30
0.0
  0
VERTEX
  5
414
  8
LAYER_1
 10
89.27143247708652
 20
-30.88171843226291
 30
0.0
  0
VERTEX
  5
415
  8
LAYER_1
 10
89.33109057214818
 20
-30.8856666061085
 30
0.0
  0
VERTEX
  5
416
  8
LAYER_1
 10
89.39118707774554
 20
-30.88875620664201
 30
0.0
  0
VERTEX
  5
417
  8
LAYER_1
 10
89.45170334066913
 20
-30.8909764346369
 30
0.0
  0
VERTEX
  5
418
  8
LAYER_1
 10
89.51262070770949
 20
-30.89231649086662
 30
0.0
  0
SEQEND
  5
A82
  8
LAYER_1
  0
POLYLINE
  5
8C
  8
LAYER_1
 66
     1
 10
0.0
 20
0.0
 30
0.0
 70
     1
  0
VERTEX
  5
419
  8
LAYER_1
 10
76.19892052565709
 20
-30.67351557610468
 30
0.0
 42
0.4142135623730951
  0
VERTEX
  5
41A
  8
LAYER_1
 10
76.07342052565707
 20
-30.79901557610468
 30
0.0
 42
0.4142135623730951
  0
VERTEX
  5
41B
  8
LAYER_1
 10
76.19892052565709
 20
-30.92451557610467
 30
0.0
 42
0.4142135623730951
  0
VERTEX
  5
41C
  8
LAYER_1
 10
76.32442052565708
 20
-30.79901557610468
 30
0.0
 42
0.4142135623730951
  0
SEQEND
  5
A83
  8
LAYER_1
  0
POLYLINE
  5
8D
  8
LAYER_1
 66
     1
 10
0.0
 20
0.0
 30
0.0
 70
     1
  0
VERTEX
  5
41D
  8
LAYER_1
 10
80.94892052565709
 20
-30.67351557610468
 30
0.0
 42
0.4142135623730951
  0
VERTEX
  5
41E
  8
LAYER_1
 10
80.82342052565707
 20
-30.79901557610468
 30
0.0
 42
0.4142135623730951
  0
VERTEX
  5
41F
  8
LAYER_1
 10
80.94892052565709
 20
-30.92451557610467
 30
0.0
 42
0.4142135623730951
  0
VERTEX
  5
420
  8
LAYER_1
 10
81.07442052565708
 20
-30.79901557610468
 30
0.0
 42
0.4142135623730951
  0
SEQEND
  5
A84
  8
LAYER_1
  0
POLYLINE
  5
8E
  8
LAYER_1
 66
     1
 10
0.0
 20
0.0
 30
0.0
 70
     1
  0
VERTEX
  5
421
  8
LAYER_1
 10
80.94892052565709
 20
-28.11101557610468
 30
0.0
 42
0.4142135623730951
  0
VERTEX
  5
422
  8
LAYER_1
 10
80.82342052565707
 20
-28.23651557610468
 30
0.0
 42
0.4142135623730951
  0
VERTEX
  5
423
  8
LAYER_1
 10
80.94892052565709
 20
-28.36201557610467
 30
0.0
 42
0.4142135623730951
  0
VERTEX
  5
424
  8
LAYER_1
 10
81.07442052565708
 20
-28.23651557610468
 30
0.0
 42
0.4142135623730951
  0
SEQEND
  5
A85
  8
LAYER_1
  0
POLYLINE
  5
8F
  8
LAYER_1
 66
     1
 10
0.0
 20
0.0
 30
0.0
 70
     1
  0
VERTEX
  5
425
  8
LAYER_1
 10
76.19892052565709
 20
-28.11101557610468
 30
0.0
 42
0.4142135623730951
  0
VERTEX
  5
426
  8
LAYER_1
 10
76.07342052565707
 20
-28.23651557610468
 30
0.0
 42
0.4142135623730951
  0
VERTEX
  5
427
  8
LAYER_1
 10
76.19892052565709
 20
-28.36201557610467
 30
0.0
 42
0.4142135623730951
  0
VERTEX
  5
428
  8
LAYER_1
 10
76.32442052565708
 20
-28.23651557610468
 30
0.0
 42
0.4142135623730951
  0
SEQEND
  5
A86
  8
LAYER_1
  0
POLYLINE
  5
90
  8
LAYER_1
 66
     1
 10
0.0
 20
0.0
 30
0.0
 70
     1
  0
VERTEX
  5
429
  8
LAYER_1
 10
87.198920525657
 20
-28.1110155761048
 30
0.0
 42
0.4142135623730951
  0
VERTEX
  5
42A
  8
LAYER_1
 10
87.07342052565699
 20
-28.2365155761048
 30
0.0
 42
0.4142135623730951
  0
VERTEX
  5
42B
  8
LAYER_1
 10
87.198920525657
 20
-28.3620155761048
 30
0.0
 42
0.4142135623730951
  0
VERTEX
  5
42C
  8
LAYER_1
 10
87.32442052565699
 20
-28.2365155761048
 30
0.0
 42
0.4142135623730951
  0
SEQEND
  5
A87
  8
LAYER_1
  0
POLYLINE
  5
91
  8
LAYER_1
 66
     1
 10
0.0
 20
0.0
 30
0.0
 70
     1
  0
VERTEX
  5
42D
  8
LAYER_1
 10
87.198920525657
 20
-30.6735155761048
 30
0.0
 42
0.4142135623730951
  0
VERTEX
  5
42E
  8
LAYER_1
 10
87.07342052565699
 20
-30.7990155761048
 30
0.0
 42
0.4142135623730951
  0
VERTEX
  5
42F
  8
LAYER_1
 10
87.198920525657
 20
-30.9245155761048
 30
0.0
 42
0.4142135623730951
  0
VERTEX
  5
430
  8
LAYER_1
 10
87.32442052565699
 20
-30.7990155761048
 30
0.0
 42
0.4142135623730951
  0
SEQEND
  5
A88
  8
LAYER_1
  0
POLYLINE
  5
92
  8
LAYER_1
 66
     1
 10
0.0
 20
0.0
 30
0.0
 70
     1
  0
VERTEX
  5
431
  8
LAYER_1
 10
91.948920525657
 20
-30.6735155761048
 30
0.0
 42
0.4142135623730951
  0
VERTEX
  5
432
  8
LAYER_1
 10
91.82342052565699
 20
-30.7990155761048
 30
0.0
 42
0.4142135623730951
  0
VERTEX
  5
433
  8
LAYER_1
 10
91.948920525657
 20
-30.9245155761048
 30
0.0
 42
0.4142135623730951
  0
VERTEX
  5
434
  8
LAYER_1
 10
92.07442052565699
 20
-30.7990155761048
 30
0.0
 42
0.4142135623730951
  0
SEQEND
  5
A89
  8
LAYER_1
  0
POLYLINE
  5
93
  8
LAYER_1
 66
     1
 10
0.0
 20
0.0
 30
0.0
 70
     1
  0
VERTEX
  5
435
  8
LAYER_1
 10
91.948920525657
 20
-28.1110155761048
 30
0.0
 42
0.4142135623730951
  0
VERTEX
  5
436
  8
LAYER_1
 10
91.82342052565699
 20
-28.2365155761048
 30
0.0
 42
0.4142135623730951
  0
VERTEX
  5
437
  8
LAYER_1
 10
91.948920525657
 20
-28.3620155761048
 30
0.0
 42
0.4142135623730951
  0
VERTEX
  5
438
  8
LAYER_1
 10
92.07442052565699
 20
-28.2365155761048
 30
0.0
 42
0.4142135623730951
  0
SEQEND
  5
A8A
  8
LAYER_1
  0
POLYLINE
  5
94
  8
LAYER_1
 66
     1
 10
0.0
 20
0.0
 30
0.0
 70
     1
  0
VERTEX
  5
439
  8
LAYER_1
 10
73.07392052565709
 20
-11.36979281467698
 30
0.0
  0
VERTEX
  5
43A
  8
LAYER_1
 10
73.07392052565709
 20
-24.86979281467697
 30
0.0
  0
VERTEX
  5
43B
  8
LAYER_1
 10
73.44892052565709
 20
-24.86979281467697
 30
0.0
  0
VERTEX
  5
43C
  8
LAYER_1
 10
73.44892052565709
 20
-11.36979281467698
 30
0.0
  0
SEQEND
  5
A8B
  8
LAYER_1
  0
POLYLINE
  5
95
  8
LAYER_1
 66
     1
 10
0.0
 20
0.0
 30
0.0
 70
     1
  0
VERTEX
  5
43D
  8
LAYER_1
 10
94.69892052565709
 20
-11.36979281467698
 30
0.0
  0
VERTEX
  5
43E
  8
LAYER_1
 10
94.69892052565709
 20
-24.86979281467698
 30
0.0
  0
VERTEX
  5
43F
  8
LAYER_1
 10
95.07392052565709
 20
-24.86979281467698
 30
0.0
  0
VERTEX
  5
440
  8
LAYER_1
 10
95.07392052565709
 20
-11.36979281467698
 30
0.0
  0
SEQEND
  5
A8C
  8
LAYER_1
  0
POLYLINE
  5
96
  8
LAYER_1
 66
     1
 10
0.0
 20
0.0
 30
0.0
 70
     1
  0
VERTEX
  5
441
  8
LAYER_1
 10
95.07392052565709
 20
-11.86979281467698
 30
0.0
  0
VERTEX
  5
442
  8
LAYER_1
 10
95.07392052565709
 20
-11.36979281467698
 30
0.0
  0
VERTEX
  5
443
  8
LAYER_1
 10
73.07392052565709
 20
-11.36979281467698
 30
0.0
  0
VERTEX
  5
444
  8
LAYER_1
 10
73.07392052565709
 20
-11.86979281467698
 30
0.0
  0
SEQEND
  5
A8D
  8
LAYER_1
  0
POLYLINE
  5
97
  8
LAYER_1
 66
     1
 10
0.0
 20
0.0
 30
0.0
 70
     1
  0
VERTEX
  5
445
  8
LAYER_1
 10
74.7308480252915
 20
-24.74479281467697
 30
0.0
  0
VERTEX
  5
446
  8
LAYER_1
 10
73.19892052565709
 20
-24.74479281467697
 30
0.0
  0
VERTEX
  5
447
  8
LAYER_1
 10
73.19892052565709
 20
-11.49479281467698
 30
0.0
  0
VERTEX
  5
448
  8
LAYER_1
 10
83.51638901233227
 20
-11.49479281467698
 30
0.0
  0
VERTEX
  5
449
  8
LAYER_1
 10
83.69892052565709
 20
-11.49479281467698
 30
0.0
  0
VERTEX
  5
44A
  8
LAYER_1
 10
83.69892052565709
 20
-13.78731600441358
 30
0.0
  0
VERTEX
  5
44B
  8
LAYER_1
 10
83.69892052565709
 20
-13.80583932630488
 30
0.0
  0
VERTEX
  5
44C
  8
LAYER_1
 10
83.69940847333011
 20
-13.82962455569666
 30
0.0
  0
VERTEX
  5
44D
  8
LAYER_1
 10
83.7008566083833
 20
-13.85309754247124
 30
0.0
  0
VERTEX
  5
44E
  8
LAYER_1
 10
83.70324136886788
 20
-13.87622924515683
 30
0.0
  0
VERTEX
  5
44F
  8
LAYER_1
 10
83.70653919283498
 20
-13.89899062228164
 30
0.0
  0
VERTEX
  5
450
  8
LAYER_1
 10
83.71072651833583
 20
-13.92135263237389
 30
0.0
  0
VERTEX
  5
451
  8
LAYER_1
 10
83.71577978342162
 20
-13.94328623396176
 30
0.0
  0
VERTEX
  5
452
  8
LAYER_1
 10
83.72167542614352
 20
-13.96476238557349
 30
0.0
  0
VERTEX
  5
453
  8
LAYER_1
 10
83.72838988455273
 20
-13.98575204573728
 30
0.0
  0
VERTEX
  5
454
  8
LAYER_1
 10
83.73589959670042
 20
-14.00622617298133
 30
0.0
  0
VERTEX
  5
455
  8
LAYER_1
 10
83.74418100063781
 20
-14.02615572583386
 30
0.0
  0
VERTEX
  5
456
  8
LAYER_1
 10
83.75321053441607
 20
-14.04551166282308
 30
0.0
  0
VERTEX
  5
457
  8
LAYER_1
 10
83.76296463608641
 20
-14.06426494247719
 30
0.0
  0
VERTEX
  5
458
  8
LAYER_1
 10
83.77341974369998
 20
-14.08238652332441
 30
0.0
  0
VERTEX
  5
459
  8
LAYER_1
 10
83.784552295308
 20
-14.09984736389295
 30
0.0
  0
VERTEX
  5
45A
  8
LAYER_1
 10
83.79633872896164
 20
-14.11661842271101
 30
0.0
  0
VERTEX
  5
45B
  8
LAYER_1
 10
83.80875548271213
 20
-14.13267065830681
 30
0.0
  0
VERTEX
  5
45C
  8
LAYER_1
 10
83.82177899461061
 20
-14.14797502920855
 30
0.0
  0
VERTEX
  5
45D
  8
LAYER_1
 10
83.83538570270828
 20
-14.16250249394444
 30
0.0
  0
VERTEX
  5
45E
  8
LAYER_1
 10
83.84955204505633
 20
-14.1762240110427
 30
0.0
  0
VERTEX
  5
45F
  8
LAYER_1
 10
83.86425445970596
 20
-14.18911053903153
 30
0.0
  0
VERTEX
  5
460
  8
LAYER_1
 10
83.87946938470836
 20
-14.20113303643914
 30
0.0
  0
VERTEX
  5
461
  8
LAYER_1
 10
83.89517325811471
 20
-14.21226246179375
 30
0.0
  0
VERTEX
  5
462
  8
LAYER_1
 10
83.91134251797621
 20
-14.22246977362355
 30
0.0
  0
VERTEX
  5
463
  8
LAYER_1
 10
83.92795360234402
 20
-14.23172593045677
 30
0.0
  0
VERTEX
  5
464
  8
LAYER_1
 10
83.94498294926936
 20
-14.24000189082161
 30
0.0
  0
VERTEX
  5
465
  8
LAYER_1
 10
83.9624069968034
 20
-14.24726861324628
 30
0.0
  0
VERTEX
  5
466
  8
LAYER_1
 10
83.98020218299735
 20
-14.25349705625899
 30
0.0
  0
VERTEX
  5
467
  8
LAYER_1
 10
83.99834494590235
 20
-14.25865817838794
 30
0.0
  0
VERTEX
  5
468
  8
LAYER_1
 10
84.01681172356966
 20
-14.26272293816136
 30
0.0
  0
VERTEX
  5
469
  8
LAYER_1
 10
84.03557895405042
 20
-14.26566229410745
 30
0.0
  0
VERTEX
  5
46A
  8
LAYER_1
 10
84.05462307539584
 20
-14.26744720475441
 30
0.0
  0
VERTEX
  5
46B
  8
LAYER_1
 10
84.06424160703378
 20
-14.26789766763079
 30
0.0
  0
VERTEX
  5
46C
  8
LAYER_1
 10
84.07392052565709
 20
-14.26804862863047
 30
0.0
  0
VERTEX
  5
46D
  8
LAYER_1
 10
84.0835994442804
 20
-14.26789766763079
 30
0.0
  0
VERTEX
  5
46E
  8
LAYER_1
 10
84.09321797591834
 20
-14.26744720475441
 30
0.0
  0
VERTEX
  5
46F
  8
LAYER_1
 10
84.11226209726375
 20
-14.26566229410745
 30
0.0
  0
VERTEX
  5
470
  8
LAYER_1
 10
84.13102932774451
 20
-14.26272293816136
 30
0.0
  0
VERTEX
  5
471
  8
LAYER_1
 10
84.14949610541183
 20
-14.25865817838794
 30
0.0
  0
VERTEX
  5
472
  8
LAYER_1
 10
84.16763886831683
 20
-14.25349705625899
 30
0.0
  0
VERTEX
  5
473
  8
LAYER_1
 10
84.18543405451078
 20
-14.24726861324628
 30
0.0
  0
VERTEX
  5
474
  8
LAYER_1
 10
84.20285810204481
 20
-14.24000189082161
 30
0.0
  0
VERTEX
  5
475
  8
LAYER_1
 10
84.21988744897016
 20
-14.23172593045677
 30
0.0
  0
VERTEX
  5
476
  8
LAYER_1
 10
84.23649853333797
 20
-14.22246977362355
 30
0.0
  0
VERTEX
  5
477
  8
LAYER_1
 10
84.25266779319946
 20
-14.21226246179375
 30
0.0
  0
VERTEX
  5
478
  8
LAYER_1
 10
84.26837166660582
 20
-14.20113303643914
 30
0.0
  0
VERTEX
  5
479
  8
LAYER_1
 10
84.28358659160821
 20
-14.18911053903153
 30
0.0
  0
VERTEX
  5
47A
  8
LAYER_1
 10
84.29828900625785
 20
-14.1762240110427
 30
0.0
  0
VERTEX
  5
47B
  8
LAYER_1
 10
84.3124553486059
 20
-14.16250249394444
 30
0.0
  0
VERTEX
  5
47C
  8
LAYER_1
 10
84.32606205670356
 20
-14.14797502920855
 30
0.0
  0
VERTEX
  5
47D
  8
LAYER_1
 10
84.33908556860204
 20
-14.13267065830681
 30
0.0
  0
VERTEX
  5
47E
  8
LAYER_1
 10
84.35150232235253
 20
-14.11661842271101
 30
0.0
  0
VERTEX
  5
47F
  8
LAYER_1
 10
84.36328875600617
 20
-14.09984736389295
 30
0.0
  0
VERTEX
  5
480
  8
LAYER_1
 10
84.3744213076142
 20
-14.08238652332441
 30
0.0
  0
VERTEX
  5
481
  8
LAYER_1
 10
84.38487641522777
 20
-14.06426494247719
 30
0.0
  0
VERTEX
  5
482
  8
LAYER_1
 10
84.3946305168981
 20
-14.04551166282308
 30
0.0
  0
VERTEX
  5
483
  8
LAYER_1
 10
84.40366005067636
 20
-14.02615572583386
 30
0.0
  0
VERTEX
  5
484
  8
LAYER_1
 10
84.41194145461375
 20
-14.00622617298133
 30
0.0
  0
VERTEX
  5
485
  8
LAYER_1
 10
84.41945116676145
 20
-13.98575204573728
 30
0.0
  0
VERTEX
  5
486
  8
LAYER_1
 10
84.42616562517065
 20
-13.96476238557349
 30
0.0
  0
VERTEX
  5
487
  8
LAYER_1
 10
84.43206126789255
 20
-13.94328623396176
 30
0.0
  0
VERTEX
  5
488
  8
LAYER_1
 10
84.43711453297834
 20
-13.92135263237389
 30
0.0
  0
VERTEX
  5
489
  8
LAYER_1
 10
84.44130185847919
 20
-13.89899062228164
 30
0.0
  0
VERTEX
  5
48A
  8
LAYER_1
 10
84.4445996824463
 20
-13.87622924515683
 30
0.0
  0
VERTEX
  5
48B
  8
LAYER_1
 10
84.44698444293087
 20
-13.85309754247124
 30
0.0
  0
VERTEX
  5
48C
  8
LAYER_1
 10
84.44843257798406
 20
-13.82962455569666
 30
0.0
  0
VERTEX
  5
48D
  8
LAYER_1
 10
84.44892052565709
 20
-13.80583932630488
 30
0.0
  0
VERTEX
  5
48E
  8
LAYER_1
 10
84.44892052565709
 20
-13.73759420504612
 30
0.0
  0
VERTEX
  5
48F
  8
LAYER_1
 10
84.44892052565709
 20
-11.49479281467698
 30
0.0
  0
VERTEX
  5
490
  8
LAYER_1
 10
84.7748356528758
 20
-11.49479281467698
 30
0.0
  0
VERTEX
  5
491
  8
LAYER_1
 10
94.94892052565709
 20
-11.49479281467698
 30
0.0
  0
VERTEX
  5
492
  8
LAYER_1
 10
94.94892052565709
 20
-24.74479281467698
 30
0.0
  0
VERTEX
  5
493
  8
LAYER_1
 10
93.35445409432555
 20
-24.74479281467698
 30
0.0
  0
VERTEX
  5
494
  8
LAYER_1
 10
93.19892052565709
 20
-24.74479281467698
 30
0.0
  0
VERTEX
  5
495
  8
LAYER_1
 10
93.19892052565709
 20
-22.36979281467698
 30
0.0
  0
VERTEX
  5
496
  8
LAYER_1
 10
91.32392052565709
 20
-22.36979281467698
 30
0.0
  0
VERTEX
  5
497
  8
LAYER_1
 10
91.32392052565709
 20
-24.74479281467698
 30
0.0
  0
VERTEX
  5
498
  8
LAYER_1
 10
91.21837770968122
 20
-24.74479281467698
 30
0.0
  0
VERTEX
  5
499
  8
LAYER_1
 10
76.99824058112299
 20
-24.74479281467697
 30
0.0
  0
VERTEX
  5
49A
  8
LAYER_1
 10
76.82392052565709
 20
-24.74479281467698
 30
0.0
  0
VERTEX
  5
49B
  8
LAYER_1
 10
76.82392052565709
 20
-22.36979281467698
 30
0.0
  0
VERTEX
  5
49C
  8
LAYER_1
 10
74.94892052565709
 20
-22.36979281467698
 30
0.0
  0
VERTEX
  5
49D
  8
LAYER_1
 10
74.94892052565709
 20
-24.74479281467698
 30
0.0
  0
SEQEND
  5
A8E
  8
LAYER_1
  0
POLYLINE
  5
98
  8
LAYER_1
 66
     1
 10
0.0
 20
0.0
 30
0.0
 70
     1
  0
VERTEX
  5
49E
  8
LAYER_1
 10
1.337590688462328
 20
-13.57502234661185
 30
0.0
  0
VERTEX
  5
49F
  8
LAYER_1
 10
23.08759068846233
 20
-13.57502234661185
 30
0.0
  0
VERTEX
  5
4A0
  8
LAYER_1
 10
23.08759068846233
 20
-3.950022346611846
 30
0.0
  0
VERTEX
  5
4A1
  8
LAYER_1
 10
1.337590688462328
 20
-3.950022346611846
 30
0.0
  0
SEQEND
  5
A8F
  8
LAYER_1
  0
POLYLINE
  5
99
  8
LAYER_1
 66
     1
 10
0.0
 20
0.0
 30
0.0
 70
     1
  0
VERTEX
  5
4A2
  8
LAYER_1
 10
1.212590688462328
 20
-4.200022346611846
 30
0.0
  0
VERTEX
  5
4A3
  8
LAYER_1
 10
23.21259068846233
 20
-4.200022346611846
 30
0.0
  0
VERTEX
  5
4A4
  8
LAYER_1
 10
23.21259068846233
 20
-3.825022346611846
 30
0.0
  0
VERTEX
  5
4A5
  8
LAYER_1
 10
1.212590688462328
 20
-3.825022346611846
 30
0.0
  0
SEQEND
  5
A90
  8
LAYER_1
  0
POLYLINE
  5
9A
  8
LAYER_1
 66
     1
 10
0.0
 20
0.0
 30
0.0
 70
     1
  0
VERTEX
  5
4A6
  8
LAYER_1
 10
22.83759068846233
 20
-13.70002234661185
 30
0.0
  0
VERTEX
  5
4A7
  8
LAYER_1
 10
23.21259068846233
 20
-13.70002234661185
 30
0.0
  0
VERTEX
  5
4A8
  8
LAYER_1
 10
23.21259068846233
 20
-3.825022346611846
 30
0.0
  0
VERTEX
  5
4A9
  8
LAYER_1
 10
22.83759068846233
 20
-3.825022346611846
 30
0.0
  0
SEQEND
  5
A91
  8
LAYER_1
  0
POLYLINE
  5
9B
  8
LAYER_1
 66
     1
 10
0.0
 20
0.0
 30
0.0
 70
     1
  0
VERTEX
  5
4AA
  8
LAYER_1
 10
1.212590688462328
 20
-13.70002234661185
 30
0.0
  0
VERTEX
  5
4AB
  8
LAYER_1
 10
1.587590688462328
 20
-13.70002234661185
 30
0.0
  0
VERTEX
  5
4AC
  8
LAYER_1
 10
1.587590688462328
 20
-3.825022346611846
 30
0.0
  0
VERTEX
  5
4AD
  8
LAYER_1
 10
1.212590688462328
 20
-3.825022346611846
 30
0.0
  0
SEQEND
  5
A92
  8
LAYER_1
  0
POLYLINE
  5
9C
  8
LAYER_1
 66
     1
 10
0.0
 20
0.0
 30
0.0
 70
     1
  0
VERTEX
  5
4AE
  8
LAYER_1
 10
72.8833287911549
 20
-10.14276557610465
 30
0.0
  0
VERTEX
  5
4AF
  8
LAYER_1
 10
94.6333287911549
 20
-10.14276557610465
 30
0.0
  0
VERTEX
  5
4B0
  8
LAYER_1
 10
94.6333287911549
 20
-5.267765576104651
 30
0.0
  0
VERTEX
  5
4B1
  8
LAYER_1
 10
72.8833287911549
 20
-5.267765576104651
 30
0.0
  0
SEQEND
  5
A93
  8
LAYER_1
  0
POLYLINE
  5
9D
  8
LAYER_1
 66
     1
 10
0.0
 20
0.0
 30
0.0
 70
     1
  0
VERTEX
  5
4B2
  8
LAYER_1
 10
72.7583287911549
 20
-10.26776557610465
 30
0.0
  0
VERTEX
  5
4B3
  8
LAYER_1
 10
73.1333287911549
 20
-10.26776557610465
 30
0.0
  0
VERTEX
  5
4B4
  8
LAYER_1
 10
73.1333287911549
 20
-5.267765576104651
 30
0.0
  0
VERTEX
  5
4B5
  8
LAYER_1
 10
72.7583287911549
 20
-5.267765576104651
 30
0.0
  0
SEQEND
  5
A94
  8
LAYER_1
  0
POLYLINE
  5
9E
  8
LAYER_1
 66
     1
 10
0.0
 20
0.0
 30
0.0
 70
     1
  0
VERTEX
  5
4B6
  8
LAYER_1
 10
94.3833287911549
 20
-10.26776557610465
 30
0.0
  0
VERTEX
  5
4B7
  8
LAYER_1
 10
94.7583287911549
 20
-10.26776557610465
 30
0.0
  0
VERTEX
  5
4B8
  8
LAYER_1
 10
94.7583287911549
 20
-5.267765576104651
 30
0.0
  0
VERTEX
  5
4B9
  8
LAYER_1
 10
94.3833287911549
 20
-5.267765576104651
 30
0.0
  0
SEQEND
  5
A95
  8
LAYER_1
  0
POLYLINE
  5
9F
  8
LAYER_1
 66
     1
 10
0.0
 20
0.0
 30
0.0
 70
     1
  0
VERTEX
  5
4BA
  8
LAYER_1
 10
72.7583287911549
 20
-10.26776557610465
 30
0.0
  0
VERTEX
  5
4BB
  8
LAYER_1
 10
94.7583287911549
 20
-10.26776557610465
 30
0.0
  0
VERTEX
  5
4BC
  8
LAYER_1
 10
94.7583287911549
 20
-9.892765576104651
 30
0.0
  0
VERTEX
  5
4BD
  8
LAYER_1
 10
72.7583287911549
 20
-9.892765576104651
 30
0.0
  0
SEQEND
  5
A96
  8
LAYER_1
  0
POLYLINE
  5
A0
  8
LAYER_1
 66
     1
 10
0.0
 20
0.0
 30
0.0
 70
     1
  0
VERTEX
  5
4BE
  8
LAYER_1
 10
72.7583287911549
 20
-5.517765576104651
 30
0.0
  0
VERTEX
  5
4BF
  8
LAYER_1
 10
94.7583287911549
 20
-5.517765576104651
 30
0.0
  0
VERTEX
  5
4C0
  8
LAYER_1
 10
94.7583287911549
 20
-5.142765576104651
 30
0.0
  0
VERTEX
  5
4C1
  8
LAYER_1
 10
72.7583287911549
 20
-5.142765576104651
 30
0.0
  0
SEQEND
  5
A97
  8
LAYER_1
  0
POLYLINE
  5
A1
  8
LAYER_1
 66
     1
 10
0.0
 20
0.0
 30
0.0
 70
     1
  0
VERTEX
  5
4C2
  8
LAYER_1
 10
74.6333287911549
 20
-8.392765576104651
 30
0.0
 42
0.4142135623730951
  0
VERTEX
  5
4C3
  8
LAYER_1
 10
75.0083287911549
 20
-8.767765576104651
 30
0.0
  0
VERTEX
  5
4C4
  8
LAYER_1
 10
75.7583287911549
 20
-8.767765576104651
 30
0.0
 42
0.4142135623730951
  0
VERTEX
  5
4C5
  8
LAYER_1
 10
76.1333287911549
 20
-8.392765576104651
 30
0.0
 42
0.4142135623730951
  0
VERTEX
  5
4C6
  8
LAYER_1
 10
75.7583287911549
 20
-8.017765576104651
 30
0.0
  0
VERTEX
  5
4C7
  8
LAYER_1
 10
75.0083287911549
 20
-8.017765576104651
 30
0.0
 42
0.4142135623730951
  0
SEQEND
  5
A98
  8
LAYER_1
  0
POLYLINE
  5
A2
  8
LAYER_1
 66
     1
 10
0.0
 20
0.0
 30
0.0
 70
     1
  0
VERTEX
  5
4C8
  8
LAYER_1
 10
71.81432225546305
 20
-24.05481177601128
 30
0.0
  0
VERTEX
  5
4C9
  8
LAYER_1
 10
70.31432225546305
 20
-24.05481177601128
 30
0.0
  0
VERTEX
  5
4CA
  8
LAYER_1
 10
70.31432225546303
 20
-21.42981177601125
 30
0.0
  0
VERTEX
  5
4CB
  8
LAYER_1
 10
71.28312225546307
 20
-20.42981177601131
 30
0.0
  0
VERTEX
  5
4CC
  8
LAYER_1
 10
71.28312225546307
 20
-18.42981177601133
 30
0.0
  0
VERTEX
  5
4CD
  8
LAYER_1
 10
70.31432225546305
 20
-17.36731177601133
 30
0.0
  0
VERTEX
  5
4CE
  8
LAYER_1
 10
70.31432225546308
 20
-13.42981177601141
 30
0.0
  0
VERTEX
  5
4CF
  8
LAYER_1
 10
71.28312225546304
 20
-12.42981177601125
 30
0.0
  0
VERTEX
  5
4D0
  8
LAYER_1
 10
71.28312225546304
 20
-5.679811776011135
 30
0.0
  0
VERTEX
  5
4D1
  8
LAYER_1
 10
70.31432225546297
 20
-4.679811776010112
 30
0.0
  0
VERTEX
  5
4D2
  8
LAYER_1
 10
70.31432225546305
 20
-2.304811776011107
 30
0.0
  0
VERTEX
  5
4D3
  8
LAYER_1
 10
71.81432225546305
 20
-2.304811776010169
 30
0.0
  0
SEQEND
  5
A99
  8
LAYER_1
  0
POLYLINE
  5
A3
  8
LAYER_1
 66
     1
 10
0.0
 20
0.0
 30
0.0
 70
     1
  0
VERTEX
  5
4D4
  8
LAYER_1
 10
72.89188956917621
 20
-4.26773867018732
 30
0.0
  0
VERTEX
  5
4D5
  8
LAYER_1
 10
94.64188956917621
 20
-4.26773867018732
 30
0.0
  0
VERTEX
  5
4D6
  8
LAYER_1
 10
94.64188956917621
 20
-1.83023867018732
 30
0.0
  0
VERTEX
  5
4D7
  8
LAYER_1
 10
72.89188956917621
 20
-1.83023867018732
 30
0.0
  0
SEQEND
  5
A9A
  8
LAYER_1
  0
POLYLINE
  5
A4
  8
LAYER_1
 66
     1
 10
0.0
 20
0.0
 30
0.0
 70
     1
  0
VERTEX
  5
4D8
  8
LAYER_1
 10
72.76688956917621
 20
-4.39273867018732
 30
0.0
  0
VERTEX
  5
4D9
  8
LAYER_1
 10
73.14188956917621
 20
-4.39273867018732
 30
0.0
  0
VERTEX
  5
4DA
  8
LAYER_1
 10
73.14188956917621
 20
-1.83023867018732
 30
0.0
  0
VERTEX
  5
4DB
  8
LAYER_1
 10
72.76688956917621
 20
-1.83023867018732
 30
0.0
  0
SEQEND
  5
A9B
  8
LAYER_1
  0
POLYLINE
  5
A5
  8
LAYER_1
 66
     1
 10
0.0
 20
0.0
 30
0.0
 70
     1
  0
VERTEX
  5
4DC
  8
LAYER_1
 10
94.39188956917621
 20
-4.39273867018732
 30
0.0
  0
VERTEX
  5
4DD
  8
LAYER_1
 10
94.76688956917621
 20
-4.39273867018732
 30
0.0
  0
VERTEX
  5
4DE
  8
LAYER_1
 10
94.76688956917621
 20
-1.83023867018732
 30
0.0
  0
VERTEX
  5
4DF
  8
LAYER_1
 10
94.39188956917621
 20
-1.83023867018732
 30
0.0
  0
SEQEND
  5
A9C
  8
LAYER_1
  0
POLYLINE
  5
A6
  8
LAYER_1
 66
     1
 10
0.0
 20
0.0
 30
0.0
 70
     1
  0
VERTEX
  5
4E0
  8
LAYER_1
 10
71.77086792703466
 20
-47.53713000941711
 30
0.0
  0
VERTEX
  5
4E1
  8
LAYER_1
 10
71.77086792703466
 20
-25.78713000941712
 30
0.0
  0
VERTEX
  5
4E2
  8
LAYER_1
 10
69.02086792703466
 20
-25.78713000941712
 30
0.0
  0
VERTEX
  5
4E3
  8
LAYER_1
 10
69.02086792703466
 20
-47.53713000941711
 30
0.0
  0
SEQEND
  5
A9D
  8
LAYER_1
  0
POLYLINE
  5
A7
  8
LAYER_1
 66
     1
 10
0.0
 20
0.0
 30
0.0
 70
     1
  0
VERTEX
  5
4E4
  8
LAYER_1
 10
71.89586792703466
 20
-47.66213000941711
 30
0.0
  0
VERTEX
  5
4E5
  8
LAYER_1
 10
71.89586792703466
 20
-47.28713000941711
 30
0.0
  0
VERTEX
  5
4E6
  8
LAYER_1
 10
68.89586792703466
 20
-47.28713000941711
 30
0.0
  0
VERTEX
  5
4E7
  8
LAYER_1
 10
68.89586792703466
 20
-47.66213000941711
 30
0.0
  0
SEQEND
  5
A9E
  8
LAYER_1
  0
POLYLINE
  5
A8
  8
LAYER_1
 66
     1
 10
0.0
 20
0.0
 30
0.0
 70
     1
  0
VERTEX
  5
4E8
  8
LAYER_1
 10
71.89586792703466
 20
-26.03713000941712
 30
0.0
  0
VERTEX
  5
4E9
  8
LAYER_1
 10
71.89586792703466
 20
-25.66213000941712
 30
0.0
  0
VERTEX
  5
4EA
  8
LAYER_1
 10
68.89586792703466
 20
-25.66213000941712
 30
0.0
  0
VERTEX
  5
4EB
  8
LAYER_1
 10
68.89586792703466
 20
-26.03713000941712
 30
0.0
  0
SEQEND
  5
A9F
  8
LAYER_1
  0
POLYLINE
  5
A9
  8
LAYER_1
 66
     1
 10
0.0
 20
0.0
 30
0.0
 70
     1
  0
VERTEX
  5
4EC
  8
LAYER_1
 10
70.08336792703466
 20
-39.41213000941711
 30
0.0
 42
0.4142135623730951
  0
VERTEX
  5
4ED
  8
LAYER_1
 10
70.33336792703466
 20
-39.66213000941711
 30
0.0
 42
0.4142135623730951
  0
VERTEX
  5
4EE
  8
LAYER_1
 10
70.58336792703466
 20
-39.41213000941711
 30
0.0
 42
0.4142135623730951
  0
VERTEX
  5
4EF
  8
LAYER_1
 10
70.33336792703466
 20
-39.16213000941711
 30
0.0
 42
0.4142135623730951
  0
SEQEND
  5
AA0
  8
LAYER_1
  0
POLYLINE
  5
AA
  8
LAYER_1
 66
     1
 10
0.0
 20
0.0
 30
0.0
 70
     1
  0
VERTEX
  5
4F0
  8
LAYER_1
 10
70.08336792703466
 20
-33.91213000941711
 30
0.0
 42
0.4142135623730951
  0
VERTEX
  5
4F1
  8
LAYER_1
 10
70.33336792703466
 20
-34.16213000941711
 30
0.0
 42
0.4142135623730951
  0
VERTEX
  5
4F2
  8
LAYER_1
 10
70.58336792703466
 20
-33.91213000941711
 30
0.0
 42
0.4142135623730951
  0
VERTEX
  5
4F3
  8
LAYER_1
 10
70.33336792703466
 20
-33.66213000941711
 30
0.0
 42
0.4142135623730951
  0
SEQEND
  5
AA1
  8
LAYER_1
  0
POLYLINE
  5
AB
  8
LAYER_1
 66
     1
 10
0.0
 20
0.0
 30
0.0
 70
     1
  0
VERTEX
  5
4F4
  8
LAYER_1
 10
32.32516880811229
 20
-4.645776557028491
 30
0.0
 42
0.4142135623730951
  0
VERTEX
  5
4F5
  8
LAYER_1
 10
31.76266880811229
 20
-5.208276557028491
 30
0.0
 42
0.4142135623730951
  0
VERTEX
  5
4F6
  8
LAYER_1
 10
32.32516880811229
 20
-5.770776557028491
 30
0.0
 42
0.4142135623730951
  0
VERTEX
  5
4F7
  8
LAYER_1
 10
32.88766880811229
 20
-5.208276557028491
 30
0.0
 42
0.4142135623730951
  0
SEQEND
  5
AA2
  8
LAYER_1
  0
POLYLINE
  5
AC
  8
LAYER_1
 66
     1
 10
0.0
 20
0.0
 30
0.0
 70
     1
  0
VERTEX
  5
4F8
  8
LAYER_1
 10
24.76268236966212
 20
-9.484973067514971
 30
0.0
  0
VERTEX
  5
4F9
  8
LAYER_1
 10
34.439177949707
 20
-9.484969655335128
 30
0.0
  0
VERTEX
  5
4FA
  8
LAYER_1
 10
35.34459616309252
 20
-9.48496933606151
 30
0.0
  0
VERTEX
  5
4FB
  8
LAYER_1
 10
34.45016880813837
 20
-7.58327655700635
 30
0.0
  0
VERTEX
  5
4FC
  8
LAYER_1
 10
34.44109824817371
 20
-7.563422748220313
 30
0.0
  0
VERTEX
  5
4FD
  8
LAYER_1
 10
34.43246537819641
 20
-7.54338298185123
 30
0.0
  0
VERTEX
  5
4FE
  8
LAYER_1
 10
34.42425974733656
 20
-7.523165333875384
 30
0.0
  0
VERTEX
  5
4FF
  8
LAYER_1
 10
34.41647090472421
 20
-7.502777880269058
 30
0.0
  0
VERTEX
  5
500
  8
LAYER_1
 10
34.40908839948943
 20
-7.482228697008537
 30
0.0
  0
VERTEX
  5
501
  8
LAYER_1
 10
34.40210178076226
 20
-7.461525860070105
 30
0.0
  0
VERTEX
  5
502
  8
LAYER_1
 10
34.39550059767277
 20
-7.440677445430046
 30
0.0
  0
VERTEX
  5
503
  8
LAYER_1
 10
34.38927439935104
 20
-7.419691529064643
 30
0.0
  0
VERTEX
  5
504
  8
LAYER_1
 10
34.38341273492711
 20
-7.398576186950181
 30
0.0
  0
VERTEX
  5
505
  8
LAYER_1
 10
34.37790515353104
 20
-7.377339495062945
 30
0.0
  0
VERTEX
  5
506
  8
LAYER_1
 10
34.37274120429291
 20
-7.355989529379217
 30
0.0
  0
VERTEX
  5
507
  8
LAYER_1
 10
34.36791043634275
 20
-7.334534365875282
 30
0.0
  0
VERTEX
  5
508
  8
LAYER_1
 10
34.36340239881066
 20
-7.312982080527424
 30
0.0
  0
VERTEX
  5
509
  8
LAYER_1
 10
34.35920664082668
 20
-7.291340749311926
 30
0.0
  0
VERTEX
  5
50A
  8
LAYER_1
 10
34.35171016002331
 20
-7.247823253183149
 30
0.0
  0
VERTEX
  5
50B
  8
LAYER_1
 10
34.34533738697313
 20
-7.204046485299224
 30
0.0
  0
VERTEX
  5
50C
  8
LAYER_1
 10
34.34000471471662
 20
-7.160075053470421
 30
0.0
  0
VERTEX
  5
50D
  8
LAYER_1
 10
34.33562853629428
 20
-7.115973565507014
 30
0.0
  0
VERTEX
  5
50E
  8
LAYER_1
 10
34.3321252447466
 20
-7.071806629219273
 30
0.0
  0
VERTEX
  5
50F
  8
LAYER_1
 10
34.32941123311407
 20
-7.02763885241747
 30
0.0
  0
VERTEX
  5
510
  8
LAYER_1
 10
34.32740289443718
 20
-6.983534842911879
 30
0.0
  0
VERTEX
  5
511
  8
LAYER_1
 10
34.32601662175642
 20
-6.93955920851277
 30
0.0
  0
VERTEX
  5
512
  8
LAYER_1
 10
34.3251688081123
 20
-6.895776557030416
 30
0.0
  0
VERTEX
  5
513
  8
LAYER_1
 10
34.26266880811227
 20
-2.395776557027787
 30
0.0
  0
VERTEX
  5
514
  8
LAYER_1
 10
34.26195021926178
 20
-2.37195139118624
 30
0.0
  0
VERTEX
  5
515
  8
LAYER_1
 10
34.26042971206454
 20
-2.34775541378966
 30
0.0
  0
VERTEX
  5
516
  8
LAYER_1
 10
34.25807644299073
 20
-2.323279160623736
 30
0.0
  0
VERTEX
  5
517
  8
LAYER_1
 10
34.25485956851053
 20
-2.298613167474155
 30
0.0
  0
VERTEX
  5
518
  8
LAYER_1
 10
34.25074824509412
 20
-2.273847970126608
 30
0.0
  0
VERTEX
  5
519
  8
LAYER_1
 10
34.24571162921166
 20
-2.249074104366783
 30
0.0
  0
VERTEX
  5
51A
  8
LAYER_1
 10
34.23971887733333
 20
-2.224382105980369
 30
0.0
  0
VERTEX
  5
51B
  8
LAYER_1
 10
34.23273914592932
 20
-2.199862510753054
 30
0.0
  0
VERTEX
  5
51C
  8
LAYER_1
 10
34.22474159146979
 20
-2.175605854470526
 30
0.0
  0
VERTEX
  5
51D
  8
LAYER_1
 10
34.21569537042492
 20
-2.151702672918475
 30
0.0
  0
VERTEX
  5
51E
  8
LAYER_1
 10
34.21076937132992
 20
-2.139911927599407
 30
0.0
  0
VERTEX
  5
51F
  8
LAYER_1
 10
34.20556963926489
 20
-2.12824350188259
 30
0.0
  0
VERTEX
  5
520
  8
LAYER_1
 10
34.20009231878862
 20
-2.116708712741237
 30
0.0
  0
VERTEX
  5
521
  8
LAYER_1
 10
34.19433355445987
 20
-2.105318877148558
 30
0.0
  0
VERTEX
  5
522
  8
LAYER_1
 10
34.18828949083742
 20
-2.094085312077765
 30
0.0
  0
VERTEX
  5
523
  8
LAYER_1
 10
34.18195627248004
 20
-2.083019334502069
 30
0.0
  0
VERTEX
  5
524
  8
LAYER_1
 10
34.1753300439465
 20
-2.072132261394681
 30
0.0
  0
VERTEX
  5
525
  8
LAYER_1
 10
34.16840694979558
 20
-2.061435409728812
 30
0.0
  0
VERTEX
  5
526
  8
LAYER_1
 10
34.16118313458604
 20
-2.050940096477673
 30
0.0
  0
VERTEX
  5
527
  8
LAYER_1
 10
34.15365474287666
 20
-2.040657638614475
 30
0.0
  0
VERTEX
  5
528
  8
LAYER_1
 10
34.14581791922621
 20
-2.030599353112429
 30
0.0
  0
VERTEX
  5
529
  8
LAYER_1
 10
34.13766880819345
 20
-2.020776556944746
 30
0.0
  0
VERTEX
  5
52A
  8
LAYER_1
 10
34.11901467718529
 20
-1.999594348694167
 30
0.0
  0
VERTEX
  5
52B
  8
LAYER_1
 10
34.09958889949735
 20
-1.978721351689464
 30
0.0
  0
VERTEX
  5
52C
  8
LAYER_1
 10
34.07942016030418
 20
-1.958194369470717
 30
0.0
  0
VERTEX
  5
52D
  8
LAYER_1
 10
34.05853714478036
 20
-1.938050205578005
 30
0.0
  0
VERTEX
  5
52E
  8
LAYER_1
 10
34.03696853810045
 20
-1.918325663551408
 30
0.0
  0
VERTEX
  5
52F
  8
LAYER_1
 10
34.01474302543904
 20
-1.899057546931005
 30
0.0
  0
VERTEX
  5
530
  8
LAYER_1
 10
33.99188929197066
 20
-1.880282659256876
 30
0.0
  0
VERTEX
  5
531
  8
LAYER_1
 10
33.96843602286992
 20
-1.862037804069099
 30
0.0
  0
VERTEX
  5
532
  8
LAYER_1
 10
33.94441190331136
 20
-1.844359784907755
 30
0.0
  0
VERTEX
  5
533
  8
LAYER_1
 10
33.91984561846957
 20
-1.827285405312923
 30
0.0
  0
VERTEX
  5
534
  8
LAYER_1
 10
33.8947658535191
 20
-1.810851468824683
 30
0.0
  0
VERTEX
  5
535
  8
LAYER_1
 10
33.86920129363452
 20
-1.795094778983113
 30
0.0
  0
VERTEX
  5
536
  8
LAYER_1
 10
33.84318062399041
 20
-1.780052139328294
 30
0.0
  0
VERTEX
  5
537
  8
LAYER_1
 10
33.81673252976134
 20
-1.765760353400305
 30
0.0
  0
VERTEX
  5
538
  8
LAYER_1
 10
33.78988569612188
 20
-1.752256224739225
 30
0.0
  0
VERTEX
  5
539
  8
LAYER_1
 10
33.76266880824657
 20
-1.739576556885133
 30
0.0
  0
VERTEX
  5
53A
  8
LAYER_1
 10
33.74976476997391
 20
-1.73402128162855
 30
0.0
  0
VERTEX
  5
53B
  8
LAYER_1
 10
33.73667000457286
 20
-1.728805170722147
 30
0.0
  0
VERTEX
  5
53C
  8
LAYER_1
 10
33.72339863097089
 20
-1.723917547409974
 30
0.0
  0
VERTEX
  5
53D
  8
LAYER_1
 10
33.70996476809555
 20
-1.719347734936084
 30
0.0
  0
VERTEX
  5
53E
  8
LAYER_1
 10
33.69638253487432
 20
-1.715085056544527
 30
0.0
  0
VERTEX
  5
53F
  8
LAYER_1
 10
33.68266605023472
 20
-1.711118835479354
 30
0.0
  0
VERTEX
  5
540
  8
LAYER_1
 10
33.65488680241042
 20
-1.704033058304364
 30
0.0
  0
VERTEX
  5
541
  8
LAYER_1
 10
33.62673997604272
 20
-1.698004989363522
 30
0.0
  0
VERTEX
  5
542
  8
LAYER_1
 10
33.59833852255168
 20
-1.692949214609236
 30
0.0
  0
VERTEX
  5
543
  8
LAYER_1
 10
33.56979539335735
 20
-1.688780319993915
 30
0.0
  0
VERTEX
  5
544
  8
LAYER_1
 10
33.54122353987981
 20
-1.685412891469966
 30
0.0
  0
VERTEX
  5
545
  8
LAYER_1
 10
33.5127359135391
 20
-1.682761514989797
 30
0.0
  0
VERTEX
  5
546
  8
LAYER_1
 10
33.4844454657553
 20
-1.680740776505817
 30
0.0
  0
VERTEX
  5
547
  8
LAYER_1
 10
33.45646514794846
 20
-1.679265261970434
 30
0.0
  0
VERTEX
  5
548
  8
LAYER_1
 10
33.42890791153864
 20
-1.678249557336055
 30
0.0
  0
VERTEX
  5
549
  8
LAYER_1
 10
33.37551448859033
 20
-1.677255921579943
 30
0.0
  0
VERTEX
  5
54A
  8
LAYER_1
 10
33.32516880827085
 20
-1.677076556856747
 30
0.0
  0
VERTEX
  5
54B
  8
LAYER_1
 10
29.16886880827528
 20
-1.677076556829569
 30
0.0
  0
VERTEX
  5
54C
  8
LAYER_1
 10
29.1544348092248
 20
-1.677353136027468
 30
0.0
  0
VERTEX
  5
54D
  8
LAYER_1
 10
29.13997260601218
 20
-1.678174743946645
 30
0.0
  0
VERTEX
  5
54E
  8
LAYER_1
 10
29.12549624646681
 20
-1.679529186075031
 30
0.0
  0
VERTEX
  5
54F
  8
LAYER_1
 10
29.1110197784181
 20
-1.681404267900559
 30
0.0
  0
VERTEX
  5
550
  8
LAYER_1
 10
29.09655724969545
 20
-1.683787794911159
 30
0.0
  0
VERTEX
  5
551
  8
LAYER_1
 10
29.08212270812829
 20
-1.686667572594766
 30
0.0
  0
VERTEX
  5
552
  8
LAYER_1
 10
29.067730201546
 20
-1.690031406439311
 30
0.0
  0
VERTEX
  5
553
  8
LAYER_1
 10
29.053393777778
 20
-1.693867101932726
 30
0.0
  0
VERTEX
  5
554
  8
LAYER_1
 10
29.0391274846537
 20
-1.698162464562943
 30
0.0
  0
VERTEX
  5
555
  8
LAYER_1
 10
29.02494537000249
 20
-1.702905299817896
 30
0.0
  0
VERTEX
  5
556
  8
LAYER_1
 10
29.01086148165379
 20
-1.708083413185514
 30
0.0
  0
VERTEX
  5
557
  8
LAYER_1
 10
28.99688986743701
 20
-1.713684610153733
 30
0.0
  0
VERTEX
  5
558
  8
LAYER_1
 10
28.98304457518154
 20
-1.719696696210482
 30
0.0
  0
VERTEX
  5
559
  8
LAYER_1
 10
28.9693396527168
 20
-1.726107476843695
 30
0.0
  0
VERTEX
  5
55A
  8
LAYER_1
 10
28.9557891478722
 20
-1.732904757541304
 30
0.0
  0
VERTEX
  5
55B
  8
LAYER_1
 10
28.94240710847713
 20
-1.740076343791241
 30
0.0
  0
VERTEX
  5
55C
  8
LAYER_1
 10
28.92920758236102
 20
-1.747610041081438
 30
0.0
  0
VERTEX
  5
55D
  8
LAYER_1
 10
28.91620461735325
 20
-1.755493654899828
 30
0.0
  0
VERTEX
  5
55E
  8
LAYER_1
 10
28.90341226128325
 20
-1.763714990734342
 30
0.0
  0
VERTEX
  5
55F
  8
LAYER_1
 10
28.89084456198041
 20
-1.772261854072913
 30
0.0
  0
VERTEX
  5
560
  8
LAYER_1
 10
28.87851556727414
 20
-1.781122050403473
 30
0.0
  0
VERTEX
  5
561
  8
LAYER_1
 10
28.86643932499386
 20
-1.790283385213954
 30
0.0
  0
VERTEX
  5
562
  8
LAYER_1
 10
28.85462988296896
 20
-1.799733663992289
 30
0.0
  0
VERTEX
  5
563
  8
LAYER_1
 10
28.84310128902885
 20
-1.80946069222641
 30
0.0
  0
VERTEX
  5
564
  8
LAYER_1
 10
28.83186759100294
 20
-1.819452275404248
 30
0.0
  0
VERTEX
  5
565
  8
LAYER_1
 10
28.82094283672064
 20
-1.829696219013737
 30
0.0
  0
VERTEX
  5
566
  8
LAYER_1
 10
28.81034107401136
 20
-1.840180328542808
 30
0.0
  0
VERTEX
  5
567
  8
LAYER_1
 10
28.80007635070449
 20
-1.850892409479394
 30
0.0
  0
VERTEX
  5
568
  8
LAYER_1
 10
28.79016271462944
 20
-1.861820267311426
 30
0.0
  0
VERTEX
  5
569
  8
LAYER_1
 10
28.78061421361563
 20
-1.872951707526838
 30
0.0
  0
VERTEX
  5
56A
  8
LAYER_1
 10
28.77144489549246
 20
-1.884274535613561
 30
0.0
  0
VERTEX
  5
56B
  8
LAYER_1
 10
28.76266880808933
 20
-1.895776557059527
 30
0.0
  0
VERTEX
  5
56C
  8
LAYER_1
 10
26.45016880809082
 20
-5.020776557053694
 30
0.0
  0
VERTEX
  5
56D
  8
LAYER_1
 10
26.43297431004477
 20
-5.043449557603449
 30
0.0
  0
VERTEX
  5
56E
  8
LAYER_1
 10
26.41526666788519
 20
-5.065701423106449
 30
0.0
  0
VERTEX
  5
56F
  8
LAYER_1
 10
26.39705662101321
 20
-5.087534204163192
 30
0.0
  0
VERTEX
  5
570
  8
LAYER_1
 10
26.37835490882992
 20
-5.108949951374173
 30
0.0
  0
VERTEX
  5
571
  8
LAYER_1
 10
26.35917227073644
 20
-5.12995071533989
 30
0.0
  0
VERTEX
  5
572
  8
LAYER_1
 10
26.33951944613387
 20
-5.15053854666084
 30
0.0
  0
VERTEX
  5
573
  8
LAYER_1
 10
26.31940717442333
 20
-5.170715495937518
 30
0.0
  0
VERTEX
  5
574
  8
LAYER_1
 10
26.29884619500592
 20
-5.190483613770423
 30
0.0
  0
VERTEX
  5
575
  8
LAYER_1
 10
26.27784724728275
 20
-5.209844950760051
 30
0.0
  0
VERTEX
  5
576
  8
LAYER_1
 10
26.25642107065493
 20
-5.228801557506897
 30
0.0
  0
VERTEX
  5
577
  8
LAYER_1
 10
26.23457840452357
 20
-5.247355484611461
 30
0.0
  0
VERTEX
  5
578
  8
LAYER_1
 10
26.21232998828978
 20
-5.265508782674237
 30
0.0
  0
VERTEX
  5
579
  8
LAYER_1
 10
26.18968656135466
 20
-5.283263502295724
 30
0.0
  0
VERTEX
  5
57A
  8
LAYER_1
 10
26.16665886311932
 20
-5.300621694076417
 30
0.0
  0
VERTEX
  5
57B
  8
LAYER_1
 10
26.14325763298487
 20
-5.317585408616813
 30
0.0
  0
VERTEX
  5
57C
  8
LAYER_1
 10
26.11949361035242
 20
-5.334156696517409
 30
0.0
  0
VERTEX
  5
57D
  8
LAYER_1
 10
26.09537753462308
 20
-5.350337608378703
 30
0.0
  0
VERTEX
  5
57E
  8
LAYER_1
 10
26.07092014519795
 20
-5.36613019480119
 30
0.0
  0
VERTEX
  5
57F
  8
LAYER_1
 10
26.04613218147815
 20
-5.381536506385368
 30
0.0
  0
VERTEX
  5
580
  8
LAYER_1
 10
26.02102438286478
 20
-5.396558593731733
 30
0.0
  0
VERTEX
  5
581
  8
LAYER_1
 10
25.99560748875896
 20
-5.411198507440782
 30
0.0
  0
VERTEX
  5
582
  8
LAYER_1
 10
25.96989223856178
 20
-5.425458298113012
 30
0.0
  0
VERTEX
  5
583
  8
LAYER_1
 10
25.94388937167437
 20
-5.439340016348921
 30
0.0
  0
VERTEX
  5
584
  8
LAYER_1
 10
25.91760962749782
 20
-5.452845712749004
 30
0.0
  0
VERTEX
  5
585
  8
LAYER_1
 10
25.89106374543324
 20
-5.465977437913757
 30
0.0
  0
VERTEX
  5
586
  8
LAYER_1
 10
25.86426246488175
 20
-5.478737242443679
 30
0.0
  0
VERTEX
  5
587
  8
LAYER_1
 10
25.83721652524445
 20
-5.491127176939266
 30
0.0
  0
VERTEX
  5
588
  8
LAYER_1
 10
25.80993666592246
 20
-5.503149292001014
 30
0.0
  0
VERTEX
  5
589
  8
LAYER_1
 10
25.78243362631687
 20
-5.51480563822942
 30
0.0
  0
VERTEX
  5
58A
  8
LAYER_1
 10
25.7547181458288
 20
-5.526098266224983
 30
0.0
  0
VERTEX
  5
58B
  8
LAYER_1
 10
25.72680096385935
 20
-5.537029226588196
 30
0.0
  0
VERTEX
  5
58C
  8
LAYER_1
 10
25.69869281980964
 20
-5.547600569919558
 30
0.0
  0
VERTEX
  5
58D
  8
LAYER_1
 10
25.67040445308077
 20
-5.557814346819566
 30
0.0
  0
VERTEX
  5
58E
  8
LAYER_1
 10
25.64194660307385
 20
-5.567672607888715
 30
0.0
  0
VERTEX
  5
58F
  8
LAYER_1
 10
25.61333000918999
 20
-5.577177403727504
 30
0.0
  0
VERTEX
  5
590
  8
LAYER_1
 10
25.5845654108303
 20
-5.586330784936429
 30
0.0
  0
VERTEX
  5
591
  8
LAYER_1
 10
25.55566354739589
 20
-5.595134802115986
 30
0.0
  0
VERTEX
  5
592
  8
LAYER_1
 10
25.52663515828786
 20
-5.603591505866673
 30
0.0
  0
VERTEX
  5
593
  8
LAYER_1
 10
25.49749098290733
 20
-5.611702946788986
 30
0.0
  0
VERTEX
  5
594
  8
LAYER_1
 10
25.46824176065539
 20
-5.619471175483422
 30
0.0
  0
VERTEX
  5
595
  8
LAYER_1
 10
25.43889823093317
 20
-5.626898242550478
 30
0.0
  0
VERTEX
  5
596
  8
LAYER_1
 10
25.40947113314176
 20
-5.633986198590651
 30
0.0
  0
VERTEX
  5
597
  8
LAYER_1
 10
25.37997120668228
 20
-5.640737094204436
 30
0.0
  0
VERTEX
  5
598
  8
LAYER_1
 10
25.35040919095584
 20
-5.647152979992332
 30
0.0
  0
VERTEX
  5
599
  8
LAYER_1
 10
25.32079582536354
 20
-5.653235906554834
 30
0.0
  0
VERTEX
  5
59A
  8
LAYER_1
 10
25.29114184930649
 20
-5.65898792449244
 30
0.0
  0
VERTEX
  5
59B
  8
LAYER_1
 10
25.2614580021858
 20
-5.664411084405646
 30
0.0
  0
VERTEX
  5
59C
  8
LAYER_1
 10
25.23175502340258
 20
-5.669507436894949
 30
0.0
  0
VERTEX
  5
59D
  8
LAYER_1
 10
25.20204365235794
 20
-5.674279032560845
 30
0.0
  0
VERTEX
  5
59E
  8
LAYER_1
 10
25.17233462845299
 20
-5.678727922003834
 30
0.0
  0
VERTEX
  5
59F
  8
LAYER_1
 10
25.14263869108883
 20
-5.68285615582441
 30
0.0
  0
VERTEX
  5
5A0
  8
LAYER_1
 10
25.11296657966658
 20
-5.686665784623069
 30
0.0
  0
VERTEX
  5
5A1
  8
LAYER_1
 10
25.08332903358733
 20
-5.690158859000309
 30
0.0
  0
VERTEX
  5
5A2
  8
LAYER_1
 10
25.0537367922522
 20
-5.693337429556628
 30
0.0
  0
VERTEX
  5
5A3
  8
LAYER_1
 10
25.0242005950623
 20
-5.696203546892522
 30
0.0
  0
VERTEX
  5
5A4
  8
LAYER_1
 10
24.99473118141874
 20
-5.698759261608488
 30
0.0
  0
VERTEX
  5
5A5
  8
LAYER_1
 10
24.93603566237505
 20
-5.70294768558262
 30
0.0
  0
VERTEX
  5
5A6
  8
LAYER_1
 10
24.87773615033002
 20
-5.705919106282998
 30
0.0
  0
VERTEX
  5
5A7
  8
LAYER_1
 10
24.8199185604925
 20
-5.707689928513597
 30
0.0
  0
VERTEX
  5
5A8
  8
LAYER_1
 10
24.76266880807136
 20
-5.708276557078392
 30
0.0
  0
SEQEND
  5
AA3
  8
LAYER_1
  0
POLYLINE
  5
AD
  8
LAYER_1
 66
     1
 10
0.0
 20
0.0
 30
0.0
 70
     1
  0
VERTEX
  5
5A9
  8
LAYER_1
 10
67.66762052565772
 20
-27.33026557610384
 30
0.0
  0
VERTEX
  5
5AA
  8
LAYER_1
 10
60.44892052551806
 20
-28.39276557614947
 30
0.0
  0
VERTEX
  5
5AB
  8
LAYER_1
 10
60.4256357415759
 20
-28.39592401299996
 30
0.0
  0
VERTEX
  5
5AC
  8
LAYER_1
 10
60.40231460227145
 20
-28.39856312813694
 30
0.0
  0
VERTEX
  5
5AD
  8
LAYER_1
 10
60.37895975787605
 20
-28.40070187591339
 30
0.0
  0
VERTEX
  5
5AE
  8
LAYER_1
 10
60.35557385866102
 20
-28.40235921068226
 30
0.0
  0
VERTEX
  5
5AF
  8
LAYER_1
 10
60.33215955489771
 20
-28.40355408679652
 30
0.0
  0
VERTEX
  5
5B0
  8
LAYER_1
 10
60.30871949685744
 20
-28.40430545860913
 30
0.0
  0
VERTEX
  5
5B1
  8
LAYER_1
 10
60.28525633481152
 20
-28.40463228047305
 30
0.0
  0
VERTEX
  5
5B2
  8
LAYER_1
 10
60.26177271903133
 20
-28.40455350674125
 30
0.0
  0
VERTEX
  5
5B3
  8
LAYER_1
 10
60.23827129978817
 20
-28.40408809176668
 30
0.0
  0
VERTEX
  5
5B4
  8
LAYER_1
 10
60.21475472735337
 20
-28.40325498990232
 30
0.0
  0
VERTEX
  5
5B5
  8
LAYER_1
 10
60.19122565199827
 20
-28.40207315550112
 30
0.0
  0
VERTEX
  5
5B6
  8
LAYER_1
 10
60.16768672399419
 20
-28.40056154291605
 30
0.0
  0
VERTEX
  5
5B7
  8
LAYER_1
 10
60.12058991112447
 20
-28.39662480060614
 30
0.0
  0
VERTEX
  5
5B8
  8
LAYER_1
 10
60.07348549091483
 20
-28.39159639779629
 30
0.0
  0
VERTEX
  5
5B9
  8
LAYER_1
 10
60.02639466553594
 20
-28.3856279693102
 30
0.0
  0
VERTEX
  5
5BA
  8
LAYER_1
 10
59.97933863715845
 20
-28.37887114997159
 30
0.0
  0
VERTEX
  5
5BB
  8
LAYER_1
 10
59.932338607953
 20
-28.37147757460414
 30
0.0
  0
VERTEX
  5
5BC
  8
LAYER_1
 10
59.88541578009024
 20
-28.36359887803157
 30
0.0
  0
VERTEX
  5
5BD
  8
LAYER_1
 10
59.79188653707543
 20
-28.34699266056587
 30
0.0
  0
VERTEX
  5
5BE
  8
LAYER_1
 10
59.69892052547922
 20
-28.33026557616409
 30
0.0
  0
VERTEX
  5
5BF
  8
LAYER_1
 10
41.32392052567349
 20
-25.08026557609582
 30
0.0
  0
VERTEX
  5
5C0
  8
LAYER_1
 10
41.24543402836473
 20
-25.06629193251792
 30
0.0
  0
VERTEX
  5
5C1
  8
LAYER_1
 10
41.20571434238844
 20
-25.0586650722943
 30
0.0
  0
VERTEX
  5
5C2
  8
LAYER_1
 10
41.16598711631441
 20
-25.05023346510082
 30
0.0
  0
VERTEX
  5
5C3
  8
LAYER_1
 10
41.14619335186188
 20
-25.04562727482475
 30
0.0
  0
VERTEX
  5
5C4
  8
LAYER_1
 10
41.12648491373028
 20
-25.04071356992745
 30
0.0
  0
VERTEX
  5
5C5
  8
LAYER_1
 10
41.10689087236807
 20
-25.03545690778266
 30
0.0
  0
VERTEX
  5
5C6
  8
LAYER_1
 10
41.08744029822371
 20
-25.02982184576413
 30
0.0
  0
VERTEX
  5
5C7
  8
LAYER_1
 10
41.06816226174566
 20
-25.0237729412456
 30
0.0
  0
VERTEX
  5
5C8
  8
LAYER_1
 10
41.04908583338235
 20
-25.01727475160082
 30
0.0
  0
VERTEX
  5
5C9
  8
LAYER_1
 10
41.03024008358225
 20
-25.01029183420352
 30
0.0
  0
VERTEX
  5
5CA
  8
LAYER_1
 10
41.01165408279383
 20
-25.00278874642745
 30
0.0
  0
VERTEX
  5
5CB
  8
LAYER_1
 10
40.99450542448434
 20
-24.99538758222261
 30
0.0
  0
VERTEX
  5
5CC
  8
LAYER_1
 10
40.97742337134416
 20
-24.98767387129951
 30
0.0
  0
VERTEX
  5
5CD
  8
LAYER_1
 10
40.94346401982128
 20
-24.97134529824228
 30
0.0
  0
VERTEX
  5
5CE
  8
LAYER_1
 10
40.90978590672423
 20
-24.95387600514313
 30
0.0
  0
VERTEX
  5
5CF
  8
LAYER_1
 10
40.87639891055211
 20
-24.93533896988948
 30
0.0
  0
VERTEX
  5
5D0
  8
LAYER_1
 10
40.84331290980398
 20
-24.91580717036872
 30
0.0
  0
VERTEX
  5
5D1
  8
LAYER_1
 10
40.81053778297893
 20
-24.89535358446826
 30
0.0
  0
VERTEX
  5
5D2
  8
LAYER_1
 10
40.77808340857602
 20
-24.87405119007549
 30
0.0
  0
VERTEX
  5
5D3
  8
LAYER_1
 10
40.74595966509435
 20
-24.85197296507781
 30
0.0
  0
VERTEX
  5
5D4
  8
LAYER_1
 10
40.71417643103297
 20
-24.82919188736263
 30
0.0
  0
VERTEX
  5
5D5
  8
LAYER_1
 10
40.68274358489095
 20
-24.80578093481733
 30
0.0
  0
VERTEX
  5
5D6
  8
LAYER_1
 10
40.65167100516739
 20
-24.78181308532933
 30
0.0
  0
VERTEX
  5
5D7
  8
LAYER_1
 10
40.62096857036134
 20
-24.75736131678601
 30
0.0
  0
VERTEX
  5
5D8
  8
LAYER_1
 10
40.59064615897189
 20
-24.73249860707478
 30
0.0
  0
VERTEX
  5
5D9
  8
LAYER_1
 10
40.56071364949811
 20
-24.70729793408305
 30
0.0
  0
VERTEX
  5
5DA
  8
LAYER_1
 10
40.53118092043908
 20
-24.6818322756982
 30
0.0
  0
VERTEX
  5
5DB
  8
LAYER_1
 10
40.50205785029387
 20
-24.65617460980764
 30
0.0
  0
VERTEX
  5
5DC
  8
LAYER_1
 10
40.47697954835154
 20
-24.63367550318829
 30
0.0
  0
VERTEX
  5
5DD
  8
LAYER_1
 10
40.45222153396824
 20
-24.61106833214663
 30
0.0
  0
VERTEX
  5
5DE
  8
LAYER_1
 10
40.42779436593241
 20
-24.5883240531306
 30
0.0
  0
VERTEX
  5
5DF
  8
LAYER_1
 10
40.40370860303248
 20
-24.56541362258816
 30
0.0
  0
VERTEX
  5
5E0
  8
LAYER_1
 10
40.37997480405692
 20
-24.54230799696727
 30
0.0
  0
VERTEX
  5
5E1
  8
LAYER_1
 10
40.35660352779417
 20
-24.51897813271588
 30
0.0
  0
VERTEX
  5
5E2
  8
LAYER_1
 10
40.33360533303267
 20
-24.49539498628194
 30
0.0
  0
VERTEX
  5
5E3
  8
LAYER_1
 10
40.31099077856088
 20
-24.47152951411342
 30
0.0
  0
VERTEX
  5
5E4
  8
LAYER_1
 10
40.28877042316723
 20
-24.44735267265827
 30
0.0
  0
VERTEX
  5
5E5
  8
LAYER_1
 10
40.26695482564017
 20
-24.42283541836443
 30
0.0
  0
VERTEX
  5
5E6
  8
LAYER_1
 10
40.24555454476815
 20
-24.39794870767987
 30
0.0
  0
VERTEX
  5
5E7
  8
LAYER_1
 10
40.22458013933962
 20
-24.37266349705255
 30
0.0
  0
VERTEX
  5
5E8
  8
LAYER_1
 10
40.20404216814303
 20
-24.34695074293041
 30
0.0
  0
VERTEX
  5
5E9
  8
LAYER_1
 10
40.18395118996681
 20
-24.32078140176142
 30
0.0
  0
VERTEX
  5
5EA
  8
LAYER_1
 10
40.16431776359942
 20
-24.29412642999352
 30
0.0
  0
VERTEX
  5
5EB
  8
LAYER_1
 10
40.1451524478293
 20
-24.26695678407467
 30
0.0
  0
VERTEX
  5
5EC
  8
LAYER_1
 10
40.13271885884952
 20
-24.24847984356213
 30
0.0
  0
VERTEX
  5
5ED
  8
LAYER_1
 10
40.12068759006086
 20
-24.22972390628949
 30
0.0
  0
VERTEX
  5
5EE
  8
LAYER_1
 10
40.1090329755323
 20
-24.21072007841996
 30
0.0
  0
VERTEX
  5
5EF
  8
LAYER_1
 10
40.09772934933282
 20
-24.19149946611678
 30
0.0
  0
VERTEX
  5
5F0
  8
LAYER_1
 10
40.08675104553141
 20
-24.17209317554316
 30
0.0
  0
VERTEX
  5
5F1
  8
LAYER_1
 10
40.07607239819705
 20
-24.15253231286234
 30
0.0
  0
VERTEX
  5
5F2
  8
LAYER_1
 10
40.05551140920539
 20
-24.11307129583197
 30
0.0
  0
VERTEX
  5
5F3
  8
LAYER_1
 10
40.03584105490971
 20
-24.07336526433147
 30
0.0
  0
VERTEX
  5
5F4
  8
LAYER_1
 10
40.01685600786186
 20
-24.03366306766665
 30
0.0
  0
VERTEX
  5
5F5
  8
LAYER_1
 10
39.9801205257171
 20
-23.95526557606722
 30
0.0
  0
VERTEX
  5
5F6
  8
LAYER_1
 10
36.51142052568316
 20
-16.58026557608251
 30
0.0
  0
VERTEX
  5
5F7
  8
LAYER_1
 10
36.50234996571849
 20
-16.56041176729648
 30
0.0
  0
VERTEX
  5
5F8
  8
LAYER_1
 10
36.4937170957412
 20
-16.54037200092739
 30
0.0
  0
VERTEX
  5
5F9
  8
LAYER_1
 10
36.48551146488136
 20
-16.52015435295154
 30
0.0
  0
VERTEX
  5
5FA
  8
LAYER_1
 10
36.477722622269
 20
-16.49976689934522
 30
0.0
  0
VERTEX
  5
5FB
  8
LAYER_1
 10
36.4703401170342
 20
-16.4792177160847
 30
0.0
  0
VERTEX
  5
5FC
  8
LAYER_1
 10
36.46335349830704
 20
-16.45851487914626
 30
0.0
  0
VERTEX
  5
5FD
  8
LAYER_1
 10
36.45675231521756
 20
-16.43766646450621
 30
0.0
  0
VERTEX
  5
5FE
  8
LAYER_1
 10
36.45052611689582
 20
-16.4166805481408
 30
0.0
  0
VERTEX
  5
5FF
  8
LAYER_1
 10
36.44466445247189
 20
-16.39556520602634
 30
0.0
  0
VERTEX
  5
600
  8
LAYER_1
 10
36.43915687107582
 20
-16.37432851413911
 30
0.0
  0
VERTEX
  5
601
  8
LAYER_1
 10
36.43399292183769
 20
-16.35297854845538
 30
0.0
  0
VERTEX
  5
602
  8
LAYER_1
 10
36.42916215388755
 20
-16.33152338495145
 30
0.0
  0
VERTEX
  5
603
  8
LAYER_1
 10
36.42465411635544
 20
-16.30997109960359
 30
0.0
  0
VERTEX
  5
604
  8
LAYER_1
 10
36.42045835837146
 20
-16.28832976838809
 30
0.0
  0
VERTEX
  5
605
  8
LAYER_1
 10
36.41296187756809
 20
-16.24481227225931
 30
0.0
  0
VERTEX
  5
606
  8
LAYER_1
 10
36.40658910451791
 20
-16.20103550437538
 30
0.0
  0
VERTEX
  5
607
  8
LAYER_1
 10
36.4012564322614
 20
-16.15706407254658
 30
0.0
  0
VERTEX
  5
608
  8
LAYER_1
 10
36.39688025383906
 20
-16.11296258458318
 30
0.0
  0
VERTEX
  5
609
  8
LAYER_1
 10
36.39337696229138
 20
-16.06879564829543
 30
0.0
  0
VERTEX
  5
60A
  8
LAYER_1
 10
36.39066295065885
 20
-16.02462787149364
 30
0.0
  0
VERTEX
  5
60B
  8
LAYER_1
 10
36.38865461198196
 20
-15.98052386198804
 30
0.0
  0
VERTEX
  5
60C
  8
LAYER_1
 10
36.38726833930122
 20
-15.93654822758893
 30
0.0
  0
VERTEX
  5
60D
  8
LAYER_1
 10
36.38642052565709
 20
-15.89276557610658
 30
0.0
  0
VERTEX
  5
60E
  8
LAYER_1
 10
36.32392052565706
 20
-11.39276557610395
 30
0.0
  0
VERTEX
  5
60F
  8
LAYER_1
 10
36.32320193680656
 20
-11.3689404102624
 30
0.0
  0
VERTEX
  5
610
  8
LAYER_1
 10
36.32168142960932
 20
-11.34474443286582
 30
0.0
  0
VERTEX
  5
611
  8
LAYER_1
 10
36.31932816053551
 20
-11.32026817969989
 30
0.0
  0
VERTEX
  5
612
  8
LAYER_1
 10
36.31611128605531
 20
-11.29560218655032
 30
0.0
  0
VERTEX
  5
613
  8
LAYER_1
 10
36.31199996263889
 20
-11.27083698920277
 30
0.0
  0
VERTEX
  5
614
  8
LAYER_1
 10
36.30696334675643
 20
-11.24606312344294
 30
0.0
  0
VERTEX
  5
615
  8
LAYER_1
 10
36.30097059487811
 20
-11.22137112505653
 30
0.0
  0
VERTEX
  5
616
  8
LAYER_1
 10
36.29399086347409
 20
-11.19685152982921
 30
0.0
  0
VERTEX
  5
617
  8
LAYER_1
 10
36.28599330901457
 20
-11.17259487354669
 30
0.0
  0
VERTEX
  5
618
  8
LAYER_1
 10
36.2769470879697
 20
-11.14869169199464
 30
0.0
  0
VERTEX
  5
619
  8
LAYER_1
 10
36.27202108887469
 20
-11.13690094667557
 30
0.0
  0
VERTEX
  5
61A
  8
LAYER_1
 10
36.26682135680967
 20
-11.12523252095875
 30
0.0
  0
VERTEX
  5
61B
  8
LAYER_1
 10
36.2613440363334
 20
-11.1136977318174
 30
0.0
  0
VERTEX
  5
61C
  8
LAYER_1
 10
36.25558527200466
 20
-11.10230789622472
 30
0.0
  0
VERTEX
  5
61D
  8
LAYER_1
 10
36.24954120838221
 20
-11.09107433115393
 30
0.0
  0
VERTEX
  5
61E
  8
LAYER_1
 10
36.24320799002484
 20
-11.08000835357823
 30
0.0
  0
VERTEX
  5
61F
  8
LAYER_1
 10
36.23658176149129
 20
-11.06912128047084
 30
0.0
  0
VERTEX
  5
620
  8
LAYER_1
 10
36.22965866734037
 20
-11.05842442880497
 30
0.0
  0
VERTEX
  5
621
  8
LAYER_1
 10
36.22243485213083
 20
-11.04792911555383
 30
0.0
  0
VERTEX
  5
622
  8
LAYER_1
 10
36.21490646042145
 20
-11.03764665769063
 30
0.0
  0
VERTEX
  5
623
  8
LAYER_1
 10
36.20706963677099
 20
-11.02758837218859
 30
0.0
  0
VERTEX
  5
624
  8
LAYER_1
 10
36.19892052573824
 20
-11.01776557602091
 30
0.0
  0
VERTEX
  5
625
  8
LAYER_1
 10
36.18026639473008
 20
-10.99658336777033
 30
0.0
  0
VERTEX
  5
626
  8
LAYER_1
 10
36.16084061704214
 20
-10.97571037076562
 30
0.0
  0
VERTEX
  5
627
  8
LAYER_1
 10
36.14067187784897
 20
-10.95518338854687
 30
0.0
  0
VERTEX
  5
628
  8
LAYER_1
 10
36.11978886232515
 20
-10.93503922465417
 30
0.0
  0
VERTEX
  5
629
  8
LAYER_1
 10
36.09822025564524
 20
-10.91531468262757
 30
0.0
  0
VERTEX
  5
62A
  8
LAYER_1
 10
36.07599474298382
 20
-10.89604656600716
 30
0.0
  0
VERTEX
  5
62B
  8
LAYER_1
 10
36.05314100951546
 20
-10.87727167833304
 30
0.0
  0
VERTEX
  5
62C
  8
LAYER_1
 10
36.02968774041471
 20
-10.85902682314526
 30
0.0
  0
VERTEX
  5
62D
  8
LAYER_1
 10
36.00566362085615
 20
-10.84134880398392
 30
0.0
  0
VERTEX
  5
62E
  8
LAYER_1
 10
35.98109733601435
 20
-10.82427442438908
 30
0.0
  0
VERTEX
  5
62F
  8
LAYER_1
 10
35.95601757106387
 20
-10.80784048790084
 30
0.0
  0
VERTEX
  5
630
  8
LAYER_1
 10
35.9304530111793
 20
-10.79208379805927
 30
0.0
  0
VERTEX
  5
631
  8
LAYER_1
 10
35.9044323415352
 20
-10.77704115840445
 30
0.0
  0
VERTEX
  5
632
  8
LAYER_1
 10
35.87798424730612
 20
-10.76274937247646
 30
0.0
  0
VERTEX
  5
633
  8
LAYER_1
 10
35.85113741366666
 20
-10.74924524381538
 30
0.0
  0
VERTEX
  5
634
  8
LAYER_1
 10
35.82392052579136
 20
-10.73656557596129
 30
0.0
  0
VERTEX
  5
635
  8
LAYER_1
 10
35.81101648751869
 20
-10.73101030070471
 30
0.0
  0
VERTEX
  5
636
  8
LAYER_1
 10
35.79792172211764
 20
-10.72579418979831
 30
0.0
  0
VERTEX
  5
637
  8
LAYER_1
 10
35.78465034851568
 20
-10.72090656648614
 30
0.0
  0
VERTEX
  5
638
  8
LAYER_1
 10
35.77121648564034
 20
-10.71633675401224
 30
0.0
  0
VERTEX
  5
639
  8
LAYER_1
 10
35.75763425241911
 20
-10.71207407562069
 30
0.0
  0
VERTEX
  5
63A
  8
LAYER_1
 10
35.74391776777951
 20
-10.70810785455551
 30
0.0
  0
VERTEX
  5
63B
  8
LAYER_1
 10
35.71613851995521
 20
-10.70102207738052
 30
0.0
  0
VERTEX
  5
63C
  8
LAYER_1
 10
35.68799169358751
 20
-10.69499400843968
 30
0.0
  0
VERTEX
  5
63D
  8
LAYER_1
 10
35.65959024009647
 20
-10.6899382336854
 30
0.0
  0
VERTEX
  5
63E
  8
LAYER_1
 10
35.63104711090214
 20
-10.68576933907007
 30
0.0
  0
VERTEX
  5
63F
  8
LAYER_1
 10
35.6024752574246
 20
-10.68240191054613
 30
0.0
  0
VERTEX
  5
640
  8
LAYER_1
 10
35.5739876310839
 20
-10.67975053406596
 30
0.0
  0
VERTEX
  5
641
  8
LAYER_1
 10
35.54569718330009
 20
-10.67772979558198
 30
0.0
  0
VERTEX
  5
642
  8
LAYER_1
 10
35.51771686549326
 20
-10.67625428104659
 30
0.0
  0
VERTEX
  5
643
  8
LAYER_1
 10
35.49015962908344
 20
-10.67523857641221
 30
0.0
  0
VERTEX
  5
644
  8
LAYER_1
 10
35.43676620613512
 20
-10.6742449406561
 30
0.0
  0
VERTEX
  5
645
  8
LAYER_1
 10
35.38642052581564
 20
-10.67406557593291
 30
0.0
  0
VERTEX
  5
646
  8
LAYER_1
 10
31.23012052582007
 20
-10.67406557590573
 30
0.0
  0
VERTEX
  5
647
  8
LAYER_1
 10
31.21568652676959
 20
-10.67434215510363
 30
0.0
  0
VERTEX
  5
648
  8
LAYER_1
 10
31.20122432355696
 20
-10.67516376302281
 30
0.0
  0
VERTEX
  5
649
  8
LAYER_1
 10
31.18674796401159
 20
-10.67651820515119
 30
0.0
  0
VERTEX
  5
64A
  8
LAYER_1
 10
31.17227149596288
 20
-10.67839328697672
 30
0.0
  0
VERTEX
  5
64B
  8
LAYER_1
 10
31.15780896724024
 20
-10.68077681398732
 30
0.0
  0
VERTEX
  5
64C
  8
LAYER_1
 10
31.14337442567307
 20
-10.68365659167093
 30
0.0
  0
VERTEX
  5
64D
  8
LAYER_1
 10
31.12898191909079
 20
-10.68702042551547
 30
0.0
  0
VERTEX
  5
64E
  8
LAYER_1
 10
31.11464549532279
 20
-10.69085612100889
 30
0.0
  0
VERTEX
  5
64F
  8
LAYER_1
 10
31.10037920219848
 20
-10.6951514836391
 30
0.0
  0
VERTEX
  5
650
  8
LAYER_1
 10
31.08619708754728
 20
-10.69989431889406
 30
0.0
  0
VERTEX
  5
651
  8
LAYER_1
 10
31.07211319919858
 20
-10.70507243226168
 30
0.0
  0
VERTEX
  5
652
  8
LAYER_1
 10
31.05814158498179
 20
-10.71067362922989
 30
0.0
  0
VERTEX
  5
653
  8
LAYER_1
 10
31.04429629272632
 20
-10.71668571528664
 30
0.0
  0
VERTEX
  5
654
  8
LAYER_1
 10
31.03059137026158
 20
-10.72309649591985
 30
0.0
  0
VERTEX
  5
655
  8
LAYER_1
 10
31.01704086541698
 20
-10.72989377661746
 30
0.0
  0
VERTEX
  5
656
  8
LAYER_1
 10
31.00365882602192
 20
-10.7370653628674
 30
0.0
  0
VERTEX
  5
657
  8
LAYER_1
 10
30.9904592999058
 20
-10.7445990601576
 30
0.0
  0
VERTEX
  5
658
  8
LAYER_1
 10
30.97745633489804
 20
-10.75248267397599
 30
0.0
  0
VERTEX
  5
659
  8
LAYER_1
 10
30.96466397882804
 20
-10.7607040098105
 30
0.0
  0
VERTEX
  5
65A
  8
LAYER_1
 10
30.9520962795252
 20
-10.76925087314907
 30
0.0
  0
VERTEX
  5
65B
  8
LAYER_1
 10
30.93976728481893
 20
-10.77811106947963
 30
0.0
  0
VERTEX
  5
65C
  8
LAYER_1
 10
30.92769104253864
 20
-10.78727240429011
 30
0.0
  0
VERTEX
  5
65D
  8
LAYER_1
 10
30.91588160051375
 20
-10.79672268306845
 30
0.0
  0
VERTEX
  5
65E
  8
LAYER_1
 10
30.90435300657364
 20
-10.80644971130257
 30
0.0
  0
VERTEX
  5
65F
  8
LAYER_1
 10
30.89311930854773
 20
-10.81644129448041
 30
0.0
  0
VERTEX
  5
660
  8
LAYER_1
 10
30.88219455426543
 20
-10.8266852380899
 30
0.0
  0
VERTEX
  5
661
  8
LAYER_1
 10
30.87159279155614
 20
-10.83716934761897
 30
0.0
  0
VERTEX
  5
662
  8
LAYER_1
 10
30.86132806824927
 20
-10.84788142855555
 30
0.0
  0
VERTEX
  5
663
  8
LAYER_1
 10
30.85141443217422
 20
-10.85880928638759
 30
0.0
  0
VERTEX
  5
664
  8
LAYER_1
 10
30.84186593116042
 20
-10.869940726603
 30
0.0
  0
VERTEX
  5
665
  8
LAYER_1
 10
30.83269661303724
 20
-10.88126355468972
 30
0.0
  0
VERTEX
  5
666
  8
LAYER_1
 10
30.82392052563412
 20
-10.89276557613569
 30
0.0
  0
VERTEX
  5
667
  8
LAYER_1
 10
28.51142052563561
 20
-14.01776557612985
 30
0.0
  0
VERTEX
  5
668
  8
LAYER_1
 10
28.49422602758955
 20
-14.04043857667961
 30
0.0
  0
VERTEX
  5
669
  8
LAYER_1
 10
28.47651838542998
 20
-14.06269044218261
 30
0.0
  0
VERTEX
  5
66A
  8
LAYER_1
 10
28.45830833855799
 20
-14.08452322323935
 30
0.0
  0
VERTEX
  5
66B
  8
LAYER_1
 10
28.4396066263747
 20
-14.10593897045033
 30
0.0
  0
VERTEX
  5
66C
  8
LAYER_1
 10
28.42042398828123
 20
-14.12693973441605
 30
0.0
  0
VERTEX
  5
66D
  8
LAYER_1
 10
28.40077116367866
 20
-14.147527565737
 30
0.0
  0
VERTEX
  5
66E
  8
LAYER_1
 10
28.38065889196811
 20
-14.16770451501368
 30
0.0
  0
VERTEX
  5
66F
  8
LAYER_1
 10
28.36009791255071
 20
-14.18747263284658
 30
0.0
  0
VERTEX
  5
670
  8
LAYER_1
 10
28.33909896482754
 20
-14.20683396983621
 30
0.0
  0
VERTEX
  5
671
  8
LAYER_1
 10
28.31767278819972
 20
-14.22579057658306
 30
0.0
  0
VERTEX
  5
672
  8
LAYER_1
 10
28.29583012206836
 20
-14.24434450368762
 30
0.0
  0
VERTEX
  5
673
  8
LAYER_1
 10
28.27358170583456
 20
-14.2624978017504
 30
0.0
  0
VERTEX
  5
674
  8
LAYER_1
 10
28.25093827889944
 20
-14.28025252137188
 30
0.0
  0
VERTEX
  5
675
  8
LAYER_1
 10
28.2279105806641
 20
-14.29761071315258
 30
0.0
  0
VERTEX
  5
676
  8
LAYER_1
 10
28.20450935052965
 20
-14.31457442769297
 30
0.0
  0
VERTEX
  5
677
  8
LAYER_1
 10
28.1807453278972
 20
-14.33114571559357
 30
0.0
  0
VERTEX
  5
678
  8
LAYER_1
 10
28.15662925216786
 20
-14.34732662745486
 30
0.0
  0
VERTEX
  5
679
  8
LAYER_1
 10
28.13217186274273
 20
-14.36311921387735
 30
0.0
  0
VERTEX
  5
67A
  8
LAYER_1
 10
28.10738389902293
 20
-14.37852552546153
 30
0.0
  0
VERTEX
  5
67B
  8
LAYER_1
 10
28.08227610040957
 20
-14.39354761280789
 30
0.0
  0
VERTEX
  5
67C
  8
LAYER_1
 10
28.05685920630374
 20
-14.40818752651694
 30
0.0
  0
VERTEX
  5
67D
  8
LAYER_1
 10
28.03114395610657
 20
-14.42244731718917
 30
0.0
  0
VERTEX
  5
67E
  8
LAYER_1
 10
28.00514108921915
 20
-14.43632903542508
 30
0.0
  0
VERTEX
  5
67F
  8
LAYER_1
 10
27.9788613450426
 20
-14.44983473182516
 30
0.0
  0
VERTEX
  5
680
  8
LAYER_1
 10
27.95231546297803
 20
-14.46296645698992
 30
0.0
  0
VERTEX
  5
681
  8
LAYER_1
 10
27.92551418242654
 20
-14.47572626151984
 30
0.0
  0
VERTEX
  5
682
  8
LAYER_1
 10
27.89846824278924
 20
-14.48811619601543
 30
0.0
  0
VERTEX
  5
683
  8
LAYER_1
 10
27.87118838346724
 20
-14.50013831107717
 30
0.0
  0
VERTEX
  5
684
  8
LAYER_1
 10
27.84368534386165
 20
-14.51179465730558
 30
0.0
  0
VERTEX
  5
685
  8
LAYER_1
 10
27.81596986337358
 20
-14.52308728530114
 30
0.0
  0
VERTEX
  5
686
  8
LAYER_1
 10
27.78805268140414
 20
-14.53401824566436
 30
0.0
  0
VERTEX
  5
687
  8
LAYER_1
 10
27.75994453735442
 20
-14.54458958899572
 30
0.0
  0
VERTEX
  5
688
  8
LAYER_1
 10
27.73165617062555
 20
-14.55480336589573
 30
0.0
  0
VERTEX
  5
689
  8
LAYER_1
 10
27.70319832061864
 20
-14.56466162696488
 30
0.0
  0
VERTEX
  5
68A
  8
LAYER_1
 10
27.67458172673478
 20
-14.57416642280367
 30
0.0
  0
VERTEX
  5
68B
  8
LAYER_1
 10
27.64581712837509
 20
-14.58331980401259
 30
0.0
  0
VERTEX
  5
68C
  8
LAYER_1
 10
27.61691526494067
 20
-14.59212382119215
 30
0.0
  0
VERTEX
  5
68D
  8
LAYER_1
 10
27.58788687583264
 20
-14.60058052494283
 30
0.0
  0
VERTEX
  5
68E
  8
LAYER_1
 10
27.55874270045211
 20
-14.60869196586515
 30
0.0
  0
VERTEX
  5
68F
  8
LAYER_1
 10
27.52949347820018
 20
-14.61646019455958
 30
0.0
  0
VERTEX
  5
690
  8
LAYER_1
 10
27.50014994847795
 20
-14.62388726162664
 30
0.0
  0
VERTEX
  5
691
  8
LAYER_1
 10
27.47072285068655
 20
-14.63097521766681
 30
0.0
  0
VERTEX
  5
692
  8
LAYER_1
 10
27.44122292422706
 20
-14.6377261132806
 30
0.0
  0
VERTEX
  5
693
  8
LAYER_1
 10
27.41166090850063
 20
-14.64414199906849
 30
0.0
  0
VERTEX
  5
694
  8
LAYER_1
 10
27.38204754290832
 20
-14.65022492563099
 30
0.0
  0
VERTEX
  5
695
  8
LAYER_1
 10
27.35239356685128
 20
-14.6559769435686
 30
0.0
  0
VERTEX
  5
696
  8
LAYER_1
 10
27.32270971973059
 20
-14.66140010348181
 30
0.0
  0
VERTEX
  5
697
  8
LAYER_1
 10
27.29300674094737
 20
-14.66649645597111
 30
0.0
  0
VERTEX
  5
698
  8
LAYER_1
 10
27.26329536990273
 20
-14.67126805163701
 30
0.0
  0
VERTEX
  5
699
  8
LAYER_1
 10
27.23358634599778
 20
-14.67571694108
 30
0.0
  0
VERTEX
  5
69A
  8
LAYER_1
 10
27.20389040863362
 20
-14.67984517490057
 30
0.0
  0
VERTEX
  5
69B
  8
LAYER_1
 10
27.17421829721136
 20
-14.68365480369923
 30
0.0
  0
VERTEX
  5
69C
  8
LAYER_1
 10
27.14458075113211
 20
-14.68714787807647
 30
0.0
  0
VERTEX
  5
69D
  8
LAYER_1
 10
27.11498850979699
 20
-14.69032644863279
 30
0.0
  0
VERTEX
  5
69E
  8
LAYER_1
 10
27.08545231260709
 20
-14.69319256596869
 30
0.0
  0
VERTEX
  5
69F
  8
LAYER_1
 10
27.05598289896352
 20
-14.69574828068465
 30
0.0
  0
VERTEX
  5
6A0
  8
LAYER_1
 10
26.99728737991984
 20
-14.69993670465878
 30
0.0
  0
VERTEX
  5
6A1
  8
LAYER_1
 10
26.93898786787481
 20
-14.70290812535916
 30
0.0
  0
VERTEX
  5
6A2
  8
LAYER_1
 10
26.88117027803728
 20
-14.70467894758976
 30
0.0
  0
VERTEX
  5
6A3
  8
LAYER_1
 10
26.82392052561614
 20
-14.70526557615455
 30
0.0
  0
VERTEX
  5
6A4
  8
LAYER_1
 10
11.44892052565073
 20
-14.70526557612323
 30
0.0
  0
VERTEX
  5
6A5
  8
LAYER_1
 10
11.41615681902573
 20
-14.70546723904316
 30
0.0
  0
VERTEX
  5
6A6
  8
LAYER_1
 10
11.38337550395941
 20
-14.70606983329322
 30
0.0
  0
VERTEX
  5
6A7
  8
LAYER_1
 10
11.3505817966612
 20
-14.70706976710866
 30
0.0
  0
VERTEX
  5
6A8
  8
LAYER_1
 10
11.31778091334058
 20
-14.70846344872473
 30
0.0
  0
VERTEX
  5
6A9
  8
LAYER_1
 10
11.284978070207
 20
-14.71024728637666
 30
0.0
  0
VERTEX
  5
6AA
  8
LAYER_1
 10
11.25217848346991
 20
-14.71241768829969
 30
0.0
  0
VERTEX
  5
6AB
  8
LAYER_1
 10
11.21938736933878
 20
-14.71497106272907
 30
0.0
  0
VERTEX
  5
6AC
  8
LAYER_1
 10
11.18660994402306
 20
-14.71790381790003
 30
0.0
  0
VERTEX
  5
6AD
  8
LAYER_1
 10
11.15385142373221
 20
-14.72121236204782
 30
0.0
  0
VERTEX
  5
6AE
  8
LAYER_1
 10
11.12111702467568
 20
-14.72489310340767
 30
0.0
  0
VERTEX
  5
6AF
  8
LAYER_1
 10
11.08841196306293
 20
-14.72894245021482
 30
0.0
  0
VERTEX
  5
6B0
  8
LAYER_1
 10
11.05574145510342
 20
-14.73335681070453
 30
0.0
  0
VERTEX
  5
6B1
  8
LAYER_1
 10
11.02311071700661
 20
-14.73813259311202
 30
0.0
  0
VERTEX
  5
6B2
  8
LAYER_1
 10
10.99052496498195
 20
-14.74326620567254
 30
0.0
  0
VERTEX
  5
6B3
  8
LAYER_1
 10
10.9579894152389
 20
-14.74875405662133
 30
0.0
  0
VERTEX
  5
6B4
  8
LAYER_1
 10
10.92550928398692
 20
-14.75459255419363
 30
0.0
  0
VERTEX
  5
6B5
  8
LAYER_1
 10
10.89308978743546
 20
-14.76077810662467
 30
0.0
  0
VERTEX
  5
6B6
  8
LAYER_1
 10
10.86073614179398
 20
-14.76730712214971
 30
0.0
  0
VERTEX
  5
6B7
  8
LAYER_1
 10
10.82845356327194
 20
-14.77417600900398
 30
0.0
  0
VERTEX
  5
6B8
  8
LAYER_1
 10
10.79624726807879
 20
-14.78138117542272
 30
0.0
  0
VERTEX
  5
6B9
  8
LAYER_1
 10
10.764122472424
 20
-14.78891902964118
 30
0.0
  0
VERTEX
  5
6BA
  8
LAYER_1
 10
10.73208439251701
 20
-14.79678597989458
 30
0.0
  0
VERTEX
  5
6BB
  8
LAYER_1
 10
10.7001382445673
 20
-14.80497843441819
 30
0.0
  0
VERTEX
  5
6BC
  8
LAYER_1
 10
10.6682892447843
 20
-14.81349280144722
 30
0.0
  0
VERTEX
  5
6BD
  8
LAYER_1
 10
10.63654260937749
 20
-14.82232548921693
 30
0.0
  0
VERTEX
  5
6BE
  8
LAYER_1
 10
10.60490355455631
 20
-14.83147290596256
 30
0.0
  0
VERTEX
  5
6BF
  8
LAYER_1
 10
10.57337729653023
 20
-14.84093145991934
 30
0.0
  0
VERTEX
  5
6C0
  8
LAYER_1
 10
10.54196905150869
 20
-14.85069755932252
 30
0.0
  0
VERTEX
  5
6C1
  8
LAYER_1
 10
10.51068403570117
 20
-14.86076761240733
 30
0.0
  0
VERTEX
  5
6C2
  8
LAYER_1
 10
10.47952746531711
 20
-14.87113802740903
 30
0.0
  0
VERTEX
  5
6C3
  8
LAYER_1
 10
10.44850455656597
 20
-14.88180521256284
 30
0.0
  0
VERTEX
  5
6C4
  8
LAYER_1
 10
10.41762052565722
 20
-14.89276557610401
 30
0.0
  0
VERTEX
  5
6C5
  8
LAYER_1
 10
1.573920525657075
 20
-18.08026557610587
 30
0.0
  0
VERTEX
  5
6C6
  8
LAYER_1
 10
1.561450969269552
 20
-18.08492332834242
 30
0.0
  0
VERTEX
  5
6C7
  8
LAYER_1
 10
1.549034486909651
 20
-18.08988623838804
 30
0.0
  0
VERTEX
  5
6C8
  8
LAYER_1
 10
1.524379086666062
 20
-18.10070585426759
 30
0.0
  0
VERTEX
  5
6C9
  8
LAYER_1
 10
1.499991009713004
 20
-18.11268106846686
 30
0.0
  0
VERTEX
  5
6CA
  8
LAYER_1
 10
1.475906940837176
 20
-18.12576852570813
 30
0.0
  0
VERTEX
  5
6CB
  8
LAYER_1
 10
1.452163564825273
 20
-18.13992487071373
 30
0.0
  0
VERTEX
  5
6CC
  8
LAYER_1
 10
1.428797566463991
 20
-18.15510674820596
 30
0.0
  0
VERTEX
  5
6CD
  8
LAYER_1
 10
1.405845630540028
 20
-18.17127080290715
 30
0.0
  0
VERTEX
  5
6CE
  8
LAYER_1
 10
1.38334444184008
 20
-18.18837367953958
 30
0.0
  0
VERTEX
  5
6CF
  8
LAYER_1
 10
1.361330685150844
 20
-18.20637202282559
 30
0.0
  0
VERTEX
  5
6D0
  8
LAYER_1
 10
1.339841045259017
 20
-18.22522247748748
 30
0.0
  0
VERTEX
  5
6D1
  8
LAYER_1
 10
1.318912206951294
 20
-18.24488168824756
 30
0.0
  0
VERTEX
  5
6D2
  8
LAYER_1
 10
1.298580855014373
 20
-18.26530629982815
 30
0.0
  0
VERTEX
  5
6D3
  8
LAYER_1
 10
1.27888367423495
 20
-18.28645295695155
 30
0.0
  0
VERTEX
  5
6D4
  8
LAYER_1
 10
1.259857349399722
 20
-18.30827830434007
 30
0.0
  0
VERTEX
  5
6D5
  8
LAYER_1
 10
1.241538565295385
 20
-18.33073898671604
 30
0.0
  0
VERTEX
  5
6D6
  8
LAYER_1
 10
1.223964006708637
 20
-18.35379164880175
 30
0.0
  0
VERTEX
  5
6D7
  8
LAYER_1
 10
1.207170358426173
 20
-18.37739293531952
 30
0.0
  0
VERTEX
  5
6D8
  8
LAYER_1
 10
1.191194305234691
 20
-18.40149949099165
 30
0.0
  0
VERTEX
  5
6D9
  8
LAYER_1
 10
1.176072531920886
 20
-18.42606796054048
 30
0.0
  0
VERTEX
  5
6DA
  8
LAYER_1
 10
1.161841723271456
 20
-18.45105498868829
 30
0.0
  0
VERTEX
  5
6DB
  8
LAYER_1
 10
1.148538564073097
 20
-18.47641722015741
 30
0.0
  0
VERTEX
  5
6DC
  8
LAYER_1
 10
1.136199739112506
 20
-18.50211129967014
 30
0.0
  0
VERTEX
  5
6DD
  8
LAYER_1
 10
1.12486193317638
 20
-18.5280938719488
 30
0.0
  0
VERTEX
  5
6DE
  8
LAYER_1
 10
1.114561831051414
 20
-18.5543215817157
 30
0.0
  0
VERTEX
  5
6DF
  8
LAYER_1
 10
1.105336117524306
 20
-18.58075107369315
 30
0.0
  0
VERTEX
  5
6E0
  8
LAYER_1
 10
1.097221477381753
 20
-18.60733899260345
 30
0.0
  0
VERTEX
  5
6E1
  8
LAYER_1
 10
1.09025459541045
 20
-18.63404198316893
 30
0.0
  0
VERTEX
  5
6E2
  8
LAYER_1
 10
1.084472156397094
 20
-18.66081669011189
 30
0.0
  0
VERTEX
  5
6E3
  8
LAYER_1
 10
1.08203656699549
 20
-18.67421738870065
 30
0.0
  0
VERTEX
  5
6E4
  8
LAYER_1
 10
1.079910845128383
 20
-18.68761975815465
 30
0.0
  0
VERTEX
  5
6E5
  8
LAYER_1
 10
1.078099576394112
 20
-18.70101837906417
 30
0.0
  0
VERTEX
  5
6E6
  8
LAYER_1
 10
1.076607346391013
 20
-18.71440783201951
 30
0.0
  0
VERTEX
  5
6E7
  8
LAYER_1
 10
1.075438740717423
 20
-18.72778269761095
 30
0.0
  0
VERTEX
  5
6E8
  8
LAYER_1
 10
1.074598344971679
 20
-18.74113755642879
 30
0.0
  0
VERTEX
  5
6E9
  8
LAYER_1
 10
1.07409074475212
 20
-18.7544669890633
 30
0.0
  0
VERTEX
  5
6EA
  8
LAYER_1
 10
1.07392052565708
 20
-18.76776557610479
 30
0.0
  0
VERTEX
  5
6EB
  8
LAYER_1
 10
1.07392052565708
 20
-47.64276557610465
 30
0.0
  0
VERTEX
  5
6EC
  8
LAYER_1
 10
64.57392052565339
 20
-47.64276557610465
 30
0.0
  0
VERTEX
  5
6ED
  8
LAYER_1
 10
68.01142052607398
 20
-28.08026557598313
 30
0.0
  0
VERTEX
  5
6EE
  8
LAYER_1
 10
68.01922168662382
 20
-28.0366128497713
 30
0.0
  0
VERTEX
  5
6EF
  8
LAYER_1
 10
68.02735200252326
 20
-27.99010685398387
 30
0.0
  0
VERTEX
  5
6F0
  8
LAYER_1
 10
68.03131500424738
 20
-27.96591174472078
 30
0.0
  0
VERTEX
  5
6F1
  8
LAYER_1
 10
68.03508958743083
 20
-27.94115675572954
 30
0.0
  0
VERTEX
  5
6F2
  8
LAYER_1
 10
68.03858551628096
 20
-27.91589303289875
 30
0.0
  0
VERTEX
  5
6F3
  8
LAYER_1
 10
68.04171255500508
 20
-27.89017172211699
 30
0.0
  0
VERTEX
  5
6F4
  8
LAYER_1
 10
68.0443804678105
 20
-27.86404396927285
 30
0.0
  0
VERTEX
  5
6F5
  8
LAYER_1
 10
68.04649901890454
 20
-27.8375609202549
 30
0.0
  0
VERTEX
  5
6F6
  8
LAYER_1
 10
68.04797797249451
 20
-27.81077372095174
 30
0.0
  0
VERTEX
  5
6F7
  8
LAYER_1
 10
68.04872709278774
 20
-27.78373351725195
 30
0.0
  0
VERTEX
  5
6F8
  8
LAYER_1
 10
68.04865614399156
 20
-27.75649145504412
 30
0.0
  0
VERTEX
  5
6F9
  8
LAYER_1
 10
68.04767489031326
 20
-27.72909868021684
 30
0.0
  0
VERTEX
  5
6FA
  8
LAYER_1
 10
68.04569309596015
 20
-27.70160633865869
 30
0.0
  0
VERTEX
  5
6FB
  8
LAYER_1
 10
68.04262052513957
 20
-27.67406557625824
 30
0.0
  0
VERTEX
  5
6FC
  8
LAYER_1
 10
68.03963410782745
 20
-27.65517008464056
 30
0.0
  0
VERTEX
  5
6FD
  8
LAYER_1
 10
68.03573367319377
 20
-27.63652667934948
 30
0.0
  0
VERTEX
  5
6FE
  8
LAYER_1
 10
68.03095428534058
 20
-27.61816274363372
 30
0.0
  0
VERTEX
  5
6FF
  8
LAYER_1
 10
68.02533100836988
 20
-27.600105660742
 30
0.0
  0
VERTEX
  5
700
  8
LAYER_1
 10
68.01889890638367
 20
-27.58238281392301
 30
0.0
  0
VERTEX
  5
701
  8
LAYER_1
 10
68.01169304348397
 20
-27.56502158642549
 30
0.0
  0
VERTEX
  5
702
  8
LAYER_1
 10
68.0037484837728
 20
-27.54804936149814
 30
0.0
  0
VERTEX
  5
703
  8
LAYER_1
 10
67.99510029135219
 20
-27.53149352238967
 30
0.0
  0
VERTEX
  5
704
  8
LAYER_1
 10
67.98578353032411
 20
-27.51538145234881
 30
0.0
  0
VERTEX
  5
705
  8
LAYER_1
 10
67.97583326479062
 20
-27.49974053462424
 30
0.0
  0
VERTEX
  5
706
  8
LAYER_1
 10
67.96528455885372
 20
-27.4845981524647
 30
0.0
  0
VERTEX
  5
707
  8
LAYER_1
 10
67.95417247661541
 20
-27.46998168911889
 30
0.0
  0
VERTEX
  5
708
  8
LAYER_1
 10
67.94253208217773
 20
-27.45591852783553
 30
0.0
  0
VERTEX
  5
709
  8
LAYER_1
 10
67.93039843964266
 20
-27.44243605186333
 30
0.0
  0
VERTEX
  5
70A
  8
LAYER_1
 10
67.91780661311225
 20
-27.42956164445099
 30
0.0
  0
VERTEX
  5
70B
  8
LAYER_1
 10
67.9047916666885
 20
-27.41732268884724
 30
0.0
  0
VERTEX
  5
70C
  8
LAYER_1
 10
67.89138866447341
 20
-27.40574656830078
 30
0.0
  0
VERTEX
  5
70D
  8
LAYER_1
 10
67.87763267056901
 20
-27.39486066606033
 30
0.0
  0
VERTEX
  5
70E
  8
LAYER_1
 10
67.86355874907733
 20
-27.3846923653746
 30
0.0
  0
VERTEX
  5
70F
  8
LAYER_1
 10
67.84920196410035
 20
-27.3752690494923
 30
0.0
  0
VERTEX
  5
710
  8
LAYER_1
 10
67.8345973797401
 20
-27.36661810166216
 30
0.0
  0
VERTEX
  5
711
  8
LAYER_1
 10
67.8197800600986
 20
-27.35876690513286
 30
0.0
  0
VERTEX
  5
712
  8
LAYER_1
 10
67.80478506927786
 20
-27.35174284315314
 30
0.0
  0
VERTEX
  5
713
  8
LAYER_1
 10
67.78964747137988
 20
-27.3455732989717
 30
0.0
  0
VERTEX
  5
714
  8
LAYER_1
 10
67.77440233050669
 20
-27.34028565583726
 30
0.0
  0
VERTEX
  5
715
  8
LAYER_1
 10
67.7590847107603
 20
-27.33590729699852
 30
0.0
  0
VERTEX
  5
716
  8
LAYER_1
 10
67.74372967624274
 20
-27.3324656057042
 30
0.0
  0
VERTEX
  5
717
  8
LAYER_1
 10
67.72837229105602
 20
-27.32998796520302
 30
0.0
  0
VERTEX
  5
718
  8
LAYER_1
 10
67.71304761930215
 20
-27.32850175874368
 30
0.0
  0
VERTEX
  5
719
  8
LAYER_1
 10
67.69779072508312
 20
-27.32803436957489
 30
0.0
  0
VERTEX
  5
71A
  8
LAYER_1
 10
67.68263667250098
 20
-27.32861318094537
 30
0.0
  0
SEQEND
  5
AA4
  8
LAYER_1
  0
POLYLINE
  5
AE
  8
LAYER_1
 66
     1
 10
0.0
 20
0.0
 30
0.0
 70
     1
  0
VERTEX
  5
71B
  8
LAYER_1
 10
32.16762052565708
 20
-40.58026557610465
 30
0.0
 42
0.4142135623730951
  0
VERTEX
  5
71C
  8
LAYER_1
 10
31.98012052565708
 20
-40.39276557610465
 30
0.0
 42
0.4142135623730951
  0
VERTEX
  5
71D
  8
LAYER_1
 10
31.79262052565708
 20
-40.58026557610465
 30
0.0
  0
VERTEX
  5
71E
  8
LAYER_1
 10
31.79262052565708
 20
-43.70526557610465
 30
0.0
 42
0.4142135623730951
  0
VERTEX
  5
71F
  8
LAYER_1
 10
31.98012052565708
 20
-43.89276557610465
 30
0.0
 42
0.4142135623730951
  0
VERTEX
  5
720
  8
LAYER_1
 10
32.16762052565708
 20
-43.70526557610465
 30
0.0
  0
SEQEND
  5
AA5
  8
LAYER_1
  0
POLYLINE
  5
AF
  8
LAYER_1
 66
     1
 10
0.0
 20
0.0
 30
0.0
 70
     1
  0
VERTEX
  5
721
  8
LAYER_1
 10
44.23012052565708
 20
-31.08026557610465
 30
0.0
 42
-0.4142135623730951
  0
VERTEX
  5
722
  8
LAYER_1
 10
44.04262052565708
 20
-31.26776557610465
 30
0.0
 42
-0.4142135623730951
  0
VERTEX
  5
723
  8
LAYER_1
 10
43.85512052565708
 20
-31.08026557610465
 30
0.0
  0
VERTEX
  5
724
  8
LAYER_1
 10
43.85512052565708
 20
-29.95526557610465
 30
0.0
 42
-0.4142135623730951
  0
VERTEX
  5
725
  8
LAYER_1
 10
44.04262052565708
 20
-29.76776557610465
 30
0.0
 42
-0.4142135623730951
  0
VERTEX
  5
726
  8
LAYER_1
 10
44.23012052565708
 20
-29.95526557610465
 30
0.0
  0
SEQEND
  5
AA6
  8
LAYER_1
  0
POLYLINE
  5
B0
  8
LAYER_1
 66
     1
 10
0.0
 20
0.0
 30
0.0
 70
     1
  0
VERTEX
  5
727
  8
LAYER_1
 10
61.16762052565708
 20
-32.64276557610465
 30
0.0
 42
-0.4142135623730951
  0
VERTEX
  5
728
  8
LAYER_1
 10
60.98012052565708
 20
-32.83026557610465
 30
0.0
 42
-0.4142135623730951
  0
VERTEX
  5
729
  8
LAYER_1
 10
60.79262052565708
 20
-32.64276557610465
 30
0.0
  0
VERTEX
  5
72A
  8
LAYER_1
 10
60.79262052565708
 20
-29.54906557610465
 30
0.0
 42
-0.4142135623730951
  0
VERTEX
  5
72B
  8
LAYER_1
 10
60.98012052565708
 20
-29.36156557610465
 30
0.0
 42
-0.4142135623730951
  0
VERTEX
  5
72C
  8
LAYER_1
 10
61.16762052565708
 20
-29.54906557610465
 30
0.0
  0
SEQEND
  5
AA7
  8
LAYER_1
  0
POLYLINE
  5
B1
  8
LAYER_1
 66
     1
 10
0.0
 20
0.0
 30
0.0
 70
     1
  0
VERTEX
  5
72D
  8
LAYER_1
 10
33.51142052565708
 20
-16.95526557610465
 30
0.0
  0
VERTEX
  5
72E
  8
LAYER_1
 10
35.63642052565708
 20
-16.95526557610465
 30
0.0
  0
VERTEX
  5
72F
  8
LAYER_1
 10
35.63642052565708
 20
-15.33026557610465
 30
0.0
  0
VERTEX
  5
730
  8
LAYER_1
 10
33.51142052565708
 20
-15.33026557610465
 30
0.0
  0
SEQEND
  5
AA8
  8
LAYER_1
  0
POLYLINE
  5
B2
  8
LAYER_1
 66
     1
 10
0.0
 20
0.0
 30
0.0
 70
     1
  0
VERTEX
  5
731
  8
LAYER_1
 10
63.77790272584482
 20
-47.2615853697699
 30
0.0
  0
VERTEX
  5
732
  8
LAYER_1
 10
67.0107541269337
 20
-28.25157175499463
 30
0.0
  0
VERTEX
  5
733
  8
LAYER_1
 10
67.01142052565709
 20
-28.23656557610465
 30
0.0
 42
0.4142135623730951
  0
VERTEX
  5
734
  8
LAYER_1
 10
66.82392052565709
 20
-28.04906557610465
 30
0.0
 42
0.3380420676624187
  0
VERTEX
  5
735
  8
LAYER_1
 10
66.6430576657983
 20
-28.18711988950103
 30
0.0
  0
VERTEX
  5
736
  8
LAYER_1
 10
66.64045664348006
 20
-28.19630383003954
 30
0.0
  0
VERTEX
  5
737
  8
LAYER_1
 10
63.46139986760917
 20
-46.89044544267801
 30
0.0
  0
VERTEX
  5
738
  8
LAYER_1
 10
63.45898112312534
 20
-46.89276557610465
 30
0.0
  0
VERTEX
  5
739
  8
LAYER_1
 10
59.66762052565708
 20
-46.89276557610465
 30
0.0
 42
0.4142135623730951
  0
VERTEX
  5
73A
  8
LAYER_1
 10
59.48012052565708
 20
-47.08026557610465
 30
0.0
 42
0.4142135623730951
  0
VERTEX
  5
73B
  8
LAYER_1
 10
59.66762052565708
 20
-47.26776557610465
 30
0.0
  0
VERTEX
  5
73C
  8
LAYER_1
 10
63.77711337405736
 20
-47.26776557610465
 30
0.0
  0
SEQEND
  5
AA9
  8
LAYER_1
  0
POLYLINE
  5
B3
  8
LAYER_1
 66
     1
 10
0.0
 20
0.0
 30
0.0
 70
     1
  0
VERTEX
  5
73D
  8
LAYER_1
 10
2.79262052565708
 20
-44.51776557610465
 30
0.0
 42
-0.4142135623730951
  0
VERTEX
  5
73E
  8
LAYER_1
 10
2.60512052565708
 20
-44.70526557610465
 30
0.0
 42
-0.4142135623730951
  0
VERTEX
  5
73F
  8
LAYER_1
 10
2.41762052565708
 20
-44.51776557610465
 30
0.0
  0
VERTEX
  5
740
  8
LAYER_1
 10
2.41762052565708
 20
-41.63026557610465
 30
0.0
 42
-0.4142135623730951
  0
VERTEX
  5
741
  8
LAYER_1
 10
2.60512052565708
 20
-41.45526557610465
 30
0.0
 42
-0.4142135623730951
  0
VERTEX
  5
742
  8
LAYER_1
 10
2.79262052565708
 20
-41.64276557610465
 30
0.0
  0
SEQEND
  5
AAA
  8
LAYER_1
  0
POLYLINE
  5
B4
  8
LAYER_1
 66
     1
 10
0.0
 20
0.0
 30
0.0
 70
     1
  0
VERTEX
  5
743
  8
LAYER_1
 10
2.79262052565708
 20
-27.39276557610465
 30
0.0
 42
-0.4142135623730951
  0
VERTEX
  5
744
  8
LAYER_1
 10
2.60512052565708
 20
-27.58026557610465
 30
0.0
 42
-0.4142135623730951
  0
VERTEX
  5
745
  8
LAYER_1
 10
2.41762052565708
 20
-27.39276557610465
 30
0.0
  0
VERTEX
  5
746
  8
LAYER_1
 10
2.41762052565708
 20
-24.45526557610465
 30
0.0
 42
-0.4142135623730951
  0
VERTEX
  5
747
  8
LAYER_1
 10
2.60512052565708
 20
-24.26776557610465
 30
0.0
 42
-0.4142135623730951
  0
VERTEX
  5
748
  8
LAYER_1
 10
2.79262052565708
 20
-24.45526557610465
 30
0.0
  0
SEQEND
  5
AAB
  8
LAYER_1
  0
POLYLINE
  5
B5
  8
LAYER_1
 66
     1
 10
0.0
 20
0.0
 30
0.0
 70
     1
  0
VERTEX
  5
749
  8
LAYER_1
 10
30.10512052565708
 20
-21.83026557610465
 30
0.0
 42
0.4142135623730951
  0
VERTEX
  5
74A
  8
LAYER_1
 10
29.91762052565708
 20
-22.01776557610465
 30
0.0
 42
0.4142135623730951
  0
VERTEX
  5
74B
  8
LAYER_1
 10
30.10512052565708
 20
-22.20526557610465
 30
0.0
 42
0.4142135623730951
  0
VERTEX
  5
74C
  8
LAYER_1
 10
30.29262052565708
 20
-22.01776557610465
 30
0.0
 42
0.4142135623730951
  0
SEQEND
  5
AAC
  8
LAYER_1
  0
POLYLINE
  5
B6
  8
LAYER_1
 66
     1
 10
0.0
 20
0.0
 30
0.0
 70
     1
  0
VERTEX
  5
74D
  8
LAYER_1
 10
30.10512052565708
 20
-33.83026557610465
 30
0.0
 42
0.4142135623730951
  0
VERTEX
  5
74E
  8
LAYER_1
 10
29.91762052565708
 20
-34.01776557610465
 30
0.0
 42
0.4142135623730951
  0
VERTEX
  5
74F
  8
LAYER_1
 10
30.10512052565708
 20
-34.20526557610465
 30
0.0
 42
0.4142135623730951
  0
VERTEX
  5
750
  8
LAYER_1
 10
30.29262052565708
 20
-34.01776557610465
 30
0.0
 42
0.4142135623730951
  0
SEQEND
  5
AAD
  8
LAYER_1
  0
POLYLINE
  5
B7
  8
LAYER_1
 66
     1
 10
0.0
 20
0.0
 30
0.0
 70
     1
  0
VERTEX
  5
751
  8
LAYER_1
 10
56.63642052565708
 20
-34.51776557610465
 30
0.0
 42
0.4142135623730951
  0
VERTEX
  5
752
  8
LAYER_1
 10
56.44892052565708
 20
-34.70526557610465
 30
0.0
 42
0.4142135623730951
  0
VERTEX
  5
753
  8
LAYER_1
 10
56.63642052565708
 20
-34.89276557610465
 30
0.0
 42
0.4142135623730951
  0
VERTEX
  5
754
  8
LAYER_1
 10
56.82392052565708
 20
-34.70526557610465
 30
0.0
 42
0.4142135623730951
  0
SEQEND
  5
AAE
  8
LAYER_1
  0
POLYLINE
  5
B8
  8
LAYER_1
 66
     1
 10
0.0
 20
0.0
 30
0.0
 70
     1
  0
VERTEX
  5
755
  8
LAYER_1
 10
47.63642052565708
 20
-34.45526557610465
 30
0.0
 42
0.4142135623730951
  0
VERTEX
  5
756
  8
LAYER_1
 10
47.44892052565708
 20
-34.64276557610465
 30
0.0
 42
0.4142135623730951
  0
VERTEX
  5
757
  8
LAYER_1
 10
47.63642052565708
 20
-34.83026557610465
 30
0.0
 42
0.4142135623730951
  0
VERTEX
  5
758
  8
LAYER_1
 10
47.82392052565708
 20
-34.64276557610465
 30
0.0
 42
0.4142135623730951
  0
SEQEND
  5
AAF
  8
LAYER_1
  0
POLYLINE
  5
B9
  8
LAYER_1
 66
     1
 10
0.0
 20
0.0
 30
0.0
 70
     1
  0
VERTEX
  5
759
  8
LAYER_1
 10
34.60512052565708
 20
-40.76776557610465
 30
0.0
 42
0.4142135623730951
  0
VERTEX
  5
75A
  8
LAYER_1
 10
34.41762052565708
 20
-40.95526557610465
 30
0.0
 42
0.4142135623730951
  0
VERTEX
  5
75B
  8
LAYER_1
 10
34.60512052565708
 20
-41.14276557610465
 30
0.0
  0
VERTEX
  5
75C
  8
LAYER_1
 10
38.79262052565708
 20
-41.14276557610465
 30
0.0
 42
0.4142135623730951
  0
VERTEX
  5
75D
  8
LAYER_1
 10
38.98012052565708
 20
-40.95526557610465
 30
0.0
 42
0.4142135623730951
  0
VERTEX
  5
75E
  8
LAYER_1
 10
38.79262052565708
 20
-40.76776557610465
 30
0.0
  0
SEQEND
  5
AB0
  8
LAYER_1
  0
POLYLINE
  5
BA
  8
LAYER_1
 66
     1
 10
0.0
 20
0.0
 30
0.0
 70
     1
  0
VERTEX
  5
75F
  8
LAYER_1
 10
34.94892052565708
 20
-15.76776557610465
 30
0.0
 42
0.4142135623730951
  0
VERTEX
  5
760
  8
LAYER_1
 10
34.57392052565708
 20
-16.14276557610465
 30
0.0
 42
0.4142135623730951
  0
VERTEX
  5
761
  8
LAYER_1
 10
34.94892052565708
 20
-16.51776557610465
 30
0.0
 42
0.4142135623730951
  0
VERTEX
  5
762
  8
LAYER_1
 10
35.32392052565708
 20
-16.14276557610465
 30
0.0
 42
0.4142135623730951
  0
SEQEND
  5
AB1
  8
LAYER_1
  0
POLYLINE
  5
BB
  8
LAYER_1
 66
     1
 10
0.0
 20
0.0
 30
0.0
 70
     1
  0
VERTEX
  5
763
  8
LAYER_1
 10
34.38642052565708
 20
-13.86151557610465
 30
0.0
 42
0.4142135623730951
  0
VERTEX
  5
764
  8
LAYER_1
 10
34.04267052565708
 20
-14.20526557610465
 30
0.0
 42
0.4142135623730951
  0
VERTEX
  5
765
  8
LAYER_1
 10
34.38642052565708
 20
-14.54901557610465
 30
0.0
 42
0.4142135623730951
  0
VERTEX
  5
766
  8
LAYER_1
 10
34.73017052565708
 20
-14.20526557610465
 30
0.0
 42
0.4142135623730951
  0
SEQEND
  5
AB2
  8
LAYER_1
  0
POLYLINE
  5
BC
  8
LAYER_1
 66
     1
 10
0.0
 20
0.0
 30
0.0
 70
     1
  0
VERTEX
  5
767
  8
LAYER_1
 10
1.448870008488994
 20
-18.96308122963555
 30
0.0
  0
VERTEX
  5
768
  8
LAYER_1
 10
1.44892052565708
 20
-47.26749947165859
 30
0.0
  0
VERTEX
  5
769
  8
LAYER_1
 10
1.486420525657079
 20
-47.26776557610465
 30
0.0
  0
VERTEX
  5
76A
  8
LAYER_1
 10
14.38642052565708
 20
-47.26776557610465
 30
0.0
 42
0.4142135623730951
  0
VERTEX
  5
76B
  8
LAYER_1
 10
14.57392052565708
 20
-47.08026557610465
 30
0.0
 42
0.4142135623730951
  0
VERTEX
  5
76C
  8
LAYER_1
 10
14.38642052565708
 20
-46.89276557610465
 30
0.0
  0
VERTEX
  5
76D
  8
LAYER_1
 10
1.823935130341228
 20
-46.89277183870644
 30
0.0
  0
VERTEX
  5
76E
  8
LAYER_1
 10
1.82525481501377
 20
-19.2188852353882
 30
0.0
  0
VERTEX
  5
76F
  8
LAYER_1
 10
1.82520722930748
 20
-18.99339995267967
 30
0.0
  0
VERTEX
  5
770
  8
LAYER_1
 10
10.88542141650687
 20
-15.83028685430415
 30
0.0
  0
VERTEX
  5
771
  8
LAYER_1
 10
10.88591368656322
 20
-15.83026557610465
 30
0.0
  0
VERTEX
  5
772
  8
LAYER_1
 10
11.26137112854656
 20
-15.83026557610465
 30
0.0
  0
VERTEX
  5
773
  8
LAYER_1
 10
12.32329050320081
 20
-15.83026557610465
 30
0.0
  0
VERTEX
  5
774
  8
LAYER_1
 10
12.32387112854656
 20
-15.83393998041873
 30
0.0
  0
VERTEX
  5
775
  8
LAYER_1
 10
12.32387112854656
 20
-25.13656557610465
 30
0.0
  0
VERTEX
  5
776
  8
LAYER_1
 10
12.32387112854656
 20
-25.23656557610465
 30
0.0
 42
0.4142135623730951
  0
VERTEX
  5
777
  8
LAYER_1
 10
12.51137112854656
 20
-25.42406557610465
 30
0.0
 42
0.4142135623730951
  0
VERTEX
  5
778
  8
LAYER_1
 10
12.69887112854656
 20
-25.23656557610465
 30
0.0
  0
VERTEX
  5
779
  8
LAYER_1
 10
12.69887112854656
 20
-15.83258472770311
 30
0.0
  0
VERTEX
  5
77A
  8
LAYER_1
 10
12.70140601085513
 20
-15.83026557610465
 30
0.0
  0
VERTEX
  5
77B
  8
LAYER_1
 10
32.25593594451565
 20
-15.83026557610465
 30
0.0
  0
VERTEX
  5
77C
  8
LAYER_1
 10
32.26201183825791
 20
-15.88958501037835
 30
0.0
 42
0.4142135623730951
  0
VERTEX
  5
77D
  8
LAYER_1
 10
32.44951183825791
 20
-16.07708501037835
 30
0.0
 42
0.4142135623730951
  0
VERTEX
  5
77E
  8
LAYER_1
 10
32.63669148340223
 20
-15.8974252932415
 30
0.0
  0
VERTEX
  5
77F
  8
LAYER_1
 10
32.63637112854656
 20
-12.20526557610465
 30
0.0
 42
0.4142135623730951
  0
VERTEX
  5
780
  8
LAYER_1
 10
32.44887112854656
 20
-12.01776557610465
 30
0.0
 42
0.4142135623730951
  0
VERTEX
  5
781
  8
LAYER_1
 10
32.26137112854656
 20
-12.20526557610465
 30
0.0
  0
VERTEX
  5
782
  8
LAYER_1
 10
32.26137112854656
 20
-15.45708012751741
 30
0.0
  0
VERTEX
  5
783
  8
LAYER_1
 10
32.25562423639106
 20
-15.45526557610465
 30
0.0
  0
VERTEX
  5
784
  8
LAYER_1
 10
11.26137112854656
 20
-15.45526557610465
 30
0.0
  0
VERTEX
  5
785
  8
LAYER_1
 10
10.80621779833766
 20
-15.45526557610465
 30
0.0
  0
VERTEX
  5
786
  8
LAYER_1
 10
10.80610010834312
 20
-15.45524084660602
 30
0.0
  0
VERTEX
  5
787
  8
LAYER_1
 10
1.44882052565708
 20
-18.72755212994979
 30
0.0
  0
SEQEND
  5
AB3
  8
LAYER_1
  0
POLYLINE
  5
BD
  8
LAYER_1
 66
     1
 10
0.0
 20
0.0
 30
0.0
 70
     1
  0
VERTEX
  5
788
  8
LAYER_1
 10
73.69262680025074
 20
0.9524733876017493
 30
0.0
  0
VERTEX
  5
789
  8
LAYER_1
 10
95.00512680025074
 20
0.9524733876017493
 30
0.0
  0
VERTEX
  5
78A
  8
LAYER_1
 10
95.00512680025074
 20
47.01497338760175
 30
0.0
  0
VERTEX
  5
78B
  8
LAYER_1
 10
73.69262680025074
 20
47.01497338760175
 30
0.0
  0
SEQEND
  5
AB4
  8
LAYER_1
  0
POLYLINE
  5
BE
  8
LAYER_1
 66
     1
 10
0.0
 20
0.0
 30
0.0
 70
     1
  0
VERTEX
  5
78C
  8
LAYER_1
 10
75.69262680025074
 20
15.51497338760175
 30
0.0
 42
0.4142135623730951
  0
VERTEX
  5
78D
  8
LAYER_1
 10
75.13012680025074
 20
14.95247338760175
 30
0.0
 42
0.4142135623730951
  0
VERTEX
  5
78E
  8
LAYER_1
 10
75.69262680025074
 20
14.38997338760175
 30
0.0
 42
0.4142135623730951
  0
VERTEX
  5
78F
  8
LAYER_1
 10
76.25512680025074
 20
14.95247338760175
 30
0.0
 42
0.4142135623730951
  0
SEQEND
  5
AB5
  8
LAYER_1
  0
POLYLINE
  5
BF
  8
LAYER_1
 66
     1
 10
0.0
 20
0.0
 30
0.0
 70
     1
  0
VERTEX
  5
790
  8
LAYER_1
 10
75.69262680025074
 20
15.32747338760175
 30
0.0
 42
0.4142135623730951
  0
VERTEX
  5
791
  8
LAYER_1
 10
75.31762680025074
 20
14.95247338760175
 30
0.0
 42
0.4142135623730951
  0
VERTEX
  5
792
  8
LAYER_1
 10
75.69262680025074
 20
14.57747338760175
 30
0.0
 42
0.4142135623730951
  0
VERTEX
  5
793
  8
LAYER_1
 10
76.06762680025074
 20
14.95247338760175
 30
0.0
 42
0.4142135623730951
  0
SEQEND
  5
AB6
  8
LAYER_1
  0
POLYLINE
  5
C0
  8
LAYER_1
 66
     1
 10
0.0
 20
0.0
 30
0.0
 70
     1
  0
VERTEX
  5
794
  8
LAYER_1
 10
75.69262680025074
 20
33.32747338760175
 30
0.0
 42
0.4142135623730951
  0
VERTEX
  5
795
  8
LAYER_1
 10
75.31762680025074
 20
32.95247338760175
 30
0.0
 42
0.4142135623730951
  0
VERTEX
  5
796
  8
LAYER_1
 10
75.69262680025074
 20
32.57747338760175
 30
0.0
 42
0.4142135623730951
  0
VERTEX
  5
797
  8
LAYER_1
 10
76.06762680025074
 20
32.95247338760175
 30
0.0
 42
0.4142135623730951
  0
SEQEND
  5
AB7
  8
LAYER_1
  0
POLYLINE
  5
C1
  8
LAYER_1
 66
     1
 10
0.0
 20
0.0
 30
0.0
 70
     1
  0
VERTEX
  5
798
  8
LAYER_1
 10
75.69262680025074
 20
33.51497338760175
 30
0.0
 42
0.4142135623730951
  0
VERTEX
  5
799
  8
LAYER_1
 10
75.13012680025074
 20
32.95247338760175
 30
0.0
 42
0.4142135623730951
  0
VERTEX
  5
79A
  8
LAYER_1
 10
75.69262680025074
 20
32.38997338760175
 30
0.0
 42
0.4142135623730951
  0
VERTEX
  5
79B
  8
LAYER_1
 10
76.25512680025074
 20
32.95247338760175
 30
0.0
 42
0.4142135623730951
  0
SEQEND
  5
AB8
  8
LAYER_1
  0
POLYLINE
  5
C2
  8
LAYER_1
 66
     1
 10
0.0
 20
0.0
 30
0.0
 70
     1
  0
VERTEX
  5
79C
  8
LAYER_1
 10
77.38012680025074
 20
2.452473387601749
 30
0.0
 42
0.4142135623730951
  0
VERTEX
  5
79D
  8
LAYER_1
 10
77.63012680025074
 20
2.202473387601749
 30
0.0
  0
VERTEX
  5
79E
  8
LAYER_1
 10
81.13012680025074
 20
2.202473387601749
 30
0.0
 42
0.4142135623730951
  0
VERTEX
  5
79F
  8
LAYER_1
 10
81.38012680025074
 20
2.452473387601749
 30
0.0
 42
0.4142135623730951
  0
VERTEX
  5
7A0
  8
LAYER_1
 10
81.13012680025074
 20
2.702473387601749
 30
0.0
  0
VERTEX
  5
7A1
  8
LAYER_1
 10
77.63012680025074
 20
2.702473387601749
 30
0.0
 42
0.4142135623730951
  0
SEQEND
  5
AB9
  8
LAYER_1
  0
POLYLINE
  5
C3
  8
LAYER_1
 66
     1
 10
0.0
 20
0.0
 30
0.0
 70
     1
  0
VERTEX
  5
7A2
  8
LAYER_1
 10
77.38012680025074
 20
3.452473387601749
 30
0.0
 42
0.4142135623730951
  0
VERTEX
  5
7A3
  8
LAYER_1
 10
77.63012680025074
 20
3.202473387601749
 30
0.0
  0
VERTEX
  5
7A4
  8
LAYER_1
 10
81.13012680025074
 20
3.202473387601749
 30
0.0
 42
0.4142135623730951
  0
VERTEX
  5
7A5
  8
LAYER_1
 10
81.38012680025074
 20
3.452473387601749
 30
0.0
 42
0.4142135623730951
  0
VERTEX
  5
7A6
  8
LAYER_1
 10
81.13012680025074
 20
3.702473387601749
 30
0.0
  0
VERTEX
  5
7A7
  8
LAYER_1
 10
77.63012680025074
 20
3.702473387601749
 30
0.0
 42
0.4142135623730951
  0
SEQEND
  5
ABA
  8
LAYER_1
  0
POLYLINE
  5
C4
  8
LAYER_1
 66
     1
 10
0.0
 20
0.0
 30
0.0
 70
     1
  0
VERTEX
  5
7A8
  8
LAYER_1
 10
87.38012680025074
 20
2.452473387601749
 30
0.0
 42
0.4142135623730951
  0
VERTEX
  5
7A9
  8
LAYER_1
 10
87.63012680025074
 20
2.202473387601749
 30
0.0
  0
VERTEX
  5
7AA
  8
LAYER_1
 10
91.13012680025074
 20
2.202473387601749
 30
0.0
 42
0.4142135623730951
  0
VERTEX
  5
7AB
  8
LAYER_1
 10
91.38012680025074
 20
2.452473387601749
 30
0.0
 42
0.4142135623730951
  0
VERTEX
  5
7AC
  8
LAYER_1
 10
91.13012680025074
 20
2.702473387601749
 30
0.0
  0
VERTEX
  5
7AD
  8
LAYER_1
 10
87.63012680025074
 20
2.702473387601749
 30
0.0
 42
0.4142135623730951
  0
SEQEND
  5
ABB
  8
LAYER_1
  0
POLYLINE
  5
C5
  8
LAYER_1
 66
     1
 10
0.0
 20
0.0
 30
0.0
 70
     1
  0
VERTEX
  5
7AE
  8
LAYER_1
 10
87.38012680025074
 20
3.452473387601749
 30
0.0
 42
0.4142135623730951
  0
VERTEX
  5
7AF
  8
LAYER_1
 10
87.63012680025074
 20
3.202473387601749
 30
0.0
  0
VERTEX
  5
7B0
  8
LAYER_1
 10
91.13012680025074
 20
3.202473387601749
 30
0.0
 42
0.4142135623730951
  0
VERTEX
  5
7B1
  8
LAYER_1
 10
91.38012680025074
 20
3.452473387601749
 30
0.0
 42
0.4142135623730951
  0
VERTEX
  5
7B2
  8
LAYER_1
 10
91.13012680025074
 20
3.702473387601749
 30
0.0
  0
VERTEX
  5
7B3
  8
LAYER_1
 10
87.63012680025074
 20
3.702473387601749
 30
0.0
 42
0.4142135623730951
  0
SEQEND
  5
ABC
  8
LAYER_1
  0
POLYLINE
  5
C6
  8
LAYER_1
 66
     1
 10
0.0
 20
0.0
 30
0.0
 70
     1
  0
VERTEX
  5
7B4
  8
LAYER_1
 10
77.38012680025074
 20
43.45247338760175
 30
0.0
 42
0.4142135623730951
  0
VERTEX
  5
7B5
  8
LAYER_1
 10
77.63012680025074
 20
43.20247338760175
 30
0.0
  0
VERTEX
  5
7B6
  8
LAYER_1
 10
81.13012680025074
 20
43.20247338760175
 30
0.0
 42
0.4142135623730951
  0
VERTEX
  5
7B7
  8
LAYER_1
 10
81.38012680025074
 20
43.45247338760175
 30
0.0
 42
0.4142135623730951
  0
VERTEX
  5
7B8
  8
LAYER_1
 10
81.13012680025074
 20
43.70247338760175
 30
0.0
  0
VERTEX
  5
7B9
  8
LAYER_1
 10
77.63012680025074
 20
43.70247338760175
 30
0.0
 42
0.4142135623730951
  0
SEQEND
  5
ABD
  8
LAYER_1
  0
POLYLINE
  5
C7
  8
LAYER_1
 66
     1
 10
0.0
 20
0.0
 30
0.0
 70
     1
  0
VERTEX
  5
7BA
  8
LAYER_1
 10
77.38012680025074
 20
44.45247338760175
 30
0.0
 42
0.4142135623730951
  0
VERTEX
  5
7BB
  8
LAYER_1
 10
77.63012680025074
 20
44.20247338760175
 30
0.0
  0
VERTEX
  5
7BC
  8
LAYER_1
 10
81.13012680025074
 20
44.20247338760175
 30
0.0
 42
0.4142135623730951
  0
VERTEX
  5
7BD
  8
LAYER_1
 10
81.38012680025074
 20
44.45247338760175
 30
0.0
 42
0.4142135623730951
  0
VERTEX
  5
7BE
  8
LAYER_1
 10
81.13012680025074
 20
44.70247338760175
 30
0.0
  0
VERTEX
  5
7BF
  8
LAYER_1
 10
77.63012680025074
 20
44.70247338760175
 30
0.0
 42
0.4142135623730951
  0
SEQEND
  5
ABE
  8
LAYER_1
  0
POLYLINE
  5
C8
  8
LAYER_1
 66
     1
 10
0.0
 20
0.0
 30
0.0
 70
     1
  0
VERTEX
  5
7C0
  8
LAYER_1
 10
87.38012680025074
 20
43.45247338760175
 30
0.0
 42
0.4142135623730951
  0
VERTEX
  5
7C1
  8
LAYER_1
 10
87.63012680025074
 20
43.20247338760175
 30
0.0
  0
VERTEX
  5
7C2
  8
LAYER_1
 10
91.13012680025074
 20
43.20247338760175
 30
0.0
 42
0.4142135623730951
  0
VERTEX
  5
7C3
  8
LAYER_1
 10
91.38012680025074
 20
43.45247338760175
 30
0.0
 42
0.4142135623730951
  0
VERTEX
  5
7C4
  8
LAYER_1
 10
91.13012680025074
 20
43.70247338760175
 30
0.0
  0
VERTEX
  5
7C5
  8
LAYER_1
 10
87.63012680025074
 20
43.70247338760175
 30
0.0
 42
0.4142135623730951
  0
SEQEND
  5
ABF
  8
LAYER_1
  0
POLYLINE
  5
C9
  8
LAYER_1
 66
     1
 10
0.0
 20
0.0
 30
0.0
 70
     1
  0
VERTEX
  5
7C6
  8
LAYER_1
 10
87.38012680025074
 20
44.45247338760175
 30
0.0
 42
0.4142135623730951
  0
VERTEX
  5
7C7
  8
LAYER_1
 10
87.63012680025074
 20
44.20247338760175
 30
0.0
  0
VERTEX
  5
7C8
  8
LAYER_1
 10
91.13012680025074
 20
44.20247338760175
 30
0.0
 42
0.4142135623730951
  0
VERTEX
  5
7C9
  8
LAYER_1
 10
91.38012680025074
 20
44.45247338760175
 30
0.0
 42
0.4142135623730951
  0
VERTEX
  5
7CA
  8
LAYER_1
 10
91.13012680025074
 20
44.70247338760175
 30
0.0
  0
VERTEX
  5
7CB
  8
LAYER_1
 10
87.63012680025074
 20
44.70247338760175
 30
0.0
 42
0.4142135623730951
  0
SEQEND
  5
AC0
  8
LAYER_1
  0
POLYLINE
  5
CA
  8
LAYER_1
 66
     1
 10
0.0
 20
0.0
 30
0.0
 70
     1
  0
VERTEX
  5
7CC
  8
LAYER_1
 10
72.69208142362677
 20
1.127253372891392
 30
0.0
  0
VERTEX
  5
7CD
  8
LAYER_1
 10
72.69208142362677
 20
22.8772533728914
 30
0.0
  0
VERTEX
  5
7CE
  8
LAYER_1
 10
68.94208142362677
 20
22.8772533728914
 30
0.0
  0
VERTEX
  5
7CF
  8
LAYER_1
 10
68.94208142362677
 20
1.127253372891392
 30
0.0
  0
SEQEND
  5
AC1
  8
LAYER_1
  0
POLYLINE
  5
CB
  8
LAYER_1
 66
     1
 10
0.0
 20
0.0
 30
0.0
 70
     1
  0
VERTEX
  5
7D0
  8
LAYER_1
 10
72.81708142362677
 20
1.002253372891392
 30
0.0
  0
VERTEX
  5
7D1
  8
LAYER_1
 10
72.81708142362677
 20
1.377253372891392
 30
0.0
  0
VERTEX
  5
7D2
  8
LAYER_1
 10
68.81708142362677
 20
1.377253372891392
 30
0.0
  0
VERTEX
  5
7D3
  8
LAYER_1
 10
68.81708142362677
 20
1.002253372891392
 30
0.0
  0
SEQEND
  5
AC2
  8
LAYER_1
  0
POLYLINE
  5
CC
  8
LAYER_1
 66
     1
 10
0.0
 20
0.0
 30
0.0
 70
     1
  0
VERTEX
  5
7D4
  8
LAYER_1
 10
72.81708142362677
 20
22.6272533728914
 30
0.0
  0
VERTEX
  5
7D5
  8
LAYER_1
 10
72.81708142362677
 20
23.0022533728914
 30
0.0
  0
VERTEX
  5
7D6
  8
LAYER_1
 10
68.81708142362677
 20
23.0022533728914
 30
0.0
  0
VERTEX
  5
7D7
  8
LAYER_1
 10
68.81708142362677
 20
22.6272533728914
 30
0.0
  0
SEQEND
  5
AC3
  8
LAYER_1
  0
POLYLINE
  5
CD
  8
LAYER_1
 66
     1
 10
0.0
 20
0.0
 30
0.0
 70
     1
  0
VERTEX
  5
7D8
  8
LAYER_1
 10
72.31708142362677
 20
1.002253372891392
 30
0.0
  0
VERTEX
  5
7D9
  8
LAYER_1
 10
72.31708142362677
 20
23.0022533728914
 30
0.0
  0
VERTEX
  5
7DA
  8
LAYER_1
 10
71.94208142362677
 20
23.0022533728914
 30
0.0
  0
VERTEX
  5
7DB
  8
LAYER_1
 10
71.94208142362677
 20
1.002253372891392
 30
0.0
  0
SEQEND
  5
AC4
  8
LAYER_1
  0
POLYLINE
  5
CE
  8
LAYER_1
 66
     1
 10
0.0
 20
0.0
 30
0.0
 70
     1
  0
VERTEX
  5
7DC
  8
LAYER_1
 10
69.44208142362677
 20
1.002253372891392
 30
0.0
  0
VERTEX
  5
7DD
  8
LAYER_1
 10
69.44208142362677
 20
1.377253372891392
 30
0.0
  0
VERTEX
  5
7DE
  8
LAYER_1
 10
68.94208142362677
 20
1.377253372891392
 30
0.0
  0
VERTEX
  5
7DF
  8
LAYER_1
 10
68.94208142362677
 20
1.002253372891392
 30
0.0
  0
SEQEND
  5
AC5
  8
LAYER_1
  0
POLYLINE
  5
CF
  8
LAYER_1
 66
     1
 10
0.0
 20
0.0
 30
0.0
 70
     1
  0
VERTEX
  5
7E0
  8
LAYER_1
 10
69.44208142362677
 20
22.6272533728914
 30
0.0
  0
VERTEX
  5
7E1
  8
LAYER_1
 10
69.44208142362677
 20
23.0022533728914
 30
0.0
  0
VERTEX
  5
7E2
  8
LAYER_1
 10
68.94208142362677
 20
23.0022533728914
 30
0.0
  0
VERTEX
  5
7E3
  8
LAYER_1
 10
68.94208142362677
 20
22.6272533728914
 30
0.0
  0
SEQEND
  5
AC6
  8
LAYER_1
  0
POLYLINE
  5
D0
  8
LAYER_1
 66
     1
 10
0.0
 20
0.0
 30
0.0
 70
     1
  0
VERTEX
  5
7E4
  8
LAYER_1
 10
71.37908142362676
 20
6.502253372891392
 30
0.0
 42
0.4142135623730951
  0
VERTEX
  5
7E5
  8
LAYER_1
 10
71.50458142362677
 20
6.37675337289139
 30
0.0
 42
0.4142135623730951
  0
VERTEX
  5
7E6
  8
LAYER_1
 10
71.63008142362676
 20
6.502253372891392
 30
0.0
 42
0.4142135623730951
  0
VERTEX
  5
7E7
  8
LAYER_1
 10
71.50458142362677
 20
6.627753372891394
 30
0.0
 42
0.4142135623730951
  0
SEQEND
  5
AC7
  8
LAYER_1
  0
POLYLINE
  5
D1
  8
LAYER_1
 66
     1
 10
0.0
 20
0.0
 30
0.0
 70
     1
  0
VERTEX
  5
7E8
  8
LAYER_1
 10
71.37908142362676
 20
17.50225337289139
 30
0.0
 42
0.4142135623730951
  0
VERTEX
  5
7E9
  8
LAYER_1
 10
71.50458142362677
 20
17.37675337289139
 30
0.0
 42
0.4142135623730951
  0
VERTEX
  5
7EA
  8
LAYER_1
 10
71.63008142362676
 20
17.50225337289139
 30
0.0
 42
0.4142135623730951
  0
VERTEX
  5
7EB
  8
LAYER_1
 10
71.50458142362677
 20
17.62775337289139
 30
0.0
 42
0.4142135623730951
  0
SEQEND
  5
AC8
  8
LAYER_1
  0
POLYLINE
  5
D2
  8
LAYER_1
 66
     1
 10
0.0
 20
0.0
 30
0.0
 70
     1
  0
VERTEX
  5
7EC
  8
LAYER_1
 10
1.13012680025075
 20
26.70247338760175
 30
0.0
  0
VERTEX
  5
7ED
  8
LAYER_1
 10
22.88012680025075
 20
26.70247338760175
 30
0.0
  0
VERTEX
  5
7EE
  8
LAYER_1
 10
22.88012680025075
 20
46.82747338760175
 30
0.0
  0
VERTEX
  5
7EF
  8
LAYER_1
 10
1.13012680025075
 20
46.82747338760175
 30
0.0
  0
SEQEND
  5
AC9
  8
LAYER_1
  0
POLYLINE
  5
D3
  8
LAYER_1
 66
     1
 10
0.0
 20
0.0
 30
0.0
 70
     1
  0
VERTEX
  5
7F0
  8
LAYER_1
 10
1.00512680025075
 20
26.57747338760175
 30
0.0
  0
VERTEX
  5
7F1
  8
LAYER_1
 10
1.38012680025075
 20
26.57747338760175
 30
0.0
  0
VERTEX
  5
7F2
  8
LAYER_1
 10
1.38012680025075
 20
46.95247338760175
 30
0.0
  0
VERTEX
  5
7F3
  8
LAYER_1
 10
1.00512680025075
 20
46.95247338760175
 30
0.0
  0
SEQEND
  5
ACA
  8
LAYER_1
  0
POLYLINE
  5
D4
  8
LAYER_1
 66
     1
 10
0.0
 20
0.0
 30
0.0
 70
     1
  0
VERTEX
  5
7F4
  8
LAYER_1
 10
22.63012680025075
 20
26.57747338760175
 30
0.0
  0
VERTEX
  5
7F5
  8
LAYER_1
 10
23.00512680025075
 20
26.57747338760175
 30
0.0
  0
VERTEX
  5
7F6
  8
LAYER_1
 10
23.00512680025075
 20
46.95247338760175
 30
0.0
  0
VERTEX
  5
7F7
  8
LAYER_1
 10
22.63012680025075
 20
46.95247338760175
 30
0.0
  0
SEQEND
  5
ACB
  8
LAYER_1
  0
POLYLINE
  5
D5
  8
LAYER_1
 66
     1
 10
0.0
 20
0.0
 30
0.0
 70
     1
  0
VERTEX
  5
7F8
  8
LAYER_1
 10
40.5069583594242
 20
36.12437382592361
 30
0.0
  0
VERTEX
  5
7F9
  8
LAYER_1
 10
62.2569583594242
 20
36.12437382592361
 30
0.0
  0
VERTEX
  5
7FA
  8
LAYER_1
 10
62.2569583594242
 20
46.87437382592361
 30
0.0
  0
VERTEX
  5
7FB
  8
LAYER_1
 10
40.5069583594242
 20
46.87437382592361
 30
0.0
  0
SEQEND
  5
ACC
  8
LAYER_1
  0
POLYLINE
  5
D6
  8
LAYER_1
 66
     1
 10
0.0
 20
0.0
 30
0.0
 70
     1
  0
VERTEX
  5
7FC
  8
LAYER_1
 10
62.0069583594242
 20
35.99937382592361
 30
0.0
  0
VERTEX
  5
7FD
  8
LAYER_1
 10
62.3819583594242
 20
35.99937382592361
 30
0.0
  0
VERTEX
  5
7FE
  8
LAYER_1
 10
62.3819583594242
 20
46.99937382592361
 30
0.0
  0
VERTEX
  5
7FF
  8
LAYER_1
 10
62.0069583594242
 20
46.99937382592361
 30
0.0
  0
SEQEND
  5
ACD
  8
LAYER_1
  0
POLYLINE
  5
D7
  8
LAYER_1
 66
     1
 10
0.0
 20
0.0
 30
0.0
 70
     1
  0
VERTEX
  5
800
  8
LAYER_1
 10
40.3819583594242
 20
35.99937382592361
 30
0.0
  0
VERTEX
  5
801
  8
LAYER_1
 10
40.7569583594242
 20
35.99937382592361
 30
0.0
  0
VERTEX
  5
802
  8
LAYER_1
 10
40.7569583594242
 20
46.99937382592361
 30
0.0
  0
VERTEX
  5
803
  8
LAYER_1
 10
40.3819583594242
 20
46.99937382592361
 30
0.0
  0
SEQEND
  5
ACE
  8
LAYER_1
  0
POLYLINE
  5
D8
  8
LAYER_1
 66
     1
 10
0.0
 20
0.0
 30
0.0
 70
     1
  0
VERTEX
  5
804
  8
LAYER_1
 10
72.07117251095835
 20
24.5018941765811
 30
0.0
  0
VERTEX
  5
805
  8
LAYER_1
 10
72.07117251095835
 20
46.2518941765811
 30
0.0
  0
VERTEX
  5
806
  8
LAYER_1
 10
69.32117251095835
 20
46.2518941765811
 30
0.0
  0
VERTEX
  5
807
  8
LAYER_1
 10
69.32117251095835
 20
24.5018941765811
 30
0.0
  0
SEQEND
  5
ACF
  8
LAYER_1
  0
POLYLINE
  5
D9
  8
LAYER_1
 66
     1
 10
0.0
 20
0.0
 30
0.0
 70
     1
  0
VERTEX
  5
808
  8
LAYER_1
 10
72.19617251095835
 20
24.3768941765811
 30
0.0
  0
VERTEX
  5
809
  8
LAYER_1
 10
72.19617251095835
 20
24.7518941765811
 30
0.0
  0
VERTEX
  5
80A
  8
LAYER_1
 10
69.19617251095835
 20
24.7518941765811
 30
0.0
  0
VERTEX
  5
80B
  8
LAYER_1
 10
69.19617251095835
 20
24.3768941765811
 30
0.0
  0
SEQEND
  5
AD0
  8
LAYER_1
  0
POLYLINE
  5
DA
  8
LAYER_1
 66
     1
 10
0.0
 20
0.0
 30
0.0
 70
     1
  0
VERTEX
  5
80C
  8
LAYER_1
 10
72.19617251095835
 20
46.0018941765811
 30
0.0
  0
VERTEX
  5
80D
  8
LAYER_1
 10
72.19617251095835
 20
46.3768941765811
 30
0.0
  0
VERTEX
  5
80E
  8
LAYER_1
 10
69.19617251095835
 20
46.3768941765811
 30
0.0
  0
VERTEX
  5
80F
  8
LAYER_1
 10
69.19617251095835
 20
46.0018941765811
 30
0.0
  0
SEQEND
  5
AD1
  8
LAYER_1
  0
POLYLINE
  5
DB
  8
LAYER_1
 66
     1
 10
0.0
 20
0.0
 30
0.0
 70
     1
  0
VERTEX
  5
810
  8
LAYER_1
 10
70.38367251095835
 20
32.6268941765811
 30
0.0
 42
0.4142135623730951
  0
VERTEX
  5
811
  8
LAYER_1
 10
70.63367251095835
 20
32.3768941765811
 30
0.0
 42
0.4142135623730951
  0
VERTEX
  5
812
  8
LAYER_1
 10
70.88367251095835
 20
32.6268941765811
 30
0.0
 42
0.4142135623730951
  0
VERTEX
  5
813
  8
LAYER_1
 10
70.63367251095835
 20
32.8768941765811
 30
0.0
 42
0.4142135623730951
  0
SEQEND
  5
AD2
  8
LAYER_1
  0
POLYLINE
  5
DC
  8
LAYER_1
 66
     1
 10
0.0
 20
0.0
 30
0.0
 70
     1
  0
VERTEX
  5
814
  8
LAYER_1
 10
70.38367251095835
 20
38.1268941765811
 30
0.0
 42
0.4142135623730951
  0
VERTEX
  5
815
  8
LAYER_1
 10
70.63367251095835
 20
37.8768941765811
 30
0.0
 42
0.4142135623730951
  0
VERTEX
  5
816
  8
LAYER_1
 10
70.88367251095835
 20
38.1268941765811
 30
0.0
 42
0.4142135623730951
  0
VERTEX
  5
817
  8
LAYER_1
 10
70.63367251095835
 20
38.3768941765811
 30
0.0
 42
0.4142135623730951
  0
SEQEND
  5
AD3
  8
LAYER_1
  0
POLYLINE
  5
DD
  8
LAYER_1
 66
     1
 10
0.0
 20
0.0
 30
0.0
 70
     1
  0
VERTEX
  5
818
  8
LAYER_1
 10
67.90536161552942
 20
32.40533813400125
 30
0.0
  0
VERTEX
  5
819
  8
LAYER_1
 10
67.90536161552942
 20
44.15533813400125
 30
0.0
  0
VERTEX
  5
81A
  8
LAYER_1
 10
65.15536161552942
 20
44.15533813400125
 30
0.0
  0
VERTEX
  5
81B
  8
LAYER_1
 10
65.15536161552942
 20
32.40533813400125
 30
0.0
  0
SEQEND
  5
AD4
  8
LAYER_1
  0
POLYLINE
  5
DE
  8
LAYER_1
 66
     1
 10
0.0
 20
0.0
 30
0.0
 70
     1
  0
VERTEX
  5
81C
  8
LAYER_1
 10
68.03036161552942
 20
32.78033813400125
 30
0.0
  0
VERTEX
  5
81D
  8
LAYER_1
 10
68.03036161552942
 20
33.15533813400125
 30
0.0
  0
VERTEX
  5
81E
  8
LAYER_1
 10
65.03036161552942
 20
33.15533813400125
 30
0.0
  0
VERTEX
  5
81F
  8
LAYER_1
 10
65.03036161552942
 20
32.78033813400125
 30
0.0
  0
SEQEND
  5
AD5
  8
LAYER_1
  0
POLYLINE
  5
DF
  8
LAYER_1
 66
     1
 10
0.0
 20
0.0
 30
0.0
 70
     1
  0
VERTEX
  5
820
  8
LAYER_1
 10
68.03036161552942
 20
43.40533813400125
 30
0.0
  0
VERTEX
  5
821
  8
LAYER_1
 10
68.03036161552942
 20
43.78033813400125
 30
0.0
  0
VERTEX
  5
822
  8
LAYER_1
 10
65.03036161552942
 20
43.78033813400125
 30
0.0
  0
VERTEX
  5
823
  8
LAYER_1
 10
65.03036161552942
 20
43.40533813400125
 30
0.0
  0
SEQEND
  5
AD6
  8
LAYER_1
  0
POLYLINE
  5
E0
  8
LAYER_1
 66
     1
 10
0.0
 20
0.0
 30
0.0
 70
     1
  0
VERTEX
  5
824
  8
LAYER_1
 10
31.35051659361329
 20
38.92512523481528
 30
0.0
  0
VERTEX
  5
825
  8
LAYER_1
 10
39.60051659361329
 20
38.92512523481528
 30
0.0
  0
VERTEX
  5
826
  8
LAYER_1
 10
39.60051659361329
 20
41.67512523481528
 30
0.0
  0
VERTEX
  5
827
  8
LAYER_1
 10
31.35051659361329
 20
41.67512523481528
 30
0.0
  0
SEQEND
  5
AD7
  8
LAYER_1
  0
POLYLINE
  5
E1
  8
LAYER_1
 66
     1
 10
0.0
 20
0.0
 30
0.0
 70
     1
  0
VERTEX
  5
828
  8
LAYER_1
 10
31.22551659361329
 20
38.80012523481528
 30
0.0
  0
VERTEX
  5
829
  8
LAYER_1
 10
31.60051659361329
 20
38.80012523481528
 30
0.0
  0
VERTEX
  5
82A
  8
LAYER_1
 10
31.60051659361329
 20
41.80012523481528
 30
0.0
  0
VERTEX
  5
82B
  8
LAYER_1
 10
31.22551659361329
 20
41.80012523481528
 30
0.0
  0
SEQEND
  5
AD8
  8
LAYER_1
  0
POLYLINE
  5
E2
  8
LAYER_1
 66
     1
 10
0.0
 20
0.0
 30
0.0
 70
     1
  0
VERTEX
  5
82C
  8
LAYER_1
 10
31.35051659361329
 20
43.21717282404509
 30
0.0
  0
VERTEX
  5
82D
  8
LAYER_1
 10
39.60051659361329
 20
43.21717282404509
 30
0.0
  0
VERTEX
  5
82E
  8
LAYER_1
 10
39.60051659361329
 20
45.96717282404509
 30
0.0
  0
VERTEX
  5
82F
  8
LAYER_1
 10
31.35051659361329
 20
45.96717282404509
 30
0.0
  0
SEQEND
  5
AD9
  8
LAYER_1
  0
POLYLINE
  5
E3
  8
LAYER_1
 66
     1
 10
0.0
 20
0.0
 30
0.0
 70
     1
  0
VERTEX
  5
830
  8
LAYER_1
 10
31.22551659361329
 20
43.09217282404509
 30
0.0
  0
VERTEX
  5
831
  8
LAYER_1
 10
31.60051659361329
 20
43.09217282404509
 30
0.0
  0
VERTEX
  5
832
  8
LAYER_1
 10
31.60051659361329
 20
46.09217282404509
 30
0.0
  0
VERTEX
  5
833
  8
LAYER_1
 10
31.22551659361329
 20
46.09217282404509
 30
0.0
  0
SEQEND
  5
ADA
  8
LAYER_1
  0
POLYLINE
  5
E4
  8
LAYER_1
 66
     1
 10
0.0
 20
0.0
 30
0.0
 70
     1
  0
VERTEX
  5
834
  8
LAYER_1
 10
0.9948731997492501
 20
25.14430181590487
 30
0.0
  0
VERTEX
  5
835
  8
LAYER_1
 10
0.9948731997492501
 20
23.64430181590487
 30
0.0
  0
VERTEX
  5
836
  8
LAYER_1
 10
3.619873199749279
 20
23.64430181590485
 30
0.0
  0
VERTEX
  5
837
  8
LAYER_1
 10
4.619873199749236
 20
24.61310181590488
 30
0.0
  0
VERTEX
  5
838
  8
LAYER_1
 10
6.619873199749208
 20
24.61310181590488
 30
0.0
  0
VERTEX
  5
839
  8
LAYER_1
 10
7.682373199749208
 20
23.64430181590488
 30
0.0
  0
VERTEX
  5
83A
  8
LAYER_1
 10
11.61987319974912
 20
23.6443018159049
 30
0.0
  0
VERTEX
  5
83B
  8
LAYER_1
 10
12.61987319974928
 20
24.61310181590487
 30
0.0
  0
VERTEX
  5
83C
  8
LAYER_1
 10
19.36987319974941
 20
24.61310181590486
 30
0.0
  0
VERTEX
  5
83D
  8
LAYER_1
 10
20.36987319975042
 20
23.64430181590478
 30
0.0
  0
VERTEX
  5
83E
  8
LAYER_1
 10
22.74487319974943
 20
23.64430181590487
 30
0.0
  0
VERTEX
  5
83F
  8
LAYER_1
 10
22.74487319975036
 20
25.14430181590487
 30
0.0
  0
SEQEND
  5
ADB
  8
LAYER_1
  0
POLYLINE
  5
E5
  8
LAYER_1
 66
     1
 10
0.0
 20
0.0
 30
0.0
 70
     1
  0
VERTEX
  5
840
  8
LAYER_1
 10
28.3112124295557
 20
25.17252661239826
 30
0.0
  0
VERTEX
  5
841
  8
LAYER_1
 10
28.3112124295557
 20
46.92252661239825
 30
0.0
  0
VERTEX
  5
842
  8
LAYER_1
 10
24.0612124295557
 20
46.92252661239825
 30
0.0
  0
VERTEX
  5
843
  8
LAYER_1
 10
24.0612124295557
 20
25.17252661239826
 30
0.0
  0
SEQEND
  5
ADC
  8
LAYER_1
  0
POLYLINE
  5
E6
  8
LAYER_1
 66
     1
 10
0.0
 20
0.0
 30
0.0
 70
     1
  0
VERTEX
  5
844
  8
LAYER_1
 10
28.4362124295557
 20
25.04752661239826
 30
0.0
  0
VERTEX
  5
845
  8
LAYER_1
 10
28.4362124295557
 20
25.42252661239826
 30
0.0
  0
VERTEX
  5
846
  8
LAYER_1
 10
23.9362124295557
 20
25.42252661239826
 30
0.0
  0
VERTEX
  5
847
  8
LAYER_1
 10
23.9362124295557
 20
25.04752661239826
 30
0.0
  0
SEQEND
  5
ADD
  8
LAYER_1
  0
POLYLINE
  5
E7
  8
LAYER_1
 66
     1
 10
0.0
 20
0.0
 30
0.0
 70
     1
  0
VERTEX
  5
848
  8
LAYER_1
 10
28.4362124295557
 20
46.67252661239825
 30
0.0
  0
VERTEX
  5
849
  8
LAYER_1
 10
28.4362124295557
 20
47.04752661239825
 30
0.0
  0
VERTEX
  5
84A
  8
LAYER_1
 10
23.9362124295557
 20
47.04752661239825
 30
0.0
  0
VERTEX
  5
84B
  8
LAYER_1
 10
23.9362124295557
 20
46.67252661239825
 30
0.0
  0
SEQEND
  5
ADE
  8
LAYER_1
  0
POLYLINE
  5
E8
  8
LAYER_1
 66
     1
 10
0.0
 20
0.0
 30
0.0
 70
     1
  0
VERTEX
  5
84C
  8
LAYER_1
 10
28.4987124295557
 20
25.04752661239826
 30
0.0
  0
VERTEX
  5
84D
  8
LAYER_1
 10
28.4987124295557
 20
47.04752661239825
 30
0.0
  0
VERTEX
  5
84E
  8
LAYER_1
 10
25.8737124295557
 20
47.04752661239825
 30
0.0
  0
VERTEX
  5
84F
  8
LAYER_1
 10
25.8737124295557
 20
25.04752661239826
 30
0.0
  0
SEQEND
  5
ADF
  8
LAYER_1
  0
POLYLINE
  5
E9
  8
LAYER_1
 66
     1
 10
0.0
 20
0.0
 30
0.0
 70
     1
  0
VERTEX
  5
850
  8
LAYER_1
 10
28.4362124295557
 20
25.04752661239826
 30
0.0
  0
VERTEX
  5
851
  8
LAYER_1
 10
28.4362124295557
 20
25.42252661239826
 30
0.0
  0
VERTEX
  5
852
  8
LAYER_1
 10
27.8112124295557
 20
25.42252661239826
 30
0.0
  0
VERTEX
  5
853
  8
LAYER_1
 10
27.8112124295557
 20
25.04752661239826
 30
0.0
  0
SEQEND
  5
AE0
  8
LAYER_1
  0
POLYLINE
  5
EA
  8
LAYER_1
 66
     1
 10
0.0
 20
0.0
 30
0.0
 70
     1
  0
VERTEX
  5
854
  8
LAYER_1
 10
28.4362124295557
 20
46.67252661239825
 30
0.0
  0
VERTEX
  5
855
  8
LAYER_1
 10
28.4362124295557
 20
47.04752661239825
 30
0.0
  0
VERTEX
  5
856
  8
LAYER_1
 10
27.8112124295557
 20
47.04752661239825
 30
0.0
  0
VERTEX
  5
857
  8
LAYER_1
 10
27.8112124295557
 20
46.67252661239825
 30
0.0
  0
SEQEND
  5
AE1
  8
LAYER_1
  0
POLYLINE
  5
EB
  8
LAYER_1
 66
     1
 10
0.0
 20
0.0
 30
0.0
 70
     1
  0
VERTEX
  5
858
  8
LAYER_1
 10
5.276023841168779
 20
1.458653593936535
 30
0.0
  0
VERTEX
  5
859
  8
LAYER_1
 10
2.043172440079914
 20
20.46866720871181
 30
0.0
  0
VERTEX
  5
85A
  8
LAYER_1
 10
2.042506041356532
 20
20.48367338760178
 30
0.0
 42
-0.4142135623730951
  0
VERTEX
  5
85B
  8
LAYER_1
 10
2.230006041356532
 20
20.67117338760178
 30
0.0
 42
-0.3380420676624187
  0
VERTEX
  5
85C
  8
LAYER_1
 10
2.410868901215309
 20
20.5331190742054
 30
0.0
  0
VERTEX
  5
85D
  8
LAYER_1
 10
2.41346992353354
 20
20.52393513366688
 30
0.0
  0
VERTEX
  5
85E
  8
LAYER_1
 10
5.592526699404431
 20
1.829793521028424
 30
0.0
  0
VERTEX
  5
85F
  8
LAYER_1
 10
5.594945443888264
 20
1.827473387601788
 30
0.0
  0
VERTEX
  5
860
  8
LAYER_1
 10
9.386306041356534
 20
1.827473387601788
 30
0.0
 42
-0.4142135623730951
  0
VERTEX
  5
861
  8
LAYER_1
 10
9.573806041356534
 20
1.639973387601787
 30
0.0
 42
-0.4142135623730951
  0
VERTEX
  5
862
  8
LAYER_1
 10
9.386306041356534
 20
1.452473387601788
 30
0.0
  0
VERTEX
  5
863
  8
LAYER_1
 10
5.27681319295624
 20
1.452473387601788
 30
0.0
  0
SEQEND
  5
AE2
  8
LAYER_1
  0
POLYLINE
  5
EC
  8
LAYER_1
 66
     1
 10
0.0
 20
0.0
 30
0.0
 70
     1
  0
VERTEX
  5
864
  8
LAYER_1
 10
34.44880604135653
 20
7.952473387601774
 30
0.0
 42
-0.4142135623730951
  0
VERTEX
  5
865
  8
LAYER_1
 10
34.63630604135653
 20
7.764973387601774
 30
0.0
 42
-0.4142135623730951
  0
VERTEX
  5
866
  8
LAYER_1
 10
34.44880604135653
 20
7.577473387601774
 30
0.0
  0
VERTEX
  5
867
  8
LAYER_1
 10
30.26130604135653
 20
7.577473387601778
 30
0.0
 42
-0.4142135623730951
  0
VERTEX
  5
868
  8
LAYER_1
 10
30.07380604135653
 20
7.764973387601778
 30
0.0
 42
-0.4142135623730951
  0
VERTEX
  5
869
  8
LAYER_1
 10
30.26130604135653
 20
7.952473387601778
 30
0.0
  0
SEQEND
  5
AE3
  8
LAYER_1
  0
POLYLINE
  5
ED
  8
LAYER_1
 66
     1
 10
0.0
 20
0.0
 30
0.0
 70
     1
  0
VERTEX
  5
86A
  8
LAYER_1
 10
34.66750604135655
 20
34.85872338760177
 30
0.0
 42
-0.4142135623730951
  0
VERTEX
  5
86B
  8
LAYER_1
 10
35.01125604135655
 20
34.51497338760177
 30
0.0
 42
-0.4142135623730951
  0
VERTEX
  5
86C
  8
LAYER_1
 10
34.66750604135655
 20
34.17122338760177
 30
0.0
 42
-0.4142135623730951
  0
VERTEX
  5
86D
  8
LAYER_1
 10
34.32375604135655
 20
34.51497338760177
 30
0.0
 42
-0.4142135623730951
  0
SEQEND
  5
AE4
  8
LAYER_1
  0
POLYLINE
  5
EE
  8
LAYER_1
 66
     1
 10
0.0
 20
0.0
 30
0.0
 70
     1
  0
VERTEX
  5
86E
  8
LAYER_1
 10
67.60505655852464
 20
29.75715773407088
 30
0.0
  0
VERTEX
  5
86F
  8
LAYER_1
 10
67.60500604135652
 20
1.452739492047831
 30
0.0
  0
VERTEX
  5
870
  8
LAYER_1
 10
67.56750604135652
 20
1.452473387601762
 30
0.0
  0
VERTEX
  5
871
  8
LAYER_1
 10
54.66750604135652
 20
1.452473387601771
 30
0.0
 42
-0.4142135623730951
  0
VERTEX
  5
872
  8
LAYER_1
 10
54.48000604135652
 20
1.639973387601771
 30
0.0
 42
-0.4142135623730951
  0
VERTEX
  5
873
  8
LAYER_1
 10
54.66750604135652
 20
1.827473387601771
 30
0.0
  0
VERTEX
  5
874
  8
LAYER_1
 10
67.22999143667238
 20
1.827467124999977
 30
0.0
  0
VERTEX
  5
875
  8
LAYER_1
 10
67.22867175199985
 20
29.50135372831822
 30
0.0
  0
VERTEX
  5
876
  8
LAYER_1
 10
67.22871933770614
 20
29.72683901102675
 30
0.0
  0
VERTEX
  5
877
  8
LAYER_1
 10
58.16850515050675
 20
32.88995210940227
 30
0.0
  0
VERTEX
  5
878
  8
LAYER_1
 10
58.16801288045039
 20
32.88997338760177
 30
0.0
  0
VERTEX
  5
879
  8
LAYER_1
 10
57.79255543846705
 20
32.88997338760177
 30
0.0
  0
VERTEX
  5
87A
  8
LAYER_1
 10
56.7306360638128
 20
32.88997338760177
 30
0.0
  0
VERTEX
  5
87B
  8
LAYER_1
 10
56.73005543846705
 20
32.88629898328769
 30
0.0
  0
VERTEX
  5
87C
  8
LAYER_1
 10
56.73005543846705
 20
23.58367338760177
 30
0.0
  0
VERTEX
  5
87D
  8
LAYER_1
 10
56.73005543846705
 20
23.48367338760177
 30
0.0
 42
-0.4142135623730951
  0
VERTEX
  5
87E
  8
LAYER_1
 10
56.54255543846705
 20
23.29617338760177
 30
0.0
 42
-0.4142135623730951
  0
VERTEX
  5
87F
  8
LAYER_1
 10
56.35505543846705
 20
23.48367338760177
 30
0.0
  0
VERTEX
  5
880
  8
LAYER_1
 10
56.35505543846705
 20
32.88765423600331
 30
0.0
  0
VERTEX
  5
881
  8
LAYER_1
 10
56.35252055615848
 20
32.88997338760177
 30
0.0
  0
VERTEX
  5
882
  8
LAYER_1
 10
36.79799062249796
 20
32.88997338760178
 30
0.0
  0
VERTEX
  5
883
  8
LAYER_1
 10
36.7919147287557
 20
32.83065395332807
 30
0.0
 42
-0.4142135623730951
  0
VERTEX
  5
884
  8
LAYER_1
 10
36.6044147287557
 20
32.64315395332807
 30
0.0
 42
-0.4142135623730951
  0
VERTEX
  5
885
  8
LAYER_1
 10
36.41723508361139
 20
32.82281367046492
 30
0.0
  0
VERTEX
  5
886
  8
LAYER_1
 10
36.41755543846705
 20
36.51497338760177
 30
0.0
 42
-0.4142135623730951
  0
VERTEX
  5
887
  8
LAYER_1
 10
36.60505543846705
 20
36.70247338760177
 30
0.0
 42
-0.4142135623730951
  0
VERTEX
  5
888
  8
LAYER_1
 10
36.79255543846705
 20
36.51497338760177
 30
0.0
  0
VERTEX
  5
889
  8
LAYER_1
 10
36.79255543846705
 20
33.26315883618901
 30
0.0
  0
VERTEX
  5
88A
  8
LAYER_1
 10
36.79830233062256
 20
33.26497338760177
 30
0.0
  0
VERTEX
  5
88B
  8
LAYER_1
 10
57.79255543846705
 20
33.26497338760177
 30
0.0
  0
VERTEX
  5
88C
  8
LAYER_1
 10
58.24770876867595
 20
33.26497338760177
 30
0.0
  0
VERTEX
  5
88D
  8
LAYER_1
 10
58.24782645867049
 20
33.2649981171004
 30
0.0
  0
VERTEX
  5
88E
  8
LAYER_1
 10
67.60510604135655
 20
29.99268683375664
 30
0.0
  0
SEQEND
  5
AE5
  8
LAYER_1
  0
POLYLINE
  5
EF
  8
LAYER_1
 66
     1
 10
0.0
 20
0.0
 30
0.0
 70
     1
  0
VERTEX
  5
88F
  8
LAYER_1
 10
1.386306041355894
 20
21.38997338760259
 30
0.0
  0
VERTEX
  5
890
  8
LAYER_1
 10
8.605006041495542
 20
20.32747338755696
 30
0.0
  0
VERTEX
  5
891
  8
LAYER_1
 10
8.628290825437709
 20
20.32431495070648
 30
0.0
  0
VERTEX
  5
892
  8
LAYER_1
 10
8.651611964742159
 20
20.32167583556949
 30
0.0
  0
VERTEX
  5
893
  8
LAYER_1
 10
8.674966809137562
 20
20.31953708779304
 30
0.0
  0
VERTEX
  5
894
  8
LAYER_1
 10
8.698352708352587
 20
20.31787975302417
 30
0.0
  0
VERTEX
  5
895
  8
LAYER_1
 10
8.721767012115905
 20
20.31668487690991
 30
0.0
  0
VERTEX
  5
896
  8
LAYER_1
 10
8.745207070156178
 20
20.31593350509731
 30
0.0
  0
VERTEX
  5
897
  8
LAYER_1
 10
8.76867023220208
 20
20.31560668323338
 30
0.0
  0
VERTEX
  5
898
  8
LAYER_1
 10
8.792153847982279
 20
20.31568545696518
 30
0.0
  0
VERTEX
  5
899
  8
LAYER_1
 10
8.815655267225441
 20
20.31615087193975
 30
0.0
  0
VERTEX
  5
89A
  8
LAYER_1
 10
8.83917183966024
 20
20.31698397380411
 30
0.0
  0
VERTEX
  5
89B
  8
LAYER_1
 10
8.86270091501534
 20
20.31816580820531
 30
0.0
  0
VERTEX
  5
89C
  8
LAYER_1
 10
8.886239843019412
 20
20.31967742079038
 30
0.0
  0
VERTEX
  5
89D
  8
LAYER_1
 10
8.933336655889141
 20
20.3236141631003
 30
0.0
  0
VERTEX
  5
89E
  8
LAYER_1
 10
8.980441076098776
 20
20.32864256591014
 30
0.0
  0
VERTEX
  5
89F
  8
LAYER_1
 10
9.027531901477667
 20
20.33461099439623
 30
0.0
  0
VERTEX
  5
8A0
  8
LAYER_1
 10
9.074587929855165
 20
20.34136781373484
 30
0.0
  0
VERTEX
  5
8A1
  8
LAYER_1
 10
9.121587959060616
 20
20.34876138910229
 30
0.0
  0
VERTEX
  5
8A2
  8
LAYER_1
 10
9.16851078692337
 20
20.35664008567486
 30
0.0
  0
VERTEX
  5
8A3
  8
LAYER_1
 10
9.262040029938182
 20
20.37324630314057
 30
0.0
  0
VERTEX
  5
8A4
  8
LAYER_1
 10
9.355006041534395
 20
20.38997338754234
 30
0.0
  0
VERTEX
  5
8A5
  8
LAYER_1
 10
27.73000604134012
 20
23.63997338761062
 30
0.0
  0
VERTEX
  5
8A6
  8
LAYER_1
 10
27.80849253864888
 20
23.6539470311885
 30
0.0
  0
VERTEX
  5
8A7
  8
LAYER_1
 10
27.84821222462518
 20
23.66157389141213
 30
0.0
  0
VERTEX
  5
8A8
  8
LAYER_1
 10
27.88793945069921
 20
23.6700054986056
 30
0.0
  0
VERTEX
  5
8A9
  8
LAYER_1
 10
27.90773321515174
 20
23.67461168888168
 30
0.0
  0
VERTEX
  5
8AA
  8
LAYER_1
 10
27.92744165328334
 20
23.67952539377898
 30
0.0
  0
VERTEX
  5
8AB
  8
LAYER_1
 10
27.94703569464555
 20
23.68478205592377
 30
0.0
  0
VERTEX
  5
8AC
  8
LAYER_1
 10
27.96648626878991
 20
23.6904171179423
 30
0.0
  0
VERTEX
  5
8AD
  8
LAYER_1
 10
27.98576430526797
 20
23.69646602246083
 30
0.0
  0
VERTEX
  5
8AE
  8
LAYER_1
 10
28.00484073363128
 20
23.70296421210561
 30
0.0
  0
VERTEX
  5
8AF
  8
LAYER_1
 10
28.02368648343137
 20
23.70994712950291
 30
0.0
  0
VERTEX
  5
8B0
  8
LAYER_1
 10
28.04227248421979
 20
23.71745021727897
 30
0.0
  0
VERTEX
  5
8B1
  8
LAYER_1
 10
28.05942114252928
 20
23.72485138148382
 30
0.0
  0
VERTEX
  5
8B2
  8
LAYER_1
 10
28.07650319566945
 20
23.73256509240691
 30
0.0
  0
VERTEX
  5
8B3
  8
LAYER_1
 10
28.11046254719234
 20
23.74889366546415
 30
0.0
  0
VERTEX
  5
8B4
  8
LAYER_1
 10
28.14414066028939
 20
23.7663629585633
 30
0.0
  0
VERTEX
  5
8B5
  8
LAYER_1
 10
28.17752765646151
 20
23.78489999381695
 30
0.0
  0
VERTEX
  5
8B6
  8
LAYER_1
 10
28.21061365720963
 20
23.80443179333771
 30
0.0
  0
VERTEX
  5
8B7
  8
LAYER_1
 10
28.24338878403468
 20
23.82488537923817
 30
0.0
  0
VERTEX
  5
8B8
  8
LAYER_1
 10
28.27584315843758
 20
23.84618777363094
 30
0.0
  0
VERTEX
  5
8B9
  8
LAYER_1
 10
28.30796690191927
 20
23.86826599862862
 30
0.0
  0
VERTEX
  5
8BA
  8
LAYER_1
 10
28.33975013598065
 20
23.8910470763438
 30
0.0
  0
VERTEX
  5
8BB
  8
LAYER_1
 10
28.37118298212266
 20
23.91445802888909
 30
0.0
  0
VERTEX
  5
8BC
  8
LAYER_1
 10
28.40225556184622
 20
23.9384258783771
 30
0.0
  0
VERTEX
  5
8BD
  8
LAYER_1
 10
28.43295799665227
 20
23.96287764692041
 30
0.0
  0
VERTEX
  5
8BE
  8
LAYER_1
 10
28.46328040804173
 20
23.98774035663164
 30
0.0
  0
VERTEX
  5
8BF
  8
LAYER_1
 10
28.4932129175155
 20
24.01294102962337
 30
0.0
  0
VERTEX
  5
8C0
  8
LAYER_1
 10
28.52274564657453
 20
24.03840668800822
 30
0.0
  0
VERTEX
  5
8C1
  8
LAYER_1
 10
28.55186871671974
 20
24.06406435389879
 30
0.0
  0
VERTEX
  5
8C2
  8
LAYER_1
 10
28.57694701866207
 20
24.08656346051813
 30
0.0
  0
VERTEX
  5
8C3
  8
LAYER_1
 10
28.60170503304538
 20
24.10917063155979
 30
0.0
  0
VERTEX
  5
8C4
  8
LAYER_1
 10
28.62613220108121
 20
24.13191491057582
 30
0.0
  0
VERTEX
  5
8C5
  8
LAYER_1
 10
28.65021796398113
 20
24.15482534111826
 30
0.0
  0
VERTEX
  5
8C6
  8
LAYER_1
 10
28.67395176295669
 20
24.17793096673915
 30
0.0
  0
VERTEX
  5
8C7
  8
LAYER_1
 10
28.69732303921945
 20
24.20126083099054
 30
0.0
  0
VERTEX
  5
8C8
  8
LAYER_1
 10
28.72032123398094
 20
24.22484397742448
 30
0.0
  0
VERTEX
  5
8C9
  8
LAYER_1
 10
28.74293578845274
 20
24.248709449593
 30
0.0
  0
VERTEX
  5
8CA
  8
LAYER_1
 10
28.76515614384639
 20
24.27288629104816
 30
0.0
  0
VERTEX
  5
8CB
  8
LAYER_1
 10
28.78697174137345
 20
24.29740354534199
 30
0.0
  0
VERTEX
  5
8CC
  8
LAYER_1
 10
28.80837202224546
 20
24.32229025602656
 30
0.0
  0
VERTEX
  5
8CD
  8
LAYER_1
 10
28.82934642767399
 20
24.34757546665388
 30
0.0
  0
VERTEX
  5
8CE
  8
LAYER_1
 10
28.84988439887059
 20
24.37328822077602
 30
0.0
  0
VERTEX
  5
8CF
  8
LAYER_1
 10
28.86997537704681
 20
24.39945756194501
 30
0.0
  0
VERTEX
  5
8D0
  8
LAYER_1
 10
28.88960880341419
 20
24.42611253371291
 30
0.0
  0
VERTEX
  5
8D1
  8
LAYER_1
 10
28.90877411918432
 20
24.45328217963176
 30
0.0
  0
VERTEX
  5
8D2
  8
LAYER_1
 10
28.92120770816409
 20
24.47175912014429
 30
0.0
  0
VERTEX
  5
8D3
  8
LAYER_1
 10
28.93323897695275
 20
24.49051505741694
 30
0.0
  0
VERTEX
  5
8D4
  8
LAYER_1
 10
28.94489359148131
 20
24.50951888528646
 30
0.0
  0
VERTEX
  5
8D5
  8
LAYER_1
 10
28.95619721768079
 20
24.52873949758965
 30
0.0
  0
VERTEX
  5
8D6
  8
LAYER_1
 10
28.9671755214822
 20
24.54814578816326
 30
0.0
  0
VERTEX
  5
8D7
  8
LAYER_1
 10
28.97785416881656
 20
24.56770665084409
 30
0.0
  0
VERTEX
  5
8D8
  8
LAYER_1
 10
28.99841515780822
 20
24.60716766787446
 30
0.0
  0
VERTEX
  5
8D9
  8
LAYER_1
 10
29.0180855121039
 20
24.64687369937495
 30
0.0
  0
VERTEX
  5
8DA
  8
LAYER_1
 10
29.03707055915175
 20
24.68657589603977
 30
0.0
  0
VERTEX
  5
8DB
  8
LAYER_1
 10
29.07380604129652
 20
24.7649733876392
 30
0.0
  0
VERTEX
  5
8DC
  8
LAYER_1
 10
32.54250604133045
 20
32.13997338762391
 30
0.0
  0
VERTEX
  5
8DD
  8
LAYER_1
 10
32.55157660129512
 20
32.15982719640995
 30
0.0
  0
VERTEX
  5
8DE
  8
LAYER_1
 10
32.56020947127242
 20
32.17986696277903
 30
0.0
  0
VERTEX
  5
8DF
  8
LAYER_1
 10
32.56841510213226
 20
32.20008461075487
 30
0.0
  0
VERTEX
  5
8E0
  8
LAYER_1
 10
32.57620394474461
 20
32.2204720643612
 30
0.0
  0
VERTEX
  5
8E1
  8
LAYER_1
 10
32.5835864499794
 20
32.24102124762172
 30
0.0
  0
VERTEX
  5
8E2
  8
LAYER_1
 10
32.59057306870657
 20
32.26172408456016
 30
0.0
  0
VERTEX
  5
8E3
  8
LAYER_1
 10
32.59717425179605
 20
32.28257249920021
 30
0.0
  0
VERTEX
  5
8E4
  8
LAYER_1
 10
32.60340045011779
 20
32.30355841556562
 30
0.0
  0
VERTEX
  5
8E5
  8
LAYER_1
 10
32.60926211454172
 20
32.32467375768007
 30
0.0
  0
VERTEX
  5
8E6
  8
LAYER_1
 10
32.61476969593779
 20
32.34591044956731
 30
0.0
  0
VERTEX
  5
8E7
  8
LAYER_1
 10
32.61993364517592
 20
32.36726041525105
 30
0.0
  0
VERTEX
  5
8E8
  8
LAYER_1
 10
32.62476441312607
 20
32.38871557875498
 30
0.0
  0
VERTEX
  5
8E9
  8
LAYER_1
 10
32.62927245065816
 20
32.41026786410283
 30
0.0
  0
VERTEX
  5
8EA
  8
LAYER_1
 10
32.63346820864214
 20
32.43190919531834
 30
0.0
  0
VERTEX
  5
8EB
  8
LAYER_1
 10
32.64096468944552
 20
32.47542669144711
 30
0.0
  0
VERTEX
  5
8EC
  8
LAYER_1
 10
32.6473374624957
 20
32.51920345933104
 30
0.0
  0
VERTEX
  5
8ED
  8
LAYER_1
 10
32.65267013475221
 20
32.56317489115985
 30
0.0
  0
VERTEX
  5
8EE
  8
LAYER_1
 10
32.65704631317455
 20
32.60727637912325
 30
0.0
  0
VERTEX
  5
8EF
  8
LAYER_1
 10
32.66054960472223
 20
32.65144331541099
 30
0.0
  0
VERTEX
  5
8F0
  8
LAYER_1
 10
32.66326361635475
 20
32.69561109221279
 30
0.0
  0
VERTEX
  5
8F1
  8
LAYER_1
 10
32.66527195503164
 20
32.73971510171837
 30
0.0
  0
VERTEX
  5
8F2
  8
LAYER_1
 10
32.66665822771239
 20
32.78369073611748
 30
0.0
  0
VERTEX
  5
8F3
  8
LAYER_1
 10
32.66750604135652
 20
32.82747338759984
 30
0.0
  0
VERTEX
  5
8F4
  8
LAYER_1
 10
32.73000604135657
 20
37.32747338760248
 30
0.0
  0
VERTEX
  5
8F5
  8
LAYER_1
 10
32.73072463020707
 20
37.35129855344402
 30
0.0
  0
VERTEX
  5
8F6
  8
LAYER_1
 10
32.73224513740431
 20
37.37549453084061
 30
0.0
  0
VERTEX
  5
8F7
  8
LAYER_1
 10
32.73459840647811
 20
37.39997078400653
 30
0.0
  0
VERTEX
  5
8F8
  8
LAYER_1
 10
32.73781528095831
 20
37.42463677715611
 30
0.0
  0
VERTEX
  5
8F9
  8
LAYER_1
 10
32.74192660437473
 20
37.44940197450366
 30
0.0
  0
VERTEX
  5
8FA
  8
LAYER_1
 10
32.74696322025719
 20
37.47417584026348
 30
0.0
  0
VERTEX
  5
8FB
  8
LAYER_1
 10
32.7529559721355
 20
37.4988678386499
 30
0.0
  0
VERTEX
  5
8FC
  8
LAYER_1
 10
32.75993570353951
 20
37.52338743387721
 30
0.0
  0
VERTEX
  5
8FD
  8
LAYER_1
 10
32.76793325799904
 20
37.54764409015974
 30
0.0
  0
VERTEX
  5
8FE
  8
LAYER_1
 10
32.7769794790439
 20
37.57154727171179
 30
0.0
  0
VERTEX
  5
8FF
  8
LAYER_1
 10
32.78190547813891
 20
37.58333801703085
 30
0.0
  0
VERTEX
  5
900
  8
LAYER_1
 10
32.78710521020393
 20
37.59500644274767
 30
0.0
  0
VERTEX
  5
901
  8
LAYER_1
 10
32.79258253068021
 20
37.60654123188903
 30
0.0
  0
VERTEX
  5
902
  8
LAYER_1
 10
32.79834129500895
 20
37.61793106748171
 30
0.0
  0
VERTEX
  5
903
  8
LAYER_1
 10
32.80438535863141
 20
37.6291646325525
 30
0.0
  0
VERTEX
  5
904
  8
LAYER_1
 10
32.81071857698878
 20
37.6402306101282
 30
0.0
  0
VERTEX
  5
905
  8
LAYER_1
 10
32.81734480552232
 20
37.65111768323558
 30
0.0
  0
VERTEX
  5
906
  8
LAYER_1
 10
32.82426789967325
 20
37.66181453490145
 30
0.0
  0
VERTEX
  5
907
  8
LAYER_1
 10
32.83149171488279
 20
37.67230984815259
 30
0.0
  0
VERTEX
  5
908
  8
LAYER_1
 10
32.83902010659217
 20
37.68259230601579
 30
0.0
  0
VERTEX
  5
909
  8
LAYER_1
 10
32.84685693024262
 20
37.69265059151783
 30
0.0
  0
VERTEX
  5
90A
  8
LAYER_1
 10
32.85500604127537
 20
37.70247338768552
 30
0.0
  0
VERTEX
  5
90B
  8
LAYER_1
 10
32.87366017228354
 20
37.72365559593609
 30
0.0
  0
VERTEX
  5
90C
  8
LAYER_1
 10
32.89308594997148
 20
37.7445285929408
 30
0.0
  0
VERTEX
  5
90D
  8
LAYER_1
 10
32.91325468916465
 20
37.76505557515954
 30
0.0
  0
VERTEX
  5
90E
  8
LAYER_1
 10
32.93413770468847
 20
37.78519973905226
 30
0.0
  0
VERTEX
  5
90F
  8
LAYER_1
 10
32.95570631136837
 20
37.80492428107885
 30
0.0
  0
VERTEX
  5
910
  8
LAYER_1
 10
32.97793182402979
 20
37.82419239769926
 30
0.0
  0
VERTEX
  5
911
  8
LAYER_1
 10
33.00078555749816
 20
37.84296728537338
 30
0.0
  0
VERTEX
  5
912
  8
LAYER_1
 10
33.0242388265989
 20
37.86121214056116
 30
0.0
  0
VERTEX
  5
913
  8
LAYER_1
 10
33.04826294615746
 20
37.8788901597225
 30
0.0
  0
VERTEX
  5
914
  8
LAYER_1
 10
33.07282923099926
 20
37.89596453931733
 30
0.0
  0
VERTEX
  5
915
  8
LAYER_1
 10
33.09790899594973
 20
37.91239847580557
 30
0.0
  0
VERTEX
  5
916
  8
LAYER_1
 10
33.12347355583431
 20
37.92815516564715
 30
0.0
  0
VERTEX
  5
917
  8
LAYER_1
 10
33.14949422547842
 20
37.94319780530198
 30
0.0
  0
VERTEX
  5
918
  8
LAYER_1
 10
33.17594231970749
 20
37.95748959122996
 30
0.0
  0
VERTEX
  5
919
  8
LAYER_1
 10
33.20278915334695
 20
37.97099371989103
 30
0.0
  0
VERTEX
  5
91A
  8
LAYER_1
 10
33.23000604122225
 20
37.98367338774513
 30
0.0
  0
VERTEX
  5
91B
  8
LAYER_1
 10
33.24291007949491
 20
37.98922866300171
 30
0.0
  0
VERTEX
  5
91C
  8
LAYER_1
 10
33.25600484489597
 20
37.99444477390811
 30
0.0
  0
VERTEX
  5
91D
  8
LAYER_1
 10
33.26927621849794
 20
37.99933239722029
 30
0.0
  0
VERTEX
  5
91E
  8
LAYER_1
 10
33.28271008137328
 20
38.00390220969417
 30
0.0
  0
VERTEX
  5
91F
  8
LAYER_1
 10
33.29629231459451
 20
38.00816488808574
 30
0.0
  0
VERTEX
  5
920
  8
LAYER_1
 10
33.31000879923411
 20
38.01213110915091
 30
0.0
  0
VERTEX
  5
921
  8
LAYER_1
 10
33.33778804705841
 20
38.01921688632589
 30
0.0
  0
VERTEX
  5
922
  8
LAYER_1
 10
33.36593487342611
 20
38.02524495526674
 30
0.0
  0
VERTEX
  5
923
  8
LAYER_1
 10
33.39433632691715
 20
38.03030073002102
 30
0.0
  0
VERTEX
  5
924
  8
LAYER_1
 10
33.42287945611147
 20
38.03446962463634
 30
0.0
  0
VERTEX
  5
925
  8
LAYER_1
 10
33.45145130958902
 20
38.03783705316029
 30
0.0
  0
VERTEX
  5
926
  8
LAYER_1
 10
33.47993893592972
 20
38.04048842964046
 30
0.0
  0
VERTEX
  5
927
  8
LAYER_1
 10
33.50822938371353
 20
38.04250916812444
 30
0.0
  0
VERTEX
  5
928
  8
LAYER_1
 10
33.53620970152036
 20
38.04398468265983
 30
0.0
  0
VERTEX
  5
929
  8
LAYER_1
 10
33.56376693793018
 20
38.0450003872942
 30
0.0
  0
VERTEX
  5
92A
  8
LAYER_1
 10
33.6171603608785
 20
38.04599402305031
 30
0.0
  0
VERTEX
  5
92B
  8
LAYER_1
 10
33.66750604119798
 20
38.04617338777351
 30
0.0
  0
VERTEX
  5
92C
  8
LAYER_1
 10
37.82380604119356
 20
38.04617338780069
 30
0.0
  0
VERTEX
  5
92D
  8
LAYER_1
 10
37.83824004024403
 20
38.04589680860279
 30
0.0
  0
VERTEX
  5
92E
  8
LAYER_1
 10
37.85270224345666
 20
38.04507520068363
 30
0.0
  0
VERTEX
  5
92F
  8
LAYER_1
 10
37.86717860300203
 20
38.04372075855524
 30
0.0
  0
VERTEX
  5
930
  8
LAYER_1
 10
37.88165507105074
 20
38.04184567672971
 30
0.0
  0
VERTEX
  5
931
  8
LAYER_1
 10
37.89611759977339
 20
38.0394621497191
 30
0.0
  0
VERTEX
  5
932
  8
LAYER_1
 10
37.91055214134056
 20
38.0365823720355
 30
0.0
  0
VERTEX
  5
933
  8
LAYER_1
 10
37.92494464792284
 20
38.03321853819095
 30
0.0
  0
VERTEX
  5
934
  8
LAYER_1
 10
37.93928107169084
 20
38.02938284269754
 30
0.0
  0
VERTEX
  5
935
  8
LAYER_1
 10
37.95354736481515
 20
38.02508748006733
 30
0.0
  0
VERTEX
  5
936
  8
LAYER_1
 10
37.96772947946635
 20
38.02034464481237
 30
0.0
  0
VERTEX
  5
937
  8
LAYER_1
 10
37.98181336781505
 20
38.01516653144475
 30
0.0
  0
VERTEX
  5
938
  8
LAYER_1
 10
37.99578498203184
 20
38.00956533447653
 30
0.0
  0
VERTEX
  5
939
  8
LAYER_1
 10
38.0096302742873
 20
38.00355324841978
 30
0.0
  0
VERTEX
  5
93A
  8
LAYER_1
 10
38.02333519675204
 20
37.99714246778657
 30
0.0
  0
VERTEX
  5
93B
  8
LAYER_1
 10
38.03688570159665
 20
37.99034518708896
 30
0.0
  0
VERTEX
  5
93C
  8
LAYER_1
 10
38.05026774099171
 20
37.98317360083902
 30
0.0
  0
VERTEX
  5
93D
  8
LAYER_1
 10
38.06346726710782
 20
37.97563990354882
 30
0.0
  0
VERTEX
  5
93E
  8
LAYER_1
 10
38.07647023211559
 20
37.96775628973043
 30
0.0
  0
VERTEX
  5
93F
  8
LAYER_1
 10
38.08926258818559
 20
37.95953495389591
 30
0.0
  0
VERTEX
  5
940
  8
LAYER_1
 10
38.10183028748843
 20
37.95098809055735
 30
0.0
  0
VERTEX
  5
941
  8
LAYER_1
 10
38.11415928219471
 20
37.94212789422679
 30
0.0
  0
VERTEX
  5
942
  8
LAYER_1
 10
38.12623552447499
 20
37.93296655941631
 30
0.0
  0
VERTEX
  5
943
  8
LAYER_1
 10
38.13804496649989
 20
37.92351628063797
 30
0.0
  0
VERTEX
  5
944
  8
LAYER_1
 10
38.14957356043999
 20
37.91378925240385
 30
0.0
  0
VERTEX
  5
945
  8
LAYER_1
 10
38.16080725846589
 20
37.90379766922602
 30
0.0
  0
VERTEX
  5
946
  8
LAYER_1
 10
38.17173201274819
 20
37.89355372561653
 30
0.0
  0
VERTEX
  5
947
  8
LAYER_1
 10
38.18233377545748
 20
37.88306961608745
 30
0.0
  0
VERTEX
  5
948
  8
LAYER_1
 10
38.19259849876435
 20
37.87235753515087
 30
0.0
  0
VERTEX
  5
949
  8
LAYER_1
 10
38.2025121348394
 20
37.86142967731884
 30
0.0
  0
VERTEX
  5
94A
  8
LAYER_1
 10
38.21206063585322
 20
37.85029823710342
 30
0.0
  0
VERTEX
  5
94B
  8
LAYER_1
 10
38.22122995397639
 20
37.8389754090167
 30
0.0
  0
VERTEX
  5
94C
  8
LAYER_1
 10
38.23000604137951
 20
37.82747338757073
 30
0.0
  0
VERTEX
  5
94D
  8
LAYER_1
 10
40.542506041378
 20
34.70247338757656
 30
0.0
  0
VERTEX
  5
94E
  8
LAYER_1
 10
40.55970053942406
 20
34.67980038702681
 30
0.0
  0
VERTEX
  5
94F
  8
LAYER_1
 10
40.57740818158364
 20
34.65754852152381
 30
0.0
  0
VERTEX
  5
950
  8
LAYER_1
 10
40.59561822845563
 20
34.63571574046706
 30
0.0
  0
VERTEX
  5
951
  8
LAYER_1
 10
40.61431994063891
 20
34.61429999325608
 30
0.0
  0
VERTEX
  5
952
  8
LAYER_1
 10
40.63350257873239
 20
34.59329922929037
 30
0.0
  0
VERTEX
  5
953
  8
LAYER_1
 10
40.65315540333496
 20
34.57271139796941
 30
0.0
  0
VERTEX
  5
954
  8
LAYER_1
 10
40.67326767504549
 20
34.55253444869274
 30
0.0
  0
VERTEX
  5
955
  8
LAYER_1
 10
40.69382865446291
 20
34.53276633085983
 30
0.0
  0
VERTEX
  5
956
  8
LAYER_1
 10
40.71482760218608
 20
34.5134049938702
 30
0.0
  0
VERTEX
  5
957
  8
LAYER_1
 10
40.7362537788139
 20
34.49444838712336
 30
0.0
  0
VERTEX
  5
958
  8
LAYER_1
 10
40.75809644494526
 20
34.47589446001879
 30
0.0
  0
VERTEX
  5
959
  8
LAYER_1
 10
40.78034486117906
 20
34.45774116195602
 30
0.0
  0
VERTEX
  5
95A
  8
LAYER_1
 10
40.80298828811418
 20
34.43998644233453
 30
0.0
  0
VERTEX
  5
95B
  8
LAYER_1
 10
40.82601598634952
 20
34.42262825055384
 30
0.0
  0
VERTEX
  5
95C
  8
LAYER_1
 10
40.84941721648397
 20
34.40566453601344
 30
0.0
  0
VERTEX
  5
95D
  8
LAYER_1
 10
40.87318123911642
 20
34.38909324811284
 30
0.0
  0
VERTEX
  5
95E
  8
LAYER_1
 10
40.89729731484576
 20
34.37291233625155
 30
0.0
  0
VERTEX
  5
95F
  8
LAYER_1
 10
40.92175470427088
 20
34.35711974982907
 30
0.0
  0
VERTEX
  5
960
  8
LAYER_1
 10
40.94654266799068
 20
34.34171343824488
 30
0.0
  0
VERTEX
  5
961
  8
LAYER_1
 10
40.97165046660406
 20
34.32669135089852
 30
0.0
  0
VERTEX
  5
962
  8
LAYER_1
 10
40.99706736070989
 20
34.31205143718947
 30
0.0
  0
VERTEX
  5
963
  8
LAYER_1
 10
41.02278261090706
 20
34.29779164651724
 30
0.0
  0
VERTEX
  5
964
  8
LAYER_1
 10
41.04878547779448
 20
34.28390992828133
 30
0.0
  0
VERTEX
  5
965
  8
LAYER_1
 10
41.07506522197103
 20
34.27040423188125
 30
0.0
  0
VERTEX
  5
966
  8
LAYER_1
 10
41.10161110403561
 20
34.2572725067165
 30
0.0
  0
VERTEX
  5
967
  8
LAYER_1
 10
41.12841238458709
 20
34.24451270218658
 30
0.0
  0
VERTEX
  5
968
  8
LAYER_1
 10
41.1554583242244
 20
34.232122767691
 30
0.0
  0
VERTEX
  5
969
  8
LAYER_1
 10
41.18273818354639
 20
34.22010065262925
 30
0.0
  0
VERTEX
  5
96A
  8
LAYER_1
 10
41.21024122315198
 20
34.20844430640084
 30
0.0
  0
VERTEX
  5
96B
  8
LAYER_1
 10
41.23795670364005
 20
34.19715167840528
 30
0.0
  0
VERTEX
  5
96C
  8
LAYER_1
 10
41.26587388560949
 20
34.18622071804207
 30
0.0
  0
VERTEX
  5
96D
  8
LAYER_1
 10
41.2939820296592
 20
34.1756493747107
 30
0.0
  0
VERTEX
  5
96E
  8
LAYER_1
 10
41.32227039638808
 20
34.1654355978107
 30
0.0
  0
VERTEX
  5
96F
  8
LAYER_1
 10
41.35072824639499
 20
34.15557733674154
 30
0.0
  0
VERTEX
  5
970
  8
LAYER_1
 10
41.37934484027885
 20
34.14607254090276
 30
0.0
  0
VERTEX
  5
971
  8
LAYER_1
 10
41.40810943863855
 20
34.13691915969383
 30
0.0
  0
VERTEX
  5
972
  8
LAYER_1
 10
41.43701130207296
 20
34.12811514251428
 30
0.0
  0
VERTEX
  5
973
  8
LAYER_1
 10
41.46603969118098
 20
34.11965843876359
 30
0.0
  0
VERTEX
  5
974
  8
LAYER_1
 10
41.49518386656152
 20
34.11154699784127
 30
0.0
  0
VERTEX
  5
975
  8
LAYER_1
 10
41.52443308881345
 20
34.10377876914684
 30
0.0
  0
VERTEX
  5
976
  8
LAYER_1
 10
41.55377661853568
 20
34.09635170207979
 30
0.0
  0
VERTEX
  5
977
  8
LAYER_1
 10
41.58320371632708
 20
34.08926374603961
 30
0.0
  0
VERTEX
  5
978
  8
LAYER_1
 10
41.61270364278657
 20
34.08251285042583
 30
0.0
  0
VERTEX
  5
979
  8
LAYER_1
 10
41.64226565851301
 20
34.07609696463793
 30
0.0
  0
VERTEX
  5
97A
  8
LAYER_1
 10
41.67187902410532
 20
34.07001403807543
 30
0.0
  0
VERTEX
  5
97B
  8
LAYER_1
 10
41.70153300016236
 20
34.06426202013782
 30
0.0
  0
VERTEX
  5
97C
  8
LAYER_1
 10
41.73121684728304
 20
34.05883886022461
 30
0.0
  0
VERTEX
  5
97D
  8
LAYER_1
 10
41.76091982606626
 20
34.05374250773531
 30
0.0
  0
VERTEX
  5
97E
  8
LAYER_1
 10
41.7906311971109
 20
34.04897091206941
 30
0.0
  0
VERTEX
  5
97F
  8
LAYER_1
 10
41.82034022101585
 20
34.04452202262642
 30
0.0
  0
VERTEX
  5
980
  8
LAYER_1
 10
41.85003615838001
 20
34.04039378880584
 30
0.0
  0
VERTEX
  5
981
  8
LAYER_1
 10
41.87970826980226
 20
34.03658416000719
 30
0.0
  0
VERTEX
  5
982
  8
LAYER_1
 10
41.90934581588151
 20
34.03309108562995
 30
0.0
  0
VERTEX
  5
983
  8
LAYER_1
 10
41.93893805721664
 20
34.02991251507363
 30
0.0
  0
VERTEX
  5
984
  8
LAYER_1
 10
41.96847425440654
 20
34.02704639773773
 30
0.0
  0
VERTEX
  5
985
  8
LAYER_1
 10
41.9979436680501
 20
34.02449068302177
 30
0.0
  0
VERTEX
  5
986
  8
LAYER_1
 10
42.05663918709379
 20
34.02030225904763
 30
0.0
  0
VERTEX
  5
987
  8
LAYER_1
 10
42.11493869913882
 20
34.01733083834726
 30
0.0
  0
VERTEX
  5
988
  8
LAYER_1
 10
42.17275628897633
 20
34.01556001611666
 30
0.0
  0
VERTEX
  5
989
  8
LAYER_1
 10
42.23000604139747
 20
34.01497338755186
 30
0.0
  0
VERTEX
  5
98A
  8
LAYER_1
 10
57.60500604136288
 20
34.01497338758317
 30
0.0
  0
VERTEX
  5
98B
  8
LAYER_1
 10
57.63776974798788
 20
34.01477172466324
 30
0.0
  0
VERTEX
  5
98C
  8
LAYER_1
 10
57.67055106305421
 20
34.01416913041318
 30
0.0
  0
VERTEX
  5
98D
  8
LAYER_1
 10
57.70334477035242
 20
34.01316919659773
 30
0.0
  0
VERTEX
  5
98E
  8
LAYER_1
 10
57.73614565367303
 20
34.01177551498166
 30
0.0
  0
VERTEX
  5
98F
  8
LAYER_1
 10
57.76894849680662
 20
34.00999167732974
 30
0.0
  0
VERTEX
  5
990
  8
LAYER_1
 10
57.8017480835437
 20
34.00782127540671
 30
0.0
  0
VERTEX
  5
991
  8
LAYER_1
 10
57.83453919767483
 20
34.00526790097733
 30
0.0
  0
VERTEX
  5
992
  8
LAYER_1
 10
57.86731662299055
 20
34.00233514580637
 30
0.0
  0
VERTEX
  5
993
  8
LAYER_1
 10
57.9000751432814
 20
33.99902660165858
 30
0.0
  0
VERTEX
  5
994
  8
LAYER_1
 10
57.93280954233793
 20
33.99534586029873
 30
0.0
  0
VERTEX
  5
995
  8
LAYER_1
 10
57.96551460395068
 20
33.99129651349158
 30
0.0
  0
VERTEX
  5
996
  8
LAYER_1
 10
57.99818511191019
 20
33.98688215300187
 30
0.0
  0
VERTEX
  5
997
  8
LAYER_1
 10
58.030815850007
 20
33.98210637059439
 30
0.0
  0
VERTEX
  5
998
  8
LAYER_1
 10
58.06340160203166
 20
33.97697275803387
 30
0.0
  0
VERTEX
  5
999
  8
LAYER_1
 10
58.09593715177471
 20
33.97148490708507
 30
0.0
  0
VERTEX
  5
99A
  8
LAYER_1
 10
58.12841728302669
 20
33.96564640951278
 30
0.0
  0
VERTEX
  5
99B
  8
LAYER_1
 10
58.16083677957815
 20
33.95946085708174
 30
0.0
  0
VERTEX
  5
99C
  8
LAYER_1
 10
58.19319042521963
 20
33.95293184155669
 30
0.0
  0
VERTEX
  5
99D
  8
LAYER_1
 10
58.22547300374167
 20
33.94606295470242
 30
0.0
  0
VERTEX
  5
99E
  8
LAYER_1
 10
58.25767929893482
 20
33.93885778828368
 30
0.0
  0
VERTEX
  5
99F
  8
LAYER_1
 10
58.28980409458961
 20
33.93131993406523
 30
0.0
  0
VERTEX
  5
9A0
  8
LAYER_1
 10
58.3218421744966
 20
33.92345298381183
 30
0.0
  0
VERTEX
  5
9A1
  8
LAYER_1
 10
58.35378832244631
 20
33.91526052928823
 30
0.0
  0
VERTEX
  5
9A2
  8
LAYER_1
 10
58.38563732222931
 20
33.90674616225919
 30
0.0
  0
VERTEX
  5
9A3
  8
LAYER_1
 10
58.41738395763613
 20
33.89791347448948
 30
0.0
  0
VERTEX
  5
9A4
  8
LAYER_1
 10
58.4490230124573
 20
33.88876605774385
 30
0.0
  0
VERTEX
  5
9A5
  8
LAYER_1
 10
58.48054927048339
 20
33.87930750378708
 30
0.0
  0
VERTEX
  5
9A6
  8
LAYER_1
 10
58.51195751550492
 20
33.8695414043839
 30
0.0
  0
VERTEX
  5
9A7
  8
LAYER_1
 10
58.54324253131244
 20
33.85947135129908
 30
0.0
  0
VERTEX
  5
9A8
  8
LAYER_1
 10
58.5743991016965
 20
33.84910093629738
 30
0.0
  0
VERTEX
  5
9A9
  8
LAYER_1
 10
58.60542201044763
 20
33.83843375114357
 30
0.0
  0
VERTEX
  5
9AA
  8
LAYER_1
 10
58.63630604135639
 20
33.8274733876024
 30
0.0
  0
VERTEX
  5
9AB
  8
LAYER_1
 10
67.48000604135652
 20
30.63997338760052
 30
0.0
  0
VERTEX
  5
9AC
  8
LAYER_1
 10
67.49247559774405
 20
30.63531563536397
 30
0.0
  0
VERTEX
  5
9AD
  8
LAYER_1
 10
67.50489208010394
 20
30.63035272531835
 30
0.0
  0
VERTEX
  5
9AE
  8
LAYER_1
 10
67.52954748034753
 20
30.61953310943879
 30
0.0
  0
VERTEX
  5
9AF
  8
LAYER_1
 10
67.55393555730059
 20
30.60755789523953
 30
0.0
  0
VERTEX
  5
9B0
  8
LAYER_1
 10
67.57801962617643
 20
30.59447043799826
 30
0.0
  0
VERTEX
  5
9B1
  8
LAYER_1
 10
67.60176300218833
 20
30.58031409299266
 30
0.0
  0
VERTEX
  5
9B2
  8
LAYER_1
 10
67.6251290005496
 20
30.56513221550043
 30
0.0
  0
VERTEX
  5
9B3
  8
LAYER_1
 10
67.64808093647358
 20
30.54896816079924
 30
0.0
  0
VERTEX
  5
9B4
  8
LAYER_1
 10
67.67058212517352
 20
30.53186528416681
 30
0.0
  0
VERTEX
  5
9B5
  8
LAYER_1
 10
67.69259588186276
 20
30.5138669408808
 30
0.0
  0
VERTEX
  5
9B6
  8
LAYER_1
 10
67.71408552175458
 20
30.49501648621891
 30
0.0
  0
VERTEX
  5
9B7
  8
LAYER_1
 10
67.73501436006231
 20
30.47535727545883
 30
0.0
  0
VERTEX
  5
9B8
  8
LAYER_1
 10
67.75534571199923
 20
30.45493266387824
 30
0.0
  0
VERTEX
  5
9B9
  8
LAYER_1
 10
67.77504289277864
 20
30.43378600675484
 30
0.0
  0
VERTEX
  5
9BA
  8
LAYER_1
 10
67.79406921761387
 20
30.41196065936632
 30
0.0
  0
VERTEX
  5
9BB
  8
LAYER_1
 10
67.81238800171822
 20
30.38949997699036
 30
0.0
  0
VERTEX
  5
9BC
  8
LAYER_1
 10
67.82996256030496
 20
30.36644731490465
 30
0.0
  0
VERTEX
  5
9BD
  8
LAYER_1
 10
67.84675620858742
 20
30.34284602838688
 30
0.0
  0
VERTEX
  5
9BE
  8
LAYER_1
 10
67.86273226177892
 20
30.31873947271475
 30
0.0
  0
VERTEX
  5
9BF
  8
LAYER_1
 10
67.87785403509272
 20
30.29417100316592
 30
0.0
  0
VERTEX
  5
9C0
  8
LAYER_1
 10
67.89208484374215
 20
30.26918397501811
 30
0.0
  0
VERTEX
  5
9C1
  8
LAYER_1
 10
67.90538800294053
 20
30.24382174354899
 30
0.0
  0
VERTEX
  5
9C2
  8
LAYER_1
 10
67.9177268279011
 20
30.21812766403626
 30
0.0
  0
VERTEX
  5
9C3
  8
LAYER_1
 10
67.92906463383721
 20
30.1921450917576
 30
0.0
  0
VERTEX
  5
9C4
  8
LAYER_1
 10
67.93936473596219
 20
30.1659173819907
 30
0.0
  0
VERTEX
  5
9C5
  8
LAYER_1
 10
67.9485904494893
 20
30.13948789001325
 30
0.0
  0
VERTEX
  5
9C6
  8
LAYER_1
 10
67.95670508963184
 20
30.11289997110295
 30
0.0
  0
VERTEX
  5
9C7
  8
LAYER_1
 10
67.96367197160316
 20
30.08619698053747
 30
0.0
  0
VERTEX
  5
9C8
  8
LAYER_1
 10
67.9694544106165
 20
30.0594222735945
 30
0.0
  0
VERTEX
  5
9C9
  8
LAYER_1
 10
67.97189000001809
 20
30.04602157500574
 30
0.0
  0
VERTEX
  5
9CA
  8
LAYER_1
 10
67.97401572188521
 20
30.03261920555174
 30
0.0
  0
VERTEX
  5
9CB
  8
LAYER_1
 10
67.97582699061948
 20
30.01922058464222
 30
0.0
  0
VERTEX
  5
9CC
  8
LAYER_1
 10
67.97731922062258
 20
30.00583113168688
 30
0.0
  0
VERTEX
  5
9CD
  8
LAYER_1
 10
67.97848782629617
 20
29.99245626609544
 30
0.0
  0
VERTEX
  5
9CE
  8
LAYER_1
 10
67.97932822204191
 20
29.9791014072776
 30
0.0
  0
VERTEX
  5
9CF
  8
LAYER_1
 10
67.97983582226146
 20
29.96577197464309
 30
0.0
  0
VERTEX
  5
9D0
  8
LAYER_1
 10
67.98000604135652
 20
29.9524733876016
 30
0.0
  0
VERTEX
  5
9D1
  8
LAYER_1
 10
67.98000604135652
 20
1.077473387601747
 30
0.0
  0
VERTEX
  5
9D2
  8
LAYER_1
 10
4.480006041360198
 20
1.077473387601788
 30
0.0
  0
VERTEX
  5
9D3
  8
LAYER_1
 10
1.042506040939642
 20
20.6399733877233
 30
0.0
  0
VERTEX
  5
9D4
  8
LAYER_1
 10
1.034704880389801
 20
20.68362611393513
 30
0.0
  0
VERTEX
  5
9D5
  8
LAYER_1
 10
1.026574564490363
 20
20.73013210972255
 30
0.0
  0
VERTEX
  5
9D6
  8
LAYER_1
 10
1.022611562766252
 20
20.75432721898565
 30
0.0
  0
VERTEX
  5
9D7
  8
LAYER_1
 10
1.018836979582789
 20
20.77908220797688
 30
0.0
  0
VERTEX
  5
9D8
  8
LAYER_1
 10
1.015341050732658
 20
20.80434593080768
 30
0.0
  0
VERTEX
  5
9D9
  8
LAYER_1
 10
1.012214012008542
 20
20.83006724158944
 30
0.0
  0
VERTEX
  5
9DA
  8
LAYER_1
 10
1.009546099203122
 20
20.85619499443359
 30
0.0
  0
VERTEX
  5
9DB
  8
LAYER_1
 10
1.007427548109082
 20
20.88267804345153
 30
0.0
  0
VERTEX
  5
9DC
  8
LAYER_1
 10
1.005948594519105
 20
20.90946524275469
 30
0.0
  0
VERTEX
  5
9DD
  8
LAYER_1
 10
1.005199474225873
 20
20.93650544645448
 30
0.0
  0
VERTEX
  5
9DE
  8
LAYER_1
 10
1.005270423022069
 20
20.96374750866232
 30
0.0
  0
VERTEX
  5
9DF
  8
LAYER_1
 10
1.006251676700375
 20
20.9911402834896
 30
0.0
  0
VERTEX
  5
9E0
  8
LAYER_1
 10
1.008233471053475
 20
21.01863262504775
 30
0.0
  0
VERTEX
  5
9E1
  8
LAYER_1
 10
1.01130604187405
 20
21.04617338744819
 30
0.0
  0
VERTEX
  5
9E2
  8
LAYER_1
 10
1.014292459186172
 20
21.06506887906588
 30
0.0
  0
VERTEX
  5
9E3
  8
LAYER_1
 10
1.018192893819836
 20
21.08371228435696
 30
0.0
  0
VERTEX
  5
9E4
  8
LAYER_1
 10
1.02297228167303
 20
21.10207622007272
 30
0.0
  0
VERTEX
  5
9E5
  8
LAYER_1
 10
1.028595558643738
 20
21.12013330296444
 30
0.0
  0
VERTEX
  5
9E6
  8
LAYER_1
 10
1.035027660629947
 20
21.13785614978342
 30
0.0
  0
VERTEX
  5
9E7
  8
LAYER_1
 10
1.042233523529641
 20
21.15521737728094
 30
0.0
  0
VERTEX
  5
9E8
  8
LAYER_1
 10
1.050178083240807
 20
21.1721896022083
 30
0.0
  0
VERTEX
  5
9E9
  8
LAYER_1
 10
1.05882627566143
 20
21.18874544131676
 30
0.0
  0
VERTEX
  5
9EA
  8
LAYER_1
 10
1.068143036689495
 20
21.20485751135763
 30
0.0
  0
VERTEX
  5
9EB
  8
LAYER_1
 10
1.078093302222988
 20
21.22049842908219
 30
0.0
  0
VERTEX
  5
9EC
  8
LAYER_1
 10
1.088642008159895
 20
21.23564081124174
 30
0.0
  0
VERTEX
  5
9ED
  8
LAYER_1
 10
1.099754090398201
 20
21.25025727458754
 30
0.0
  0
VERTEX
  5
9EE
  8
LAYER_1
 10
1.111394484835891
 20
21.26432043587091
 30
0.0
  0
VERTEX
  5
9EF
  8
LAYER_1
 10
1.123528127370952
 20
21.27780291184311
 30
0.0
  0
VERTEX
  5
9F0
  8
LAYER_1
 10
1.136119953901368
 20
21.29067731925544
 30
0.0
  0
VERTEX
  5
9F1
  8
LAYER_1
 10
1.149134900325127
 20
21.3029162748592
 30
0.0
  0
VERTEX
  5
9F2
  8
LAYER_1
 10
1.162537902540211
 20
21.31449239540565
 30
0.0
  0
VERTEX
  5
9F3
  8
LAYER_1
 10
1.176293896444609
 20
21.3253782976461
 30
0.0
  0
VERTEX
  5
9F4
  8
LAYER_1
 10
1.190367817936304
 20
21.33554659833183
 30
0.0
  0
VERTEX
  5
9F5
  8
LAYER_1
 10
1.204724602913283
 20
21.34496991421413
 30
0.0
  0
VERTEX
  5
9F6
  8
LAYER_1
 10
1.219329187273531
 20
21.35362086204428
 30
0.0
  0
VERTEX
  5
9F7
  8
LAYER_1
 10
1.234146506915034
 20
21.36147205857357
 30
0.0
  0
VERTEX
  5
9F8
  8
LAYER_1
 10
1.249141497735777
 20
21.3684961205533
 30
0.0
  0
VERTEX
  5
9F9
  8
LAYER_1
 10
1.264279095633746
 20
21.37466566473474
 30
0.0
  0
VERTEX
  5
9FA
  8
LAYER_1
 10
1.279524236506926
 20
21.37995330786918
 30
0.0
  0
VERTEX
  5
9FB
  8
LAYER_1
 10
1.294841856253304
 20
21.38433166670792
 30
0.0
  0
VERTEX
  5
9FC
  8
LAYER_1
 10
1.310196890770863
 20
21.38777335800224
 30
0.0
  0
VERTEX
  5
9FD
  8
LAYER_1
 10
1.325554275957591
 20
21.39025099850342
 30
0.0
  0
VERTEX
  5
9FE
  8
LAYER_1
 10
1.340878947711472
 20
21.39173720496276
 30
0.0
  0
VERTEX
  5
9FF
  8
LAYER_1
 10
1.356135841930493
 20
21.39220459413155
 30
0.0
  0
VERTEX
  5
A00
  8
LAYER_1
 10
1.371289894512638
 20
21.39162578276106
 30
0.0
  0
SEQEND
  5
AE6
  8
LAYER_1
  0
POLYLINE
  5
F0
  8
LAYER_1
 66
     1
 10
0.0
 20
0.0
 30
0.0
 70
     1
  0
VERTEX
  5
A01
  8
LAYER_1
 10
55.23000604135652
 20
0.9524733876017493
 30
0.0
  0
VERTEX
  5
A02
  8
LAYER_1
 10
8.980006041356503
 20
0.9524733876017883
 30
0.0
  0
VERTEX
  5
A03
  8
LAYER_1
 10
8.980006041356503
 20
1.827473387601788
 30
0.0
  0
VERTEX
  5
A04
  8
LAYER_1
 10
55.23000604135652
 20
1.827473387601749
 30
0.0
  0
SEQEND
  5
AE7
  8
LAYER_1
  0
POLYLINE
  5
F1
  8
LAYER_1
 66
     1
 10
0.0
 20
0.0
 30
0.0
 70
     1
  0
VERTEX
  5
A05
  8
LAYER_1
 10
7.886306041356519
 20
16.07747338760178
 30
0.0
 42
0.4142135623730951
  0
VERTEX
  5
A06
  8
LAYER_1
 10
8.07380604135652
 20
15.88997338760178
 30
0.0
 42
0.4142135623730951
  0
VERTEX
  5
A07
  8
LAYER_1
 10
8.26130604135652
 20
16.07747338760178
 30
0.0
  0
VERTEX
  5
A08
  8
LAYER_1
 10
8.261306041356534
 20
19.17117338760178
 30
0.0
 42
0.4142135623730951
  0
VERTEX
  5
A09
  8
LAYER_1
 10
8.073806041356534
 20
19.35867338760178
 30
0.0
 42
0.4142135623730951
  0
VERTEX
  5
A0A
  8
LAYER_1
 10
7.886306041356534
 20
19.17117338760178
 30
0.0
  0
SEQEND
  5
AE8
  8
LAYER_1
  0
POLYLINE
  5
F2
  8
LAYER_1
 66
     1
 10
0.0
 20
0.0
 30
0.0
 70
     1
  0
VERTEX
  5
A0B
  8
LAYER_1
 10
12.41750604135652
 20
14.20247338760178
 30
0.0
 42
-0.4142135623730951
  0
VERTEX
  5
A0C
  8
LAYER_1
 10
12.60500604135652
 20
14.01497338760178
 30
0.0
 42
-0.4142135623730951
  0
VERTEX
  5
A0D
  8
LAYER_1
 10
12.41750604135652
 20
13.82747338760178
 30
0.0
 42
-0.4142135623730951
  0
VERTEX
  5
A0E
  8
LAYER_1
 10
12.23000604135652
 20
14.01497338760178
 30
0.0
 42
-0.4142135623730951
  0
SEQEND
  5
AE9
  8
LAYER_1
  0
POLYLINE
  5
F3
  8
LAYER_1
 66
     1
 10
0.0
 20
0.0
 30
0.0
 70
     1
  0
VERTEX
  5
A0F
  8
LAYER_1
 10
21.41750604135652
 20
14.26497338760178
 30
0.0
 42
-0.4142135623730951
  0
VERTEX
  5
A10
  8
LAYER_1
 10
21.60500604135652
 20
14.07747338760178
 30
0.0
 42
-0.4142135623730951
  0
VERTEX
  5
A11
  8
LAYER_1
 10
21.41750604135652
 20
13.88997338760178
 30
0.0
 42
-0.4142135623730951
  0
VERTEX
  5
A12
  8
LAYER_1
 10
21.23000604135652
 20
14.07747338760178
 30
0.0
 42
-0.4142135623730951
  0
SEQEND
  5
AEA
  8
LAYER_1
  0
POLYLINE
  5
F4
  8
LAYER_1
 66
     1
 10
0.0
 20
0.0
 30
0.0
 70
     1
  0
VERTEX
  5
A13
  8
LAYER_1
 10
24.82380604135652
 20
17.63997338760178
 30
0.0
 42
0.4142135623730951
  0
VERTEX
  5
A14
  8
LAYER_1
 10
25.01130604135652
 20
17.45247338760178
 30
0.0
 42
0.4142135623730951
  0
VERTEX
  5
A15
  8
LAYER_1
 10
25.19880604135653
 20
17.63997338760178
 30
0.0
  0
VERTEX
  5
A16
  8
LAYER_1
 10
25.19880604135653
 20
18.76497338760178
 30
0.0
 42
0.4142135623730951
  0
VERTEX
  5
A17
  8
LAYER_1
 10
25.01130604135653
 20
18.95247338760178
 30
0.0
 42
0.4142135623730951
  0
VERTEX
  5
A18
  8
LAYER_1
 10
24.82380604135652
 20
18.76497338760178
 30
0.0
  0
SEQEND
  5
AEB
  8
LAYER_1
  0
POLYLINE
  5
F5
  8
LAYER_1
 66
     1
 10
0.0
 20
0.0
 30
0.0
 70
     1
  0
VERTEX
  5
A19
  8
LAYER_1
 10
34.44880604135651
 20
7.952473387601781
 30
0.0
 42
-0.4142135623730951
  0
VERTEX
  5
A1A
  8
LAYER_1
 10
34.63630604135651
 20
7.764973387601781
 30
0.0
 42
-0.4142135623730951
  0
VERTEX
  5
A1B
  8
LAYER_1
 10
34.44880604135651
 20
7.577473387601781
 30
0.0
  0
VERTEX
  5
A1C
  8
LAYER_1
 10
30.26130604135651
 20
7.577473387601781
 30
0.0
 42
-0.4142135623730951
  0
VERTEX
  5
A1D
  8
LAYER_1
 10
30.07380604135651
 20
7.764973387601781
 30
0.0
 42
-0.4142135623730951
  0
VERTEX
  5
A1E
  8
LAYER_1
 10
30.26130604135651
 20
7.952473387601781
 30
0.0
  0
SEQEND
  5
AEC
  8
LAYER_1
  0
POLYLINE
  5
F6
  8
LAYER_1
 66
     1
 10
0.0
 20
0.0
 30
0.0
 70
     1
  0
VERTEX
  5
A1F
  8
LAYER_1
 10
36.88630604135651
 20
8.139973387601781
 30
0.0
 42
-0.4142135623730951
  0
VERTEX
  5
A20
  8
LAYER_1
 10
37.07380604135651
 20
8.327473387601781
 30
0.0
 42
-0.4142135623730951
  0
VERTEX
  5
A21
  8
LAYER_1
 10
37.26130604135651
 20
8.139973387601781
 30
0.0
  0
VERTEX
  5
A22
  8
LAYER_1
 10
37.26130604135651
 20
5.014973387601778
 30
0.0
 42
-0.4142135623730951
  0
VERTEX
  5
A23
  8
LAYER_1
 10
37.07380604135651
 20
4.827473387601778
 30
0.0
 42
-0.4142135623730951
  0
VERTEX
  5
A24
  8
LAYER_1
 10
36.88630604135651
 20
5.014973387601778
 30
0.0
  0
SEQEND
  5
AED
  8
LAYER_1
  0
POLYLINE
  5
F7
  8
LAYER_1
 66
     1
 10
0.0
 20
0.0
 30
0.0
 70
     1
  0
VERTEX
  5
A25
  8
LAYER_1
 10
38.94880604135653
 20
14.88997338760177
 30
0.0
 42
-0.4142135623730951
  0
VERTEX
  5
A26
  8
LAYER_1
 10
39.13630604135653
 20
14.70247338760176
 30
0.0
 42
-0.4142135623730951
  0
VERTEX
  5
A27
  8
LAYER_1
 10
38.94880604135653
 20
14.51497338760177
 30
0.0
 42
-0.4142135623730951
  0
VERTEX
  5
A28
  8
LAYER_1
 10
38.76130604135653
 20
14.70247338760177
 30
0.0
 42
-0.4142135623730951
  0
SEQEND
  5
AEE
  8
LAYER_1
  0
POLYLINE
  5
F8
  8
LAYER_1
 66
     1
 10
0.0
 20
0.0
 30
0.0
 70
     1
  0
VERTEX
  5
A29
  8
LAYER_1
 10
38.94880604135653
 20
26.88997338760177
 30
0.0
 42
-0.4142135623730951
  0
VERTEX
  5
A2A
  8
LAYER_1
 10
39.13630604135653
 20
26.70247338760177
 30
0.0
 42
-0.4142135623730951
  0
VERTEX
  5
A2B
  8
LAYER_1
 10
38.94880604135653
 20
26.51497338760177
 30
0.0
 42
-0.4142135623730951
  0
VERTEX
  5
A2C
  8
LAYER_1
 10
38.76130604135653
 20
26.70247338760177
 30
0.0
 42
-0.4142135623730951
  0
SEQEND
  5
AEF
  8
LAYER_1
  0
POLYLINE
  5
F9
  8
LAYER_1
 66
     1
 10
0.0
 20
0.0
 30
0.0
 70
     1
  0
VERTEX
  5
A2D
  8
LAYER_1
 10
66.26130604135653
 20
21.32747338760176
 30
0.0
 42
0.4142135623730951
  0
VERTEX
  5
A2E
  8
LAYER_1
 10
66.44880604135653
 20
21.13997338760176
 30
0.0
 42
0.4142135623730951
  0
VERTEX
  5
A2F
  8
LAYER_1
 10
66.63630604135653
 20
21.32747338760176
 30
0.0
  0
VERTEX
  5
A30
  8
LAYER_1
 10
66.63630604135656
 20
24.26497338760174
 30
0.0
 42
0.4142135623730951
  0
VERTEX
  5
A31
  8
LAYER_1
 10
66.44880604135656
 20
24.45247338760174
 30
0.0
 42
0.4142135623730951
  0
VERTEX
  5
A32
  8
LAYER_1
 10
66.26130604135656
 20
24.26497338760174
 30
0.0
  0
SEQEND
  5
AF0
  8
LAYER_1
  0
POLYLINE
  5
FA
  8
LAYER_1
 66
     1
 10
0.0
 20
0.0
 30
0.0
 70
     1
  0
VERTEX
  5
A33
  8
LAYER_1
 10
66.26130604135653
 20
4.202473387601749
 30
0.0
 42
0.4142135623730951
  0
VERTEX
  5
A34
  8
LAYER_1
 10
66.44880604135653
 20
4.014973387601749
 30
0.0
 42
0.4142135623730951
  0
VERTEX
  5
A35
  8
LAYER_1
 10
66.63630604135653
 20
4.202473387601749
 30
0.0
  0
VERTEX
  5
A36
  8
LAYER_1
 10
66.63630604135653
 20
7.089973387601752
 30
0.0
 42
0.4142135623730951
  0
VERTEX
  5
A37
  8
LAYER_1
 10
66.44880604135653
 20
7.264973387601749
 30
0.0
 42
0.4142135623730951
  0
VERTEX
  5
A38
  8
LAYER_1
 10
66.26130604135653
 20
7.077473387601749
 30
0.0
  0
SEQEND
  5
AF1
  8
LAYER_1
  0
POLYLINE
  5
FB
  8
LAYER_1
 66
     1
 10
0.0
 20
0.0
 30
0.0
 70
     1
  0
VERTEX
  5
A39
  8
LAYER_1
 10
52.23000604135652
 20
1.827473387601749
 30
0.0
  0
VERTEX
  5
A3A
  8
LAYER_1
 10
52.23000604135652
 20
3.077473387601749
 30
0.0
  0
VERTEX
  5
A3B
  8
LAYER_1
 10
50.60500604135652
 20
3.077473387601749
 30
0.0
  0
VERTEX
  5
A3C
  8
LAYER_1
 10
50.60500604135652
 20
1.827473387601749
 30
0.0
  0
SEQEND
  5
AF2
  8
LAYER_1
  0
POLYLINE
  5
FC
  8
LAYER_1
 66
     1
 10
0.0
 20
0.0
 30
0.0
 70
     1
  0
VERTEX
  5
A3D
  8
LAYER_1
 10
52.23000604135652
 20
1.514973387601749
 30
0.0
  0
VERTEX
  5
A3E
  8
LAYER_1
 10
52.23000604135652
 20
1.889973387601749
 30
0.0
  0
VERTEX
  5
A3F
  8
LAYER_1
 10
50.60500604135652
 20
1.889973387601749
 30
0.0
  0
VERTEX
  5
A40
  8
LAYER_1
 10
50.60500604135652
 20
1.514973387601749
 30
0.0
  0
SEQEND
  5
AF3
  8
LAYER_1
  0
POLYLINE
  5
FD
  8
LAYER_1
 66
     1
 10
0.0
 20
0.0
 30
0.0
 70
     1
  0
VERTEX
  5
A41
  8
LAYER_1
 10
132.6962664118407
 20
-41.12468370562259
 30
0.0
  0
VERTEX
  5
A42
  8
LAYER_1
 10
108.0127034487301
 20
-37.57494770190003
 30
0.0
  0
VERTEX
  5
A43
  8
LAYER_1
 10
103.4352120446992
 20
-36.47465912791219
 30
0.0
  0
VERTEX
  5
A44
  8
LAYER_1
 10
104.0696604863661
 20
-33.81922980954074
 30
0.0
  0
VERTEX
  5
A45
  8
LAYER_1
 10
105.2543773318933
 20
-33.48445974528504
 30
0.0
  0
VERTEX
  5
A46
  8
LAYER_1
 10
109.5359028937689
 20
-34.44742057162059
 30
0.0
  0
VERTEX
  5
A47
  8
LAYER_1
 10
109.6240437005806
 20
-34.71266799984535
 30
0.0
  0
VERTEX
  5
A48
  8
LAYER_1
 10
124.7766709153862
 20
-31.65089547585519
 30
0.0
  0
VERTEX
  5
A49
  8
LAYER_1
 10
128.6295926864555
 20
-32.5206979396374
 30
0.0
  0
VERTEX
  5
A4A
  8
LAYER_1
 10
133.2923373698593
 20
-36.97982476194227
 30
0.0
  0
VERTEX
  5
A4B
  8
LAYER_1
 10
132.7335027533612
 20
-39.10946325741596
 30
0.0
  0
VERTEX
  5
A4C
  8
LAYER_1
 10
133.1487545547004
 20
-39.29546646030388
 30
0.0
  0
SEQEND
  5
AF4
  8
LAYER_1
  0
POLYLINE
  5
FE
  8
LAYER_1
 66
     1
 10
0.0
 20
0.0
 30
0.0
 70
     1
  0
VERTEX
  5
A4D
  8
LAYER_1
 10
109.2685929459636
 20
-36.74526910705629
 30
0.0
  0
VERTEX
  5
A4E
  8
LAYER_1
 10
107.7927639356566
 20
-36.46988758562085
 30
0.0
  0
VERTEX
  5
A4F
  8
LAYER_1
 10
108.1886214126135
 20
-34.60976172534877
 30
0.0
  0
VERTEX
  5
A50
  8
LAYER_1
 10
109.6592175224917
 20
-34.90715528027273
 30
0.0
  0
SEQEND
  5
AF5
  8
LAYER_1
  0
POLYLINE
  5
FF
  8
LAYER_1
 66
     1
 10
0.0
 20
0.0
 30
0.0
 70
     1
  0
VERTEX
  5
A51
  8
LAYER_1
 10
106.9546012632685
 20
-34.8339201089847
 30
0.0
 42
-0.4142135623730951
  0
VERTEX
  5
A52
  8
LAYER_1
 10
107.5372380967354
 20
-35.61228173463675
 30
0.0
 42
-0.4142135623730951
  0
VERTEX
  5
A53
  8
LAYER_1
 10
106.7588764710833
 20
-36.19491856810361
 30
0.0
 42
-0.4142135623730951
  0
VERTEX
  5
A54
  8
LAYER_1
 10
106.1762396376164
 20
-35.41655694245154
 30
0.0
 42
-0.4142135623730951
  0
SEQEND
  5
AF6
  8
LAYER_1
  0
POLYLINE
  5
100
  8
LAYER_1
 66
     1
 10
0.0
 20
0.0
 30
0.0
 70
     1
  0
VERTEX
  5
A55
  8
LAYER_1
 10
130.2093797479796
 20
-44.95642609668677
 30
0.0
 42
0.4142135623730951
  0
VERTEX
  5
A56
  8
LAYER_1
 10
129.5218797479796
 20
-45.64392609668677
 30
0.0
 42
0.4142135623730951
  0
VERTEX
  5
A57
  8
LAYER_1
 10
130.2093797479796
 20
-46.33142609668677
 30
0.0
 42
0.4142135623730951
  0
VERTEX
  5
A58
  8
LAYER_1
 10
130.8968797479796
 20
-45.64392609668677
 30
0.0
 42
0.4142135623730951
  0
SEQEND
  5
AF7
  8
LAYER_1
  0
POLYLINE
  5
101
  8
LAYER_1
 66
     1
 10
0.0
 20
0.0
 30
0.0
 70
     1
  0
VERTEX
  5
A59
  8
LAYER_1
 10
103.8343797479796
 20
-47.51892609668677
 30
0.0
  0
VERTEX
  5
A5A
  8
LAYER_1
 10
128.7718797479789
 20
-47.51892609668677
 30
0.0
  0
VERTEX
  5
A5B
  8
LAYER_1
 10
133.4593797479816
 20
-47.08142609668673
 30
0.0
  0
VERTEX
  5
A5C
  8
LAYER_1
 10
133.2093797479828
 20
-44.36272609668656
 30
0.0
  0
VERTEX
  5
A5D
  8
LAYER_1
 10
132.0843797479839
 20
-43.86272609668638
 30
0.0
  0
VERTEX
  5
A5E
  8
LAYER_1
 10
127.7093797479781
 20
-44.20642609668694
 30
0.0
  0
VERTEX
  5
A5F
  8
LAYER_1
 10
127.5843797479613
 20
-44.45642609668907
 30
0.0
  0
VERTEX
  5
A60
  8
LAYER_1
 10
113.0218797479778
 20
-39.26892609668833
 30
0.0
  0
VERTEX
  5
A61
  8
LAYER_1
 10
109.0843797479799
 20
-39.58142609668616
 30
0.0
  0
VERTEX
  5
A62
  8
LAYER_1
 10
103.8343797479796
 20
-43.33142609668678
 30
0.0
  0
VERTEX
  5
A63
  8
LAYER_1
 10
104.0843797479796
 20
-45.51892609668677
 30
0.0
  0
VERTEX
  5
A64
  8
LAYER_1
 10
103.6468797479796
 20
-45.64392609668677
 30
0.0
  0
SEQEND
  5
AF8
  8
LAYER_1
  0
ENDSEC
  0
EOF
