  0
SECTION
  2
HEADER
  9
$ACADVER
  1
AC1009
  9
$DWGCODEPAGE
  3
ansi_1252
  9
$INSBASE
 10
0.0
 20
0.0
 30
0.0
  9
$EXTMIN
 10
0.4852358235446346
 20
-38.76114691145609
 30
0.0
  9
$EXTMAX
 10
163.5502741911303
 20
49.28504847246629
 30
0.0
  9
$LIMMIN
 10
0.0
 20
0.0
  9
$LIMMAX
 10
12.0
 20
9.0
  9
$ORTHOMODE
 70
     0
  9
$REGENMODE
 70
     1
  9
$FILLMODE
 70
     1
  9
$QTEXTMODE
 70
     0
  9
$MIRRTEXT
 70
     1
  9
$DRAGMODE
 70
     2
  9
$LTSCALE
 40
1.0
  9
$OSMODE
 70
    37
  9
$ATTMODE
 70
     1
  9
$TEXTSIZE
 40
0.2
  9
$TRACEWID
 40
0.05
  9
$TEXTSTYLE
  7
STANDARD
  9
$CLAYER
  8
0
  9
$CELTYPE
  6
BYLAYER
  9
$CECOLOR
 62
   256
  9
$DIMSCALE
 40
1.0
  9
$DIMASZ
 40
0.18
  9
$DIMEXO
 40
0.0625
  9
$DIMDLI
 40
0.38
  9
$DIMRND
 40
0.0
  9
$DIMDLE
 40
0.0
  9
$DIMEXE
 40
0.18
  9
$DIMTP
 40
0.0
  9
$DIMTM
 40
0.0
  9
$DIMTXT
 40
0.18
  9
$DIMCEN
 40
0.09
  9
$DIMTSZ
 40
0.0
  9
$DIMTOL
 70
     0
  9
$DIMLIM
 70
     0
  9
$DIMTIH
 70
     1
  9
$DIMTOH
 70
     1
  9
$DIMSE1
 70
     0
  9
$DIMSE2
 70
     0
  9
$DIMTAD
 70
     0
  9
$DIMZIN
 70
     0
  9
$DIMBLK
  1

  9
$DIMASO
 70
     1
  9
$DIMSHO
 70
     1
  9
$DIMPOST
  1

  9
$DIMAPOST
  1

  9
$DIMALT
 70
     0
  9
$DIMALTD
 70
     2
  9
$DIMALTF
 40
25.4
  9
$DIMLFAC
 40
1.0
  9
$DIMTOFL
 70
     0
  9
$DIMTVP
 40
0.0
  9
$DIMTIX
 70
     0
  9
$DIMSOXD
 70
     0
  9
$DIMSAH
 70
     0
  9
$DIMBLK1
  1

  9
$DIMBLK2
  1

  9
$DIMSTYLE
  2
STANDARD
  9
$DIMCLRD
 70
     0
  9
$DIMCLRE
 70
     0
  9
$DIMCLRT
 70
     0
  9
$DIMTFAC
 40
1.0
  9
$DIMGAP
 40
0.09
  9
$LUNITS
 70
     2
  9
$LUPREC
 70
     4
  9
$SKETCHINC
 40
0.1
  9
$FILLETRAD
 40
0.5
  9
$AUNITS
 70
     0
  9
$AUPREC
 70
     0
  9
$MENU
  1
.
  9
$ELEVATION
 40
0.0
  9
$PELEVATION
 40
0.0
  9
$THICKNESS
 40
0.0
  9
$LIMCHECK
 70
     0
  9
$CHAMFERA
 40
0.0
  9
$CHAMFERB
 40
0.0
  9
$SKPOLY
 70
     0
  9
$TDCREATE
 40
2454910.5
  9
$TDUPDATE
 40
2457524.913066701
  9
$TDINDWG
 40
0.0000000116
  9
$TDUSRTIMER
 40
0.0000000116
  9
$USRTIMER
 70
     1
  9
$ANGBASE
 50
0.0
  9
$ANGDIR
 70
     0
  9
$PDMODE
 70
     0
  9
$PDSIZE
 40
0.0
  9
$PLINEWID
 40
0.0
  9
$COORDS
 70
     1
  9
$SPLFRAME
 70
     0
  9
$SPLINETYPE
 70
     6
  9
$SPLINESEGS
 70
     8
  9
$ATTDIA
 70
     0
  9
$ATTREQ
 70
     1
  9
$HANDLING
 70
     1
  9
$HANDSEED
  5
CFD
  9
$SURFTAB1
 70
     6
  9
$SURFTAB2
 70
     6
  9
$SURFTYPE
 70
     6
  9
$SURFU
 70
     6
  9
$SURFV
 70
     6
  9
$UCSNAME
  2

  9
$UCSORG
 10
0.0
 20
0.0
 30
0.0
  9
$UCSXDIR
 10
1.0
 20
0.0
 30
0.0
  9
$UCSYDIR
 10
0.0
 20
1.0
 30
0.0
  9
$PUCSNAME
  2

  9
$PUCSORG
 10
0.0
 20
0.0
 30
0.0
  9
$PUCSXDIR
 10
1.0
 20
0.0
 30
0.0
  9
$PUCSYDIR
 10
0.0
 20
1.0
 30
0.0
  9
$USERI1
 70
     0
  9
$USERI2
 70
     0
  9
$USERI3
 70
     0
  9
$USERI4
 70
     0
  9
$USERI5
 70
     0
  9
$USERR1
 40
0.0
  9
$USERR2
 40
0.0
  9
$USERR3
 40
0.0
  9
$USERR4
 40
0.0
  9
$USERR5
 40
0.0
  9
$WORLDVIEW
 70
     1
  9
$SHADEDGE
 70
     3
  9
$SHADEDIF
 70
    70
  9
$TILEMODE
 70
     1
  9
$MAXACTVP
 70
    64
  9
$PLIMCHECK
 70
     0
  9
$PEXTMIN
 10
1.000000000000000E+20
 20
1.000000000000000E+20
 30
1.000000000000000E+20
  9
$PEXTMAX
 10
-1.000000000000000E+20
 20
-1.000000000000000E+20
 30
-1.000000000000000E+20
  9
$PLIMMIN
 10
0.0
 20
0.0
  9
$PLIMMAX
 10
12.0
 20
9.0
  9
$UNITMODE
 70
     0
  9
$VISRETAIN
 70
     1
  9
$PLINEGEN
 70
     0
  9
$PSLTSCALE
 70
     1
  0
ENDSEC
  0
SECTION
  2
TABLES
  0
TABLE
  2
VPORT
 70
     1
  0
VPORT
  2
*ACTIVE
 70
     0
 10
0.0
 20
0.0
 11
1.0
 21
1.0
 12
10.42990654205607
 22
4.5
 13
0.0
 23
0.0
 14
0.5
 24
0.5
 15
0.5
 25
0.5
 16
0.0
 26
0.0
 36
1.0
 17
0.0
 27
0.0
 37
0.0
 40
9.0
 41
1.972972972850329
 42
50.0
 43
0.0
 44
0.0
 50
0.0
 51
0.0
 71
     0
 72
   100
 73
     1
 74
     3
 75
     0
 76
     0
 77
     0
 78
     0
  0
ENDTAB
  0
TABLE
  2
LTYPE
 70
     2
  0
LTYPE
  2
CONTINUOUS
 70
     0
  3
Solid line
 72
    65
 73
     0
 40
0.0
  0
LTYPE
  2
CONTINUOUS2
 70
     0
  3
Solid Line
 72
    65
 73
     0
 40
0.0
  0
ENDTAB
  0
TABLE
  2
LAYER
 70
     2
  0
LAYER
  2
0
 70
     0
 62
     7
  6
CONTINUOUS
  0
LAYER
  2
LAYER_1
 70
     0
 62
    18
  6
CONTINUOUS
  0
ENDTAB
  0
TABLE
  2
STYLE
 70
     1
  0
STYLE
  2
STANDARD
 70
     0
 40
0.0
 41
1.0
 50
0.0
 71
     0
 42
0.2
  3
txt
  4

  0
ENDTAB
  0
TABLE
  2
VIEW
 70
     0
  0
ENDTAB
  0
TABLE
  2
UCS
 70
     0
  0
ENDTAB
  0
TABLE
  2
APPID
 70
     1
  0
APPID
  2
ACAD
 70
     0
  0
ENDTAB
  0
TABLE
  2
DIMSTYLE
 70
     1
  0
DIMSTYLE
  2
STANDARD
 70
     0
  3

  4

  5

  6

  7

 40
1.0
 41
0.18
 42
0.0625
 43
0.38
 44
0.18
 45
0.0
 46
0.0
 47
0.0
 48
0.0
140
0.18
141
0.09
142
0.0
143
25.4
144
1.0
145
0.0
146
1.0
147
0.09
 71
     0
 72
     0
 73
     1
 74
     1
 75
     0
 76
     0
 77
     0
 78
     0
170
     0
171
     2
172
     0
173
     0
174
     0
175
     0
176
     0
177
     0
178
     0
  0
ENDTAB
  0
ENDSEC
  0
SECTION
  2
BLOCKS
  0
BLOCK
  8
0
  2
$MODEL_SPACE
 70
     0
 10
0.0
 20
0.0
 30
0.0
  3
$MODEL_SPACE
  1

  0
ENDBLK
  5
21
  8
0
  0
BLOCK
 67
     1
  8
0
  2
$PAPER_SPACE
 70
     0
 10
0.0
 20
0.0
 30
0.0
  3
$PAPER_SPACE
  1

  0
ENDBLK
  5
1D
 67
     1
  8
0
  0
ENDSEC
  0
SECTION
  2
ENTITIES
  0
POLYLINE
  5
70
  8
LAYER_1
 66
     1
 10
0.0
 20
0.0
 30
0.0
 70
     1
  0
VERTEX
  5
197
  8
LAYER_1
 10
53.98523582354098
 20
-32.25114079831373
 30
0.0
  0
VERTEX
  5
198
  8
LAYER_1
 10
72.45393582365574
 20
-10.50114079827851
 30
0.0
  0
VERTEX
  5
199
  8
LAYER_1
 10
72.46432744146009
 20
-10.48849217204421
 30
0.0
  0
VERTEX
  5
19A
  8
LAYER_1
 10
72.47431533468267
 20
-10.4755106918827
 30
0.0
  0
VERTEX
  5
19B
  8
LAYER_1
 10
72.483904345183
 20
-10.46221044077527
 30
0.0
  0
VERTEX
  5
19C
  8
LAYER_1
 10
72.49309931482064
 20
-10.44860550170323
 30
0.0
  0
VERTEX
  5
19D
  8
LAYER_1
 10
72.50190508545506
 20
-10.43470995764789
 30
0.0
  0
VERTEX
  5
19E
  8
LAYER_1
 10
72.51032649894577
 20
-10.42053789159054
 30
0.0
  0
VERTEX
  5
19F
  8
LAYER_1
 10
72.51836839715233
 20
-10.40610338651251
 30
0.0
  0
VERTEX
  5
1A0
  8
LAYER_1
 10
72.52603562193424
 20
-10.39142052539509
 30
0.0
  0
VERTEX
  5
1A1
  8
LAYER_1
 10
72.53333301515099
 20
-10.37650339121959
 30
0.0
  0
VERTEX
  5
1A2
  8
LAYER_1
 10
72.54026541866213
 20
-10.36136606696731
 30
0.0
  0
VERTEX
  5
1A3
  8
LAYER_1
 10
72.54683767432715
 20
-10.34602263561956
 30
0.0
  0
VERTEX
  5
1A4
  8
LAYER_1
 10
72.5530546240056
 20
-10.33048718015765
 30
0.0
  0
VERTEX
  5
1A5
  8
LAYER_1
 10
72.55892110955698
 20
-10.31477378356287
 30
0.0
  0
VERTEX
  5
1A6
  8
LAYER_1
 10
72.5644419728408
 20
-10.29889652881655
 30
0.0
  0
VERTEX
  5
1A7
  8
LAYER_1
 10
72.56962205571658
 20
-10.28286949889997
 30
0.0
  0
VERTEX
  5
1A8
  8
LAYER_1
 10
72.57446620004383
 20
-10.26670677679445
 30
0.0
  0
VERTEX
  5
1A9
  8
LAYER_1
 10
72.57897924768207
 20
-10.25042244548129
 30
0.0
  0
VERTEX
  5
1AA
  8
LAYER_1
 10
72.58316604049084
 20
-10.2340305879418
 30
0.0
  0
VERTEX
  5
1AB
  8
LAYER_1
 10
72.58703142032962
 20
-10.21754528715729
 30
0.0
  0
VERTEX
  5
1AC
  8
LAYER_1
 10
72.59058022905796
 20
-10.20098062610905
 30
0.0
  0
VERTEX
  5
1AD
  8
LAYER_1
 10
72.59381730853536
 20
-10.1843506877784
 30
0.0
  0
VERTEX
  5
1AE
  8
LAYER_1
 10
72.59674750062133
 20
-10.16766955514664
 30
0.0
  0
VERTEX
  5
1AF
  8
LAYER_1
 10
72.60170659005708
 20
-10.134210038905
 30
0.0
  0
VERTEX
  5
1B0
  8
LAYER_1
 10
72.60549623224134
 20
-10.1007147412346
 30
0.0
  0
VERTEX
  5
1B1
  8
LAYER_1
 10
72.60815516205025
 20
-10.06729632598586
 30
0.0
  0
VERTEX
  5
1B2
  8
LAYER_1
 10
72.60972211435995
 20
-10.03406745700924
 30
0.0
  0
VERTEX
  5
1B3
  8
LAYER_1
 10
72.61023582404655
 20
-10.00114079815517
 30
0.0
  0
VERTEX
  5
1B4
  8
LAYER_1
 10
72.61023582416152
 20
-1.626140798044283
 30
0.0
  0
VERTEX
  5
1B5
  8
LAYER_1
 10
72.60983267907037
 20
-1.609201591904864
 30
0.0
  0
VERTEX
  5
1B6
  8
LAYER_1
 10
72.6086358849976
 20
-1.592153114445851
 30
0.0
  0
VERTEX
  5
1B7
  8
LAYER_1
 10
72.60666440374493
 20
-1.575014771548598
 30
0.0
  0
VERTEX
  5
1B8
  8
LAYER_1
 10
72.60393719711412
 20
-1.557805969094459
 30
0.0
  0
VERTEX
  5
1B9
  8
LAYER_1
 10
72.60047322690687
 20
-1.540546112964791
 30
0.0
  0
VERTEX
  5
1BA
  8
LAYER_1
 10
72.59629145492491
 20
-1.523254609040947
 30
0.0
  0
VERTEX
  5
1BB
  8
LAYER_1
 10
72.59141084296996
 20
-1.505950863204284
 30
0.0
  0
VERTEX
  5
1BC
  8
LAYER_1
 10
72.58585035284378
 20
-1.488654281336155
 30
0.0
  0
VERTEX
  5
1BD
  8
LAYER_1
 10
72.57962894634807
 20
-1.471384269317916
 30
0.0
  0
VERTEX
  5
1BE
  8
LAYER_1
 10
72.57276558528457
 20
-1.454160233030923
 30
0.0
  0
VERTEX
  5
1BF
  8
LAYER_1
 10
72.56527923145501
 20
-1.437001578356529
 30
0.0
  0
VERTEX
  5
1C0
  8
LAYER_1
 10
72.55718884666109
 20
-1.419927711176091
 30
0.0
  0
VERTEX
  5
1C1
  8
LAYER_1
 10
72.54851339270456
 20
-1.402958037370963
 30
0.0
  0
VERTEX
  5
1C2
  8
LAYER_1
 10
72.53927183138714
 20
-1.3861119628225
 30
0.0
  0
VERTEX
  5
1C3
  8
LAYER_1
 10
72.52948312451056
 20
-1.369408893412058
 30
0.0
  0
VERTEX
  5
1C4
  8
LAYER_1
 10
72.51916623387656
 20
-1.352868235020991
 30
0.0
  0
VERTEX
  5
1C5
  8
LAYER_1
 10
72.50834012128686
 20
-1.336509393530654
 30
0.0
  0
VERTEX
  5
1C6
  8
LAYER_1
 10
72.49702374854317
 20
-1.320351774822403
 30
0.0
  0
VERTEX
  5
1C7
  8
LAYER_1
 10
72.48523607744724
 20
-1.304414784777592
 30
0.0
  0
VERTEX
  5
1C8
  8
LAYER_1
 10
72.47299606980081
 20
-1.288717829277577
 30
0.0
  0
VERTEX
  5
1C9
  8
LAYER_1
 10
72.46032268740558
 20
-1.273280314203712
 30
0.0
  0
VERTEX
  5
1CA
  8
LAYER_1
 10
72.44723489206328
 20
-1.258121645437352
 30
0.0
  0
VERTEX
  5
1CB
  8
LAYER_1
 10
72.43375164557564
 20
-1.243261228859854
 30
0.0
  0
VERTEX
  5
1CC
  8
LAYER_1
 10
72.4198919097444
 20
-1.22871847035257
 30
0.0
  0
VERTEX
  5
1CD
  8
LAYER_1
 10
72.40567464637127
 20
-1.214512775796858
 30
0.0
  0
VERTEX
  5
1CE
  8
LAYER_1
 10
72.39111881725799
 20
-1.200663551074071
 30
0.0
  0
VERTEX
  5
1CF
  8
LAYER_1
 10
72.37624338420628
 20
-1.187190202065565
 30
0.0
  0
VERTEX
  5
1D0
  8
LAYER_1
 10
72.36106730901787
 20
-1.174112134652695
 30
0.0
  0
VERTEX
  5
1D1
  8
LAYER_1
 10
72.3456095534945
 20
-1.161448754716815
 30
0.0
  0
VERTEX
  5
1D2
  8
LAYER_1
 10
72.32988907943788
 20
-1.149219468139282
 30
0.0
  0
VERTEX
  5
1D3
  8
LAYER_1
 10
72.31392484864975
 20
-1.137443680801449
 30
0.0
  0
VERTEX
  5
1D4
  8
LAYER_1
 10
72.29773582293183
 20
-1.126140798584672
 30
0.0
  0
VERTEX
  5
1D5
  8
LAYER_1
 10
72.28302976053114
 20
-1.116426527878555
 30
0.0
  0
VERTEX
  5
1D6
  8
LAYER_1
 10
72.26817538559965
 20
-1.107138457108223
 30
0.0
  0
VERTEX
  5
1D7
  8
LAYER_1
 10
72.25318160076102
 20
-1.098271437381318
 30
0.0
  0
VERTEX
  5
1D8
  8
LAYER_1
 10
72.2380573086389
 20
-1.089820319805481
 30
0.0
  0
VERTEX
  5
1D9
  8
LAYER_1
 10
72.22281141185694
 20
-1.081779955488356
 30
0.0
  0
VERTEX
  5
1DA
  8
LAYER_1
 10
72.2074528130388
 20
-1.074145195537583
 30
0.0
  0
VERTEX
  5
1DB
  8
LAYER_1
 10
72.19199041480813
 20
-1.066910891060805
 30
0.0
  0
VERTEX
  5
1DC
  8
LAYER_1
 10
72.17643311978857
 20
-1.060071893165664
 30
0.0
  0
VERTEX
  5
1DD
  8
LAYER_1
 10
72.16078983060379
 20
-1.053623052959802
 30
0.0
  0
VERTEX
  5
1DE
  8
LAYER_1
 10
72.14506944987744
 20
-1.047559221550861
 30
0.0
  0
VERTEX
  5
1DF
  8
LAYER_1
 10
72.12928088023318
 20
-1.041875250046483
 30
0.0
  0
VERTEX
  5
1E0
  8
LAYER_1
 10
72.11343302429466
 20
-1.036565989554309
 30
0.0
  0
VERTEX
  5
1E1
  8
LAYER_1
 10
72.09753478468554
 20
-1.031626291181983
 30
0.0
  0
VERTEX
  5
1E2
  8
LAYER_1
 10
72.08159506402946
 20
-1.027051006037146
 30
0.0
  0
VERTEX
  5
1E3
  8
LAYER_1
 10
72.06562276495008
 20
-1.02283498522744
 30
0.0
  0
VERTEX
  5
1E4
  8
LAYER_1
 10
72.04962679007104
 20
-1.018973079860507
 30
0.0
  0
VERTEX
  5
1E5
  8
LAYER_1
 10
72.033616042016
 20
-1.015460141043989
 30
0.0
  0
VERTEX
  5
1E6
  8
LAYER_1
 10
72.01759942340865
 20
-1.012291019885527
 30
0.0
  0
VERTEX
  5
1E7
  8
LAYER_1
 10
72.0015858368726
 20
-1.009460567492766
 30
0.0
  0
VERTEX
  5
1E8
  8
LAYER_1
 10
71.98558418503151
 20
-1.006963634973345
 30
0.0
  0
VERTEX
  5
1E9
  8
LAYER_1
 10
71.96960337050905
 20
-1.004795073434908
 30
0.0
  0
VERTEX
  5
1EA
  8
LAYER_1
 10
71.95365229592886
 20
-1.002949733985095
 30
0.0
  0
VERTEX
  5
1EB
  8
LAYER_1
 10
71.9377398639146
 20
-1.001422467731551
 30
0.0
  0
VERTEX
  5
1EC
  8
LAYER_1
 10
71.92187497708991
 20
-1.000208125781915
 30
0.0
  0
VERTEX
  5
1ED
  8
LAYER_1
 10
71.89032344950391
 20
-0.9986976192249393
 30
0.0
  0
VERTEX
  5
1EE
  8
LAYER_1
 10
71.85906893416009
 20
-0.9983770231753052
 30
0.0
  0
VERTEX
  5
1EF
  8
LAYER_1
 10
71.82818265204764
 20
-0.9992051464941485
 30
0.0
  0
VERTEX
  5
1F0
  8
LAYER_1
 10
71.79773582415584
 20
-1.001140798042606
 30
0.0
  0
VERTEX
  5
1F1
  8
LAYER_1
 10
64.17273582364561
 20
-1.626140798264288
 30
0.0
  0
VERTEX
  5
1F2
  8
LAYER_1
 10
64.11243330603835
 20
-1.630602624651937
 30
0.0
  0
VERTEX
  5
1F3
  8
LAYER_1
 10
64.05001286304557
 20
-1.635022479386421
 30
0.0
  0
VERTEX
  5
1F4
  8
LAYER_1
 10
64.01824124347718
 20
-1.637547474277205
 30
0.0
  0
VERTEX
  5
1F5
  8
LAYER_1
 10
63.98621953129948
 20
-1.640458944526871
 30
0.0
  0
VERTEX
  5
1F6
  8
LAYER_1
 10
63.95404085609155
 20
-1.643889212892811
 30
0.0
  0
VERTEX
  5
1F7
  8
LAYER_1
 10
63.92179834743239
 20
-1.647970602132415
 30
0.0
  0
VERTEX
  5
1F8
  8
LAYER_1
 10
63.88958513490104
 20
-1.652835435003075
 30
0.0
  0
VERTEX
  5
1F9
  8
LAYER_1
 10
63.85749434807655
 20
-1.658616034262181
 30
0.0
  0
VERTEX
  5
1FA
  8
LAYER_1
 10
63.82561911653794
 20
-1.665444722667124
 30
0.0
  0
VERTEX
  5
1FB
  8
LAYER_1
 10
63.80979143699429
 20
-1.66929345116097
 30
0.0
  0
VERTEX
  5
1FC
  8
LAYER_1
 10
63.79405256986423
 20
-1.673453822975297
 30
0.0
  0
VERTEX
  5
1FD
  8
LAYER_1
 10
63.77841415634517
 20
-1.677942378454778
 30
0.0
  0
VERTEX
  5
1FE
  8
LAYER_1
 10
63.76288783763447
 20
-1.682775657944089
 30
0.0
  0
VERTEX
  5
1FF
  8
LAYER_1
 10
63.74748525492952
 20
-1.687970201787902
 30
0.0
  0
VERTEX
  5
200
  8
LAYER_1
 10
63.73221804942769
 20
-1.693542550330892
 30
0.0
  0
VERTEX
  5
201
  8
LAYER_1
 10
63.71709786232636
 20
-1.699509243917732
 30
0.0
  0
VERTEX
  5
202
  8
LAYER_1
 10
63.70213633482292
 20
-1.705886822893097
 30
0.0
  0
VERTEX
  5
203
  8
LAYER_1
 10
63.68734510811474
 20
-1.71269182760166
 30
0.0
  0
VERTEX
  5
204
  8
LAYER_1
 10
63.6727358233992
 20
-1.719940798388095
 30
0.0
  0
VERTEX
  5
205
  8
LAYER_1
 10
63.65269736152293
 20
-1.730509823250963
 30
0.0
  0
VERTEX
  5
206
  8
LAYER_1
 10
63.63233375321844
 20
-1.741734772717649
 30
0.0
  0
VERTEX
  5
207
  8
LAYER_1
 10
63.61172916448801
 20
-1.753563655091379
 30
0.0
  0
VERTEX
  5
208
  8
LAYER_1
 10
63.59096776133386
 20
-1.765944478675378
 30
0.0
  0
VERTEX
  5
209
  8
LAYER_1
 10
63.57013370975827
 20
-1.778825251772873
 30
0.0
  0
VERTEX
  5
20A
  8
LAYER_1
 10
63.54931117576348
 20
-1.79215398268709
 30
0.0
  0
VERTEX
  5
20B
  8
LAYER_1
 10
63.52858432535173
 20
-1.805878679721254
 30
0.0
  0
VERTEX
  5
20C
  8
LAYER_1
 10
63.50803732452528
 20
-1.81994735117859
 30
0.0
  0
VERTEX
  5
20D
  8
LAYER_1
 10
63.48775433928637
 20
-1.834308005362326
 30
0.0
  0
VERTEX
  5
20E
  8
LAYER_1
 10
63.46781953563726
 20
-1.848908650575686
 30
0.0
  0
VERTEX
  5
20F
  8
LAYER_1
 10
63.44831707958019
 20
-1.863697295121897
 30
0.0
  0
VERTEX
  5
210
  8
LAYER_1
 10
63.42933113711742
 20
-1.878621947304184
 30
0.0
  0
VERTEX
  5
211
  8
LAYER_1
 10
63.4109458742512
 20
-1.893630615425774
 30
0.0
  0
VERTEX
  5
212
  8
LAYER_1
 10
63.39324545698376
 20
-1.908671307789891
 30
0.0
  0
VERTEX
  5
213
  8
LAYER_1
 10
63.37631405131738
 20
-1.923692032699763
 30
0.0
  0
VERTEX
  5
214
  8
LAYER_1
 10
63.36023582325428
 20
-1.938640798458614
 30
0.0
  0
VERTEX
  5
215
  8
LAYER_1
 10
63.34996748444186
 20
-1.948778603035927
 30
0.0
  0
VERTEX
  5
216
  8
LAYER_1
 10
63.34010136382904
 20
-1.959212732751077
 30
0.0
  0
VERTEX
  5
217
  8
LAYER_1
 10
63.33062568452367
 20
-1.969930065222034
 30
0.0
  0
VERTEX
  5
218
  8
LAYER_1
 10
63.32152866963366
 20
-1.98091747806677
 30
0.0
  0
VERTEX
  5
219
  8
LAYER_1
 10
63.31279854226686
 20
-1.992161848903254
 30
0.0
  0
VERTEX
  5
21A
  8
LAYER_1
 10
63.30442352553115
 20
-2.003650055349457
 30
0.0
  0
VERTEX
  5
21B
  8
LAYER_1
 10
63.29639184253439
 20
-2.015368975023349
 30
0.0
  0
VERTEX
  5
21C
  8
LAYER_1
 10
63.28869171638446
 20
-2.0273054855429
 30
0.0
  0
VERTEX
  5
21D
  8
LAYER_1
 10
63.28131137018924
 20
-2.039446464526081
 30
0.0
  0
VERTEX
  5
21E
  8
LAYER_1
 10
63.27423902705658
 20
-2.051778789590862
 30
0.0
  0
VERTEX
  5
21F
  8
LAYER_1
 10
63.26746291009437
 20
-2.064289338355214
 30
0.0
  0
VERTEX
  5
220
  8
LAYER_1
 10
63.26097124241048
 20
-2.076964988437108
 30
0.0
  0
VERTEX
  5
221
  8
LAYER_1
 10
63.24879414730913
 20
-2.102759103025398
 30
0.0
  0
VERTEX
  5
222
  8
LAYER_1
 10
63.23761352661552
 20
-2.129056154299497
 30
0.0
  0
VERTEX
  5
223
  8
LAYER_1
 10
63.22733516519261
 20
-2.155751163203167
 30
0.0
  0
VERTEX
  5
224
  8
LAYER_1
 10
63.2178648479034
 20
-2.182739150680173
 30
0.0
  0
VERTEX
  5
225
  8
LAYER_1
 10
63.20910835961084
 20
-2.209915137674275
 30
0.0
  0
VERTEX
  5
226
  8
LAYER_1
 10
63.20097148517791
 20
-2.237174145129237
 30
0.0
  0
VERTEX
  5
227
  8
LAYER_1
 10
63.1933600094676
 20
-2.264411193988823
 30
0.0
  0
VERTEX
  5
228
  8
LAYER_1
 10
63.18617971734286
 20
-2.291521305196795
 30
0.0
  0
VERTEX
  5
229
  8
LAYER_1
 10
63.17273582330207
 20
-2.344940798432951
 30
0.0
  0
VERTEX
  5
22A
  8
LAYER_1
 10
62.48523582354514
 20
-5.126140798313735
 30
0.0
  0
VERTEX
  5
22B
  8
LAYER_1
 10
62.48001803221008
 20
-5.146395368882131
 30
0.0
  0
VERTEX
  5
22C
  8
LAYER_1
 10
62.47439090837766
 20
-5.166608756241571
 30
0.0
  0
VERTEX
  5
22D
  8
LAYER_1
 10
62.46835973395139
 20
-5.186774121806053
 30
0.0
  0
VERTEX
  5
22E
  8
LAYER_1
 10
62.4619297908348
 20
-5.206884626989575
 30
0.0
  0
VERTEX
  5
22F
  8
LAYER_1
 10
62.45510636093142
 20
-5.226933433206135
 30
0.0
  0
VERTEX
  5
230
  8
LAYER_1
 10
62.44789472614476
 20
-5.246913701869732
 30
0.0
  0
VERTEX
  5
231
  8
LAYER_1
 10
62.44030016837834
 20
-5.266818594394366
 30
0.0
  0
VERTEX
  5
232
  8
LAYER_1
 10
62.43232796953569
 20
-5.286641272194034
 30
0.0
  0
VERTEX
  5
233
  8
LAYER_1
 10
62.42398341152032
 20
-5.306374896682734
 30
0.0
  0
VERTEX
  5
234
  8
LAYER_1
 10
62.41527177623576
 20
-5.326012629274465
 30
0.0
  0
VERTEX
  5
235
  8
LAYER_1
 10
62.40619834558552
 20
-5.345547631383225
 30
0.0
  0
VERTEX
  5
236
  8
LAYER_1
 10
62.39676840147312
 20
-5.364973064423014
 30
0.0
  0
VERTEX
  5
237
  8
LAYER_1
 10
62.38698722580209
 20
-5.384282089807828
 30
0.0
  0
VERTEX
  5
238
  8
LAYER_1
 10
62.37686010047595
 20
-5.403467868951666
 30
0.0
  0
VERTEX
  5
239
  8
LAYER_1
 10
62.36639230739821
 20
-5.422523563268527
 30
0.0
  0
VERTEX
  5
23A
  8
LAYER_1
 10
62.35558912847242
 20
-5.44144233417241
 30
0.0
  0
VERTEX
  5
23B
  8
LAYER_1
 10
62.34445584560206
 20
-5.460217343077312
 30
0.0
  0
VERTEX
  5
23C
  8
LAYER_1
 10
62.33299774069067
 20
-5.478841751397234
 30
0.0
  0
VERTEX
  5
23D
  8
LAYER_1
 10
62.32122009564178
 20
-5.497308720546172
 30
0.0
  0
VERTEX
  5
23E
  8
LAYER_1
 10
62.3091281923589
 20
-5.515611411938126
 30
0.0
  0
VERTEX
  5
23F
  8
LAYER_1
 10
62.29672731274554
 20
-5.533742986987093
 30
0.0
  0
VERTEX
  5
240
  8
LAYER_1
 10
62.28402273870523
 20
-5.551696607107072
 30
0.0
  0
VERTEX
  5
241
  8
LAYER_1
 10
62.27101975214151
 20
-5.569465433712061
 30
0.0
  0
VERTEX
  5
242
  8
LAYER_1
 10
62.25772363495787
 20
-5.587042628216059
 30
0.0
  0
VERTEX
  5
243
  8
LAYER_1
 10
62.24413966905784
 20
-5.604421352033064
 30
0.0
  0
VERTEX
  5
244
  8
LAYER_1
 10
62.23027313634496
 20
-5.621594766577076
 30
0.0
  0
VERTEX
  5
245
  8
LAYER_1
 10
62.21612931872272
 20
-5.638556033262091
 30
0.0
  0
VERTEX
  5
246
  8
LAYER_1
 10
62.20171349809466
 20
-5.65529831350211
 30
0.0
  0
VERTEX
  5
247
  8
LAYER_1
 10
62.1870309563643
 20
-5.67181476871113
 30
0.0
  0
VERTEX
  5
248
  8
LAYER_1
 10
62.17208697543516
 20
-5.688098560303148
 30
0.0
  0
VERTEX
  5
249
  8
LAYER_1
 10
62.15688683721076
 20
-5.704142849692165
 30
0.0
  0
VERTEX
  5
24A
  8
LAYER_1
 10
62.14143582359461
 20
-5.719940798292178
 30
0.0
  0
VERTEX
  5
24B
  8
LAYER_1
 10
62.12390449269726
 20
-5.737282282598565
 30
0.0
  0
VERTEX
  5
24C
  8
LAYER_1
 10
62.1060815426674
 20
-5.754324014002123
 30
0.0
  0
VERTEX
  5
24D
  8
LAYER_1
 10
62.08797694239176
 20
-5.771065982410549
 30
0.0
  0
VERTEX
  5
24E
  8
LAYER_1
 10
62.06960066075703
 20
-5.787508177731535
 30
0.0
  0
VERTEX
  5
24F
  8
LAYER_1
 10
62.05096266664992
 20
-5.803650589872778
 30
0.0
  0
VERTEX
  5
250
  8
LAYER_1
 10
62.03207292895712
 20
-5.819493208741973
 30
0.0
  0
VERTEX
  5
251
  8
LAYER_1
 10
62.01294141656535
 20
-5.835036024246812
 30
0.0
  0
VERTEX
  5
252
  8
LAYER_1
 10
61.99357809836131
 20
-5.850279026294992
 30
0.0
  0
VERTEX
  5
253
  8
LAYER_1
 10
61.97399294323171
 20
-5.865222204794205
 30
0.0
  0
VERTEX
  5
254
  8
LAYER_1
 10
61.95419592006324
 20
-5.879865549652147
 30
0.0
  0
VERTEX
  5
255
  8
LAYER_1
 10
61.93419699774262
 20
-5.894209050776514
 30
0.0
  0
VERTEX
  5
256
  8
LAYER_1
 10
61.91400614515653
 20
-5.908252698074998
 30
0.0
  0
VERTEX
  5
257
  8
LAYER_1
 10
61.89363333119169
 20
-5.921996481455293
 30
0.0
  0
VERTEX
  5
258
  8
LAYER_1
 10
61.87308852473483
 20
-5.935440390825097
 30
0.0
  0
VERTEX
  5
259
  8
LAYER_1
 10
61.85238169467262
 20
-5.9485844160921
 30
0.0
  0
VERTEX
  5
25A
  8
LAYER_1
 10
61.83152280989177
 20
-5.961428547163999
 30
0.0
  0
VERTEX
  5
25B
  8
LAYER_1
 10
61.810521839279
 20
-5.97397277394849
 30
0.0
  0
VERTEX
  5
25C
  8
LAYER_1
 10
61.789388751721
 20
-5.986217086353266
 30
0.0
  0
VERTEX
  5
25D
  8
LAYER_1
 10
61.76813351610447
 20
-5.998161474286021
 30
0.0
  0
VERTEX
  5
25E
  8
LAYER_1
 10
61.74676610131614
 20
-6.009805927654449
 30
0.0
  0
VERTEX
  5
25F
  8
LAYER_1
 10
61.7252964762427
 20
-6.021150436366246
 30
0.0
  0
VERTEX
  5
260
  8
LAYER_1
 10
61.70373460977084
 20
-6.032194990329106
 30
0.0
  0
VERTEX
  5
261
  8
LAYER_1
 10
61.66037402817874
 20
-6.053384193638793
 30
0.0
  0
VERTEX
  5
262
  8
LAYER_1
 10
61.61676410763345
 20
-6.073373456845066
 30
0.0
  0
VERTEX
  5
263
  8
LAYER_1
 10
61.57298459922863
 20
-6.092162699209482
 30
0.0
  0
VERTEX
  5
264
  8
LAYER_1
 10
61.52911525405792
 20
-6.109751839993596
 30
0.0
  0
VERTEX
  5
265
  8
LAYER_1
 10
61.48523582321494
 20
-6.126140798458962
 30
0.0
  0
VERTEX
  5
266
  8
LAYER_1
 10
44.29773582352828
 20
-12.3136407983219
 30
0.0
  0
VERTEX
  5
267
  8
LAYER_1
 10
44.2617137544618
 20
-12.3264974857166
 30
0.0
  0
VERTEX
  5
268
  8
LAYER_1
 10
44.22534151599141
 20
-12.33918322115017
 30
0.0
  0
VERTEX
  5
269
  8
LAYER_1
 10
44.18860727496261
 20
-12.35159051754588
 30
0.0
  0
VERTEX
  5
26A
  8
LAYER_1
 10
44.15149919822089
 20
-12.36361188782703
 30
0.0
  0
VERTEX
  5
26B
  8
LAYER_1
 10
44.11400545261178
 20
-12.37513984491693
 30
0.0
  0
VERTEX
  5
26C
  8
LAYER_1
 10
44.07611420498079
 20
-12.38606690173888
 30
0.0
  0
VERTEX
  5
26D
  8
LAYER_1
 10
44.03781362217342
 20
-12.39628557121616
 30
0.0
  0
VERTEX
  5
26E
  8
LAYER_1
 10
43.99909187103516
 20
-12.40568836627209
 30
0.0
  0
VERTEX
  5
26F
  8
LAYER_1
 10
43.95993711841152
 20
-12.41416779982994
 30
0.0
  0
VERTEX
  5
270
  8
LAYER_1
 10
43.92033753114802
 20
-12.42161638481303
 30
0.0
  0
VERTEX
  5
271
  8
LAYER_1
 10
43.90036722666554
 20
-12.42492051937757
 30
0.0
  0
VERTEX
  5
272
  8
LAYER_1
 10
43.88028127609015
 20
-12.42792663414466
 30
0.0
  0
VERTEX
  5
273
  8
LAYER_1
 10
43.86007820027756
 20
-12.4306212932297
 30
0.0
  0
VERTEX
  5
274
  8
LAYER_1
 10
43.83975652008343
 20
-12.43299106074811
 30
0.0
  0
VERTEX
  5
275
  8
LAYER_1
 10
43.81931475636345
 20
-12.4350225008153
 30
0.0
  0
VERTEX
  5
276
  8
LAYER_1
 10
43.79875142997334
 20
-12.43670217754669
 30
0.0
  0
VERTEX
  5
277
  8
LAYER_1
 10
43.77806506176876
 20
-12.43801665505768
 30
0.0
  0
VERTEX
  5
278
  8
LAYER_1
 10
43.75725417260542
 20
-12.43895249746369
 30
0.0
  0
VERTEX
  5
279
  8
LAYER_1
 10
43.73631728333899
 20
-12.43949626888013
 30
0.0
  0
VERTEX
  5
27A
  8
LAYER_1
 10
43.71525291482516
 20
-12.43963453342242
 30
0.0
  0
VERTEX
  5
27B
  8
LAYER_1
 10
43.69405958791962
 20
-12.43935385520596
 30
0.0
  0
VERTEX
  5
27C
  8
LAYER_1
 10
43.67273582347806
 20
-12.43864079834617
 30
0.0
  0
VERTEX
  5
27D
  8
LAYER_1
 10
43.64138857184524
 20
-12.43693077565941
 30
0.0
  0
VERTEX
  5
27E
  8
LAYER_1
 10
43.60987390536773
 20
-12.43454043325084
 30
0.0
  0
VERTEX
  5
27F
  8
LAYER_1
 10
43.5782091929599
 20
-12.4314858314648
 30
0.0
  0
VERTEX
  5
280
  8
LAYER_1
 10
43.5464118035361
 20
-12.42778303064566
 30
0.0
  0
VERTEX
  5
281
  8
LAYER_1
 10
43.51449910601068
 20
-12.42344809113777
 30
0.0
  0
VERTEX
  5
282
  8
LAYER_1
 10
43.48248846929802
 20
-12.41849707328547
 30
0.0
  0
VERTEX
  5
283
  8
LAYER_1
 10
43.45039726231245
 20
-12.41294603743313
 30
0.0
  0
VERTEX
  5
284
  8
LAYER_1
 10
43.41824285396835
 20
-12.40681104392509
 30
0.0
  0
VERTEX
  5
285
  8
LAYER_1
 10
43.38604261318007
 20
-12.40010815310572
 30
0.0
  0
VERTEX
  5
286
  8
LAYER_1
 10
43.35381390886197
 20
-12.39285342531936
 30
0.0
  0
VERTEX
  5
287
  8
LAYER_1
 10
43.32157410992841
 20
-12.38506292091038
 30
0.0
  0
VERTEX
  5
288
  8
LAYER_1
 10
43.28934058529374
 20
-12.37675270022312
 30
0.0
  0
VERTEX
  5
289
  8
LAYER_1
 10
43.25713070387233
 20
-12.36793882360193
 30
0.0
  0
VERTEX
  5
28A
  8
LAYER_1
 10
43.22496183457853
 20
-12.35863735139118
 30
0.0
  0
VERTEX
  5
28B
  8
LAYER_1
 10
43.1928513463267
 20
-12.34886434393522
 30
0.0
  0
VERTEX
  5
28C
  8
LAYER_1
 10
43.1608166080312
 20
-12.33863586157839
 30
0.0
  0
VERTEX
  5
28D
  8
LAYER_1
 10
43.12887498860638
 20
-12.32796796466506
 30
0.0
  0
VERTEX
  5
28E
  8
LAYER_1
 10
43.09704385696661
 20
-12.31687671353958
 30
0.0
  0
VERTEX
  5
28F
  8
LAYER_1
 10
43.06534058202624
 20
-12.3053781685463
 30
0.0
  0
VERTEX
  5
290
  8
LAYER_1
 10
43.03378253269965
 20
-12.29348839002958
 30
0.0
  0
VERTEX
  5
291
  8
LAYER_1
 10
43.00238707790116
 20
-12.28122343833376
 30
0.0
  0
VERTEX
  5
292
  8
LAYER_1
 10
42.97117158654515
 20
-12.26859937380322
 30
0.0
  0
VERTEX
  5
293
  8
LAYER_1
 10
42.94015342754599
 20
-12.25563225678229
 30
0.0
  0
VERTEX
  5
294
  8
LAYER_1
 10
42.90934996981801
 20
-12.24233814761533
 30
0.0
  0
VERTEX
  5
295
  8
LAYER_1
 10
42.87877858227559
 20
-12.2287331066467
 30
0.0
  0
VERTEX
  5
296
  8
LAYER_1
 10
42.84845663383307
 20
-12.21483319422076
 30
0.0
  0
VERTEX
  5
297
  8
LAYER_1
 10
42.81840149340483
 20
-12.20065447068184
 30
0.0
  0
VERTEX
  5
298
  8
LAYER_1
 10
42.78863052990521
 20
-12.18621299637432
 30
0.0
  0
VERTEX
  5
299
  8
LAYER_1
 10
42.75916111224858
 20
-12.17152483164254
 30
0.0
  0
VERTEX
  5
29A
  8
LAYER_1
 10
42.73001060934929
 20
-12.15660603683085
 30
0.0
  0
VERTEX
  5
29B
  8
LAYER_1
 10
42.70119639012169
 20
-12.14147267228362
 30
0.0
  0
VERTEX
  5
29C
  8
LAYER_1
 10
42.67273582348017
 20
-12.12614079834519
 30
0.0
  0
VERTEX
  5
29D
  8
LAYER_1
 10
42.63371835678255
 20
-12.10427702935939
 30
0.0
  0
VERTEX
  5
29E
  8
LAYER_1
 10
42.5953123154964
 20
-12.08159450801078
 30
0.0
  0
VERTEX
  5
29F
  8
LAYER_1
 10
42.55753816170443
 20
-12.05811455320651
 30
0.0
  0
VERTEX
  5
2A0
  8
LAYER_1
 10
42.52041635748937
 20
-12.03385848385374
 30
0.0
  0
VERTEX
  5
2A1
  8
LAYER_1
 10
42.48396736493393
 20
-12.00884761885961
 30
0.0
  0
VERTEX
  5
2A2
  8
LAYER_1
 10
42.44821164612084
 20
-11.98310327713129
 30
0.0
  0
VERTEX
  5
2A3
  8
LAYER_1
 10
42.41316966313281
 20
-11.95664677757592
 30
0.0
  0
VERTEX
  5
2A4
  8
LAYER_1
 10
42.37886187805255
 20
-11.92949943910066
 30
0.0
  0
VERTEX
  5
2A5
  8
LAYER_1
 10
42.34530875296279
 20
-11.90168258061265
 30
0.0
  0
VERTEX
  5
2A6
  8
LAYER_1
 10
42.31253074994625
 20
-11.87321752101906
 30
0.0
  0
VERTEX
  5
2A7
  8
LAYER_1
 10
42.28054833108565
 20
-11.84412557922703
 30
0.0
  0
VERTEX
  5
2A8
  8
LAYER_1
 10
42.2493819584637
 20
-11.81442807414371
 30
0.0
  0
VERTEX
  5
2A9
  8
LAYER_1
 10
42.21905209416313
 20
-11.78414632467627
 30
0.0
  0
VERTEX
  5
2AA
  8
LAYER_1
 10
42.18957920026666
 20
-11.75330164973184
 30
0.0
  0
VERTEX
  5
2AB
  8
LAYER_1
 10
42.16098373885701
 20
-11.72191536821759
 30
0.0
  0
VERTEX
  5
2AC
  8
LAYER_1
 10
42.13328617201688
 20
-11.69000879904067
 30
0.0
  0
VERTEX
  5
2AD
  8
LAYER_1
 10
42.106506961829
 20
-11.65760326110823
 30
0.0
  0
VERTEX
  5
2AE
  8
LAYER_1
 10
42.08066657037609
 20
-11.62472007332742
 30
0.0
  0
VERTEX
  5
2AF
  8
LAYER_1
 10
42.05578545974087
 20
-11.59138055460539
 30
0.0
  0
VERTEX
  5
2B0
  8
LAYER_1
 10
42.03188409200605
 20
-11.5576060238493
 30
0.0
  0
VERTEX
  5
2B1
  8
LAYER_1
 10
42.00898292925437
 20
-11.5234177999663
 30
0.0
  0
VERTEX
  5
2B2
  8
LAYER_1
 10
41.98710243356852
 20
-11.48883720186355
 30
0.0
  0
VERTEX
  5
2B3
  8
LAYER_1
 10
41.96626306703125
 20
-11.45388554844819
 30
0.0
  0
VERTEX
  5
2B4
  8
LAYER_1
 10
41.94648529172526
 20
-11.41858415862737
 30
0.0
  0
VERTEX
  5
2B5
  8
LAYER_1
 10
41.92778956973326
 20
-11.38295435130826
 30
0.0
  0
VERTEX
  5
2B6
  8
LAYER_1
 10
41.910196363138
 20
-11.347017445398
 30
0.0
  0
VERTEX
  5
2B7
  8
LAYER_1
 10
41.89372613402216
 20
-11.31079475980374
 30
0.0
  0
VERTEX
  5
2B8
  8
LAYER_1
 10
41.87839934446849
 20
-11.27430761343265
 30
0.0
  0
VERTEX
  5
2B9
  8
LAYER_1
 10
41.86423645655969
 20
-11.23757732519186
 30
0.0
  0
VERTEX
  5
2BA
  8
LAYER_1
 10
41.8512579323785
 20
-11.20062521398854
 30
0.0
  0
VERTEX
  5
2BB
  8
LAYER_1
 10
41.8452192010866
 20
-11.18207263693441
 30
0.0
  0
VERTEX
  5
2BC
  8
LAYER_1
 10
41.83948423400761
 20
-11.16347259872983
 30
0.0
  0
VERTEX
  5
2BD
  8
LAYER_1
 10
41.83405558890189
 20
-11.14482776423819
 30
0.0
  0
VERTEX
  5
2BE
  8
LAYER_1
 10
41.82893582352976
 20
-11.12614079832289
 30
0.0
  0
VERTEX
  5
2BF
  8
LAYER_1
 10
39.67273582375601
 20
-3.00114079815075
 30
0.0
  0
VERTEX
  5
2C0
  8
LAYER_1
 10
39.65319790458095
 20
-2.929273008581548
 30
0.0
  0
VERTEX
  5
2C1
  8
LAYER_1
 10
39.64278567133547
 20
-2.892902474173618
 30
0.0
  0
VERTEX
  5
2C2
  8
LAYER_1
 10
39.63181913418488
 20
-2.856364595974731
 30
0.0
  0
VERTEX
  5
2C3
  8
LAYER_1
 10
39.62020420202929
 20
-2.819752185953333
 30
0.0
  0
VERTEX
  5
2C4
  8
LAYER_1
 10
39.60784678376884
 20
-2.783158056077871
 30
0.0
  0
VERTEX
  5
2C5
  8
LAYER_1
 10
39.59465278830365
 20
-2.746675018316791
 30
0.0
  0
VERTEX
  5
2C6
  8
LAYER_1
 10
39.58052812453384
 20
-2.710395884638538
 30
0.0
  0
VERTEX
  5
2C7
  8
LAYER_1
 10
39.56537870135956
 20
-2.67441346701156
 30
0.0
  0
VERTEX
  5
2C8
  8
LAYER_1
 10
39.55739030152702
 20
-2.656562530457438
 30
0.0
  0
VERTEX
  5
2C9
  8
LAYER_1
 10
39.54911042768092
 20
-2.638820577404302
 30
0.0
  0
VERTEX
  5
2CA
  8
LAYER_1
 10
39.54052731843375
 20
-2.621199209348208
 30
0.0
  0
VERTEX
  5
2CB
  8
LAYER_1
 10
39.53162921239805
 20
-2.603710027785212
 30
0.0
  0
VERTEX
  5
2CC
  8
LAYER_1
 10
39.52240434818633
 20
-2.586364634211368
 30
0.0
  0
VERTEX
  5
2CD
  8
LAYER_1
 10
39.51284096441109
 20
-2.569174630122735
 30
0.0
  0
VERTEX
  5
2CE
  8
LAYER_1
 10
39.50292729968486
 20
-2.552151617015366
 30
0.0
  0
VERTEX
  5
2CF
  8
LAYER_1
 10
39.49265159262016
 20
-2.535307196385318
 30
0.0
  0
VERTEX
  5
2D0
  8
LAYER_1
 10
39.48200208182949
 20
-2.518652969728646
 30
0.0
  0
VERTEX
  5
2D1
  8
LAYER_1
 10
39.47096700592539
 20
-2.502200538541407
 30
0.0
  0
VERTEX
  5
2D2
  8
LAYER_1
 10
39.45953460352035
 20
-2.485961504319655
 30
0.0
  0
VERTEX
  5
2D3
  8
LAYER_1
 10
39.4476931132269
 20
-2.469947468559448
 30
0.0
  0
VERTEX
  5
2D4
  8
LAYER_1
 10
39.43543077365756
 20
-2.45417003275684
 30
0.0
  0
VERTEX
  5
2D5
  8
LAYER_1
 10
39.42273582342484
 20
-2.438640798407889
 30
0.0
  0
VERTEX
  5
2D6
  8
LAYER_1
 10
39.39802693942299
 20
-2.409433270788998
 30
0.0
  0
VERTEX
  5
2D7
  8
LAYER_1
 10
39.37255541063709
 20
-2.379889512882785
 30
0.0
  0
VERTEX
  5
2D8
  8
LAYER_1
 10
39.34635348620698
 20
-2.350134824825346
 30
0.0
  0
VERTEX
  5
2D9
  8
LAYER_1
 10
39.31945341527256
 20
-2.320294506752777
 30
0.0
  0
VERTEX
  5
2DA
  8
LAYER_1
 10
39.29188744697367
 20
-2.290493858801174
 30
0.0
  0
VERTEX
  5
2DB
  8
LAYER_1
 10
39.2636878304502
 20
-2.260858181106634
 30
0.0
  0
VERTEX
  5
2DC
  8
LAYER_1
 10
39.23488681484202
 20
-2.231512773805253
 30
0.0
  0
VERTEX
  5
2DD
  8
LAYER_1
 10
39.20551664928898
 20
-2.202582937033128
 30
0.0
  0
VERTEX
  5
2DE
  8
LAYER_1
 10
39.17560958293097
 20
-2.174193970926355
 30
0.0
  0
VERTEX
  5
2DF
  8
LAYER_1
 10
39.14519786490784
 20
-2.14647117562103
 30
0.0
  0
VERTEX
  5
2E0
  8
LAYER_1
 10
39.11431374435948
 20
-2.11953985125325
 30
0.0
  0
VERTEX
  5
2E1
  8
LAYER_1
 10
39.08298947042574
 20
-2.093525297959111
 30
0.0
  0
VERTEX
  5
2E2
  8
LAYER_1
 10
39.0512572922465
 20
-2.06855281587471
 30
0.0
  0
VERTEX
  5
2E3
  8
LAYER_1
 10
39.03524831692102
 20
-2.056496507828692
 30
0.0
  0
VERTEX
  5
2E4
  8
LAYER_1
 10
39.01914945896163
 20
-2.044747705136143
 30
0.0
  0
VERTEX
  5
2E5
  8
LAYER_1
 10
39.00296474951079
 20
-2.033322070314078
 30
0.0
  0
VERTEX
  5
2E6
  8
LAYER_1
 10
38.98669821971099
 20
-2.022235265879507
 30
0.0
  0
VERTEX
  5
2E7
  8
LAYER_1
 10
38.97035390070472
 20
-2.011502954349442
 30
0.0
  0
VERTEX
  5
2E8
  8
LAYER_1
 10
38.95393582363446
 20
-2.001140798240897
 30
0.0
  0
VERTEX
  5
2E9
  8
LAYER_1
 10
38.94663527235608
 20
-1.996847172690389
 30
0.0
  0
VERTEX
  5
2EA
  8
LAYER_1
 10
38.93859298698864
 20
-1.992526783714922
 30
0.0
  0
VERTEX
  5
2EB
  8
LAYER_1
 10
38.92037863172906
 20
-1.983819276078591
 30
0.0
  0
VERTEX
  5
2EC
  8
LAYER_1
 10
38.89948359334061
 20
-1.975045396510873
 30
0.0
  0
VERTEX
  5
2ED
  8
LAYER_1
 10
38.87609870730815
 20
-1.966232266190739
 30
0.0
  0
VERTEX
  5
2EE
  8
LAYER_1
 10
38.85041480911653
 20
-1.957407006297158
 30
0.0
  0
VERTEX
  5
2EF
  8
LAYER_1
 10
38.82262273425063
 20
-1.948596738009101
 30
0.0
  0
VERTEX
  5
2F0
  8
LAYER_1
 10
38.7929133181953
 20
-1.939828582505537
 30
0.0
  0
VERTEX
  5
2F1
  8
LAYER_1
 10
38.76147739643544
 20
-1.931129660965435
 30
0.0
  0
VERTEX
  5
2F2
  8
LAYER_1
 10
38.72850580445589
 20
-1.922527094567765
 30
0.0
  0
VERTEX
  5
2F3
  8
LAYER_1
 10
38.69418937774153
 20
-1.914048004491498
 30
0.0
  0
VERTEX
  5
2F4
  8
LAYER_1
 10
38.65871895177722
 20
-1.905719511915604
 30
0.0
  0
VERTEX
  5
2F5
  8
LAYER_1
 10
38.62228536204781
 20
-1.897568738019051
 30
0.0
  0
VERTEX
  5
2F6
  8
LAYER_1
 10
38.58507944403819
 20
-1.88962280398081
 30
0.0
  0
VERTEX
  5
2F7
  8
LAYER_1
 10
38.54729203323322
 20
-1.88190883097985
 30
0.0
  0
VERTEX
  5
2F8
  8
LAYER_1
 10
38.50911396511777
 20
-1.874453940195142
 30
0.0
  0
VERTEX
  5
2F9
  8
LAYER_1
 10
38.4707360751767
 20
-1.867285252805655
 30
0.0
  0
VERTEX
  5
2FA
  8
LAYER_1
 10
38.43234919889488
 20
-1.86042988999036
 30
0.0
  0
VERTEX
  5
2FB
  8
LAYER_1
 10
38.39414417175717
 20
-1.853914972928224
 30
0.0
  0
VERTEX
  5
2FC
  8
LAYER_1
 10
38.35631182924843
 20
-1.84776762279822
 30
0.0
  0
VERTEX
  5
2FD
  8
LAYER_1
 10
38.31904300685355
 20
-1.842014960779316
 30
0.0
  0
VERTEX
  5
2FE
  8
LAYER_1
 10
38.28252854005738
 20
-1.836684108050482
 30
0.0
  0
VERTEX
  5
2FF
  8
LAYER_1
 10
38.2469592643448
 20
-1.831802185790688
 30
0.0
  0
VERTEX
  5
300
  8
LAYER_1
 10
38.21252601520064
 20
-1.827396315178904
 30
0.0
  0
VERTEX
  5
301
  8
LAYER_1
 10
38.17941962810981
 20
-1.8234936173941
 30
0.0
  0
VERTEX
  5
302
  8
LAYER_1
 10
38.14783093855716
 20
-1.820121213615245
 30
0.0
  0
VERTEX
  5
303
  8
LAYER_1
 10
38.11795078202755
 20
-1.817306225021309
 30
0.0
  0
VERTEX
  5
304
  8
LAYER_1
 10
38.08996999400585
 20
-1.815075772791263
 30
0.0
  0
VERTEX
  5
305
  8
LAYER_1
 10
38.06407940997693
 20
-1.813456978104075
 30
0.0
  0
VERTEX
  5
306
  8
LAYER_1
 10
38.04046986542565
 20
-1.812476962138716
 30
0.0
  0
VERTEX
  5
307
  8
LAYER_1
 10
38.01933219583687
 20
-1.812162846074155
 30
0.0
  0
VERTEX
  5
308
  8
LAYER_1
 10
38.00085723669547
 20
-1.812541751089363
 30
0.0
  0
VERTEX
  5
309
  8
LAYER_1
 10
37.98523582348632
 20
-1.813640798363309
 30
0.0
  0
VERTEX
  5
30A
  8
LAYER_1
 10
33.17273582350731
 20
-2.313640798350313
 30
0.0
  0
VERTEX
  5
30B
  8
LAYER_1
 10
33.07621686876543
 20
-2.323721345811878
 30
0.0
  0
VERTEX
  5
30C
  8
LAYER_1
 10
33.02598730826735
 20
-2.32925616389026
 30
0.0
  0
VERTEX
  5
30D
  8
LAYER_1
 10
32.97473763148516
 20
-2.335312792602406
 30
0.0
  0
VERTEX
  5
30E
  8
LAYER_1
 10
32.92268779276937
 20
-2.34203531774984
 30
0.0
  0
VERTEX
  5
30F
  8
LAYER_1
 10
32.87005774647049
 20
-2.349567825134085
 30
0.0
  0
VERTEX
  5
310
  8
LAYER_1
 10
32.81706744693898
 20
-2.358054400556665
 30
0.0
  0
VERTEX
  5
311
  8
LAYER_1
 10
32.76393684852536
 20
-2.367639129819103
 30
0.0
  0
VERTEX
  5
312
  8
LAYER_1
 10
32.73738767297228
 20
-2.372888328953244
 30
0.0
  0
VERTEX
  5
313
  8
LAYER_1
 10
32.71088590558011
 20
-2.378466098722921
 30
0.0
  0
VERTEX
  5
314
  8
LAYER_1
 10
32.68445904064266
 20
-2.384390449853324
 30
0.0
  0
VERTEX
  5
315
  8
LAYER_1
 10
32.65813457245375
 20
-2.390679393069644
 30
0.0
  0
VERTEX
  5
316
  8
LAYER_1
 10
32.63193999530716
 20
-2.397350939097071
 30
0.0
  0
VERTEX
  5
317
  8
LAYER_1
 10
32.60590280349673
 20
-2.404423098660795
 30
0.0
  0
VERTEX
  5
318
  8
LAYER_1
 10
32.58005049131628
 20
-2.411913882486006
 30
0.0
  0
VERTEX
  5
319
  8
LAYER_1
 10
32.5544105530596
 20
-2.419841301297896
 30
0.0
  0
VERTEX
  5
31A
  8
LAYER_1
 10
32.52901048302051
 20
-2.428223365821655
 30
0.0
  0
VERTEX
  5
31B
  8
LAYER_1
 10
32.50387777549281
 20
-2.437078086782472
 30
0.0
  0
VERTEX
  5
31C
  8
LAYER_1
 10
32.47903992477033
 20
-2.446423474905539
 30
0.0
  0
VERTEX
  5
31D
  8
LAYER_1
 10
32.45452442514689
 20
-2.456277540916046
 30
0.0
  0
VERTEX
  5
31E
  8
LAYER_1
 10
32.43035877091627
 20
-2.466658295539183
 30
0.0
  0
VERTEX
  5
31F
  8
LAYER_1
 10
32.40657045637231
 20
-2.477583749500141
 30
0.0
  0
VERTEX
  5
320
  8
LAYER_1
 10
32.38318697580879
 20
-2.48907191352411
 30
0.0
  0
VERTEX
  5
321
  8
LAYER_1
 10
32.36023582351956
 20
-2.50114079833628
 30
0.0
  0
VERTEX
  5
322
  8
LAYER_1
 10
32.33294560788957
 20
-2.516628179023073
 30
0.0
  0
VERTEX
  5
323
  8
LAYER_1
 10
32.30636595610724
 20
-2.532948859367932
 30
0.0
  0
VERTEX
  5
324
  8
LAYER_1
 10
32.28045468208033
 20
-2.55003981428167
 30
0.0
  0
VERTEX
  5
325
  8
LAYER_1
 10
32.25516959971662
 20
-2.567838018675103
 30
0.0
  0
VERTEX
  5
326
  8
LAYER_1
 10
32.23046852292386
 20
-2.586280447459045
 30
0.0
  0
VERTEX
  5
327
  8
LAYER_1
 10
32.20630926560982
 20
-2.60530407554431
 30
0.0
  0
VERTEX
  5
328
  8
LAYER_1
 10
32.18264964168226
 20
-2.624845877841714
 30
0.0
  0
VERTEX
  5
329
  8
LAYER_1
 10
32.15944746504895
 20
-2.64484282926207
 30
0.0
  0
VERTEX
  5
32A
  8
LAYER_1
 10
32.13666054961766
 20
-2.665231904716194
 30
0.0
  0
VERTEX
  5
32B
  8
LAYER_1
 10
32.11424670929614
 20
-2.6859500791149
 30
0.0
  0
VERTEX
  5
32C
  8
LAYER_1
 10
32.09216375799216
 20
-2.706934327369002
 30
0.0
  0
VERTEX
  5
32D
  8
LAYER_1
 10
32.07036950961349
 20
-2.728121624389315
 30
0.0
  0
VERTEX
  5
32E
  8
LAYER_1
 10
32.02747837726312
 20
-2.770853264371833
 30
0.0
  0
VERTEX
  5
32F
  8
LAYER_1
 10
31.98523582350717
 20
-2.81364079834897
 30
0.0
  0
VERTEX
  5
330
  8
LAYER_1
 10
31.97296357863012
 20
-2.826432349077875
 30
0.0
  0
VERTEX
  5
331
  8
LAYER_1
 10
31.96103936694755
 20
-2.839536533362597
 30
0.0
  0
VERTEX
  5
332
  8
LAYER_1
 10
31.94945715768762
 20
-2.85294036816541
 30
0.0
  0
VERTEX
  5
333
  8
LAYER_1
 10
31.93821092007852
 20
-2.866630870448593
 30
0.0
  0
VERTEX
  5
334
  8
LAYER_1
 10
31.9272946233484
 20
-2.880595057174418
 30
0.0
  0
VERTEX
  5
335
  8
LAYER_1
 10
31.91670223672544
 20
-2.894819945305163
 30
0.0
  0
VERTEX
  5
336
  8
LAYER_1
 10
31.9064277294378
 20
-2.909292551803102
 30
0.0
  0
VERTEX
  5
337
  8
LAYER_1
 10
31.89646507071365
 20
-2.923999893630512
 30
0.0
  0
VERTEX
  5
338
  8
LAYER_1
 10
31.88680822978116
 20
-2.938928987749667
 30
0.0
  0
VERTEX
  5
339
  8
LAYER_1
 10
31.87745117586849
 20
-2.954066851122843
 30
0.0
  0
VERTEX
  5
33A
  8
LAYER_1
 10
31.86838787820382
 20
-2.969400500712315
 30
0.0
  0
VERTEX
  5
33B
  8
LAYER_1
 10
31.8596123060153
 20
-2.984916953480359
 30
0.0
  0
VERTEX
  5
33C
  8
LAYER_1
 10
31.85111842853111
 20
-3.00060322638925
 30
0.0
  0
VERTEX
  5
33D
  8
LAYER_1
 10
31.84290021497942
 20
-3.016446336401265
 30
0.0
  0
VERTEX
  5
33E
  8
LAYER_1
 10
31.8272666565862
 20
-3.048551135583766
 30
0.0
  0
VERTEX
  5
33F
  8
LAYER_1
 10
31.81266338466099
 20
-3.081127486726064
 30
0.0
  0
VERTEX
  5
340
  8
LAYER_1
 10
31.79904215302911
 20
-3.114071525526365
 30
0.0
  0
VERTEX
  5
341
  8
LAYER_1
 10
31.78635471551591
 20
-3.147279387682871
 30
0.0
  0
VERTEX
  5
342
  8
LAYER_1
 10
31.77455282594673
 20
-3.180647208893788
 30
0.0
  0
VERTEX
  5
343
  8
LAYER_1
 10
31.76358823814693
 20
-3.214071124857317
 30
0.0
  0
VERTEX
  5
344
  8
LAYER_1
 10
31.75341270594183
 20
-3.247447271271665
 30
0.0
  0
VERTEX
  5
345
  8
LAYER_1
 10
31.74397798315679
 20
-3.280671783835034
 30
0.0
  0
VERTEX
  5
346
  8
LAYER_1
 10
31.73523582361713
 20
-3.313640798245629
 30
0.0
  0
VERTEX
  5
347
  8
LAYER_1
 10
31.11023582354447
 20
-5.751140798312996
 30
0.0
  0
VERTEX
  5
348
  8
LAYER_1
 10
31.10280312174524
 20
-5.778302612366232
 30
0.0
  0
VERTEX
  5
349
  8
LAYER_1
 10
31.09450771356113
 20
-5.805218274504409
 30
0.0
  0
VERTEX
  5
34A
  8
LAYER_1
 10
31.08536675790602
 20
-5.83188197362349
 30
0.0
  0
VERTEX
  5
34B
  8
LAYER_1
 10
31.07539741369375
 20
-5.858287898619436
 30
0.0
  0
VERTEX
  5
34C
  8
LAYER_1
 10
31.06461683983819
 20
-5.884430238388207
 30
0.0
  0
VERTEX
  5
34D
  8
LAYER_1
 10
31.05304219525321
 20
-5.910303181825766
 30
0.0
  0
VERTEX
  5
34E
  8
LAYER_1
 10
31.04069063885265
 20
-5.935900917828075
 30
0.0
  0
VERTEX
  5
34F
  8
LAYER_1
 10
31.02757932955038
 20
-5.961217635291095
 30
0.0
  0
VERTEX
  5
350
  8
LAYER_1
 10
31.01372542626026
 20
-5.986247523110786
 30
0.0
  0
VERTEX
  5
351
  8
LAYER_1
 10
30.99914608789615
 20
-6.010984770183113
 30
0.0
  0
VERTEX
  5
352
  8
LAYER_1
 10
30.98385847337191
 20
-6.035423565404034
 30
0.0
  0
VERTEX
  5
353
  8
LAYER_1
 10
30.9678797416014
 20
-6.059558097669512
 30
0.0
  0
VERTEX
  5
354
  8
LAYER_1
 10
30.95122705149848
 20
-6.083382555875508
 30
0.0
  0
VERTEX
  5
355
  8
LAYER_1
 10
30.933917561977
 20
-6.106891128917985
 30
0.0
  0
VERTEX
  5
356
  8
LAYER_1
 10
30.91596843195084
 20
-6.130078005692903
 30
0.0
  0
VERTEX
  5
357
  8
LAYER_1
 10
30.89739682033385
 20
-6.152937375096224
 30
0.0
  0
VERTEX
  5
358
  8
LAYER_1
 10
30.87821988603989
 20
-6.17546342602391
 30
0.0
  0
VERTEX
  5
359
  8
LAYER_1
 10
30.85845478798281
 20
-6.197650347371921
 30
0.0
  0
VERTEX
  5
35A
  8
LAYER_1
 10
30.83811868507648
 20
-6.219492328036219
 30
0.0
  0
VERTEX
  5
35B
  8
LAYER_1
 10
30.81722873623476
 20
-6.240983556912767
 30
0.0
  0
VERTEX
  5
35C
  8
LAYER_1
 10
30.79580210037152
 20
-6.262118222897526
 30
0.0
  0
VERTEX
  5
35D
  8
LAYER_1
 10
30.77385593640059
 20
-6.282890514886457
 30
0.0
  0
VERTEX
  5
35E
  8
LAYER_1
 10
30.75140740323587
 20
-6.303294621775521
 30
0.0
  0
VERTEX
  5
35F
  8
LAYER_1
 10
30.72847365979118
 20
-6.32332473246068
 30
0.0
  0
VERTEX
  5
360
  8
LAYER_1
 10
30.7050718649804
 20
-6.342975035837896
 30
0.0
  0
VERTEX
  5
361
  8
LAYER_1
 10
30.6812191777174
 20
-6.36223972080313
 30
0.0
  0
VERTEX
  5
362
  8
LAYER_1
 10
30.65693275691602
 20
-6.381112976252345
 30
0.0
  0
VERTEX
  5
363
  8
LAYER_1
 10
30.63222976149014
 20
-6.399588991081499
 30
0.0
  0
VERTEX
  5
364
  8
LAYER_1
 10
30.60712735035359
 20
-6.417661954186556
 30
0.0
  0
VERTEX
  5
365
  8
LAYER_1
 10
30.58164268242026
 20
-6.435326054463479
 30
0.0
  0
VERTEX
  5
366
  8
LAYER_1
 10
30.555792916604
 20
-6.452575480808227
 30
0.0
  0
VERTEX
  5
367
  8
LAYER_1
 10
30.52959521181867
 20
-6.469404422116762
 30
0.0
  0
VERTEX
  5
368
  8
LAYER_1
 10
30.50306672697812
 20
-6.485807067285046
 30
0.0
  0
VERTEX
  5
369
  8
LAYER_1
 10
30.47622462099622
 20
-6.501777605209041
 30
0.0
  0
VERTEX
  5
36A
  8
LAYER_1
 10
30.44908605278683
 20
-6.517310224784707
 30
0.0
  0
VERTEX
  5
36B
  8
LAYER_1
 10
30.42166818126381
 20
-6.532399114908006
 30
0.0
  0
VERTEX
  5
36C
  8
LAYER_1
 10
30.39398816534102
 20
-6.5470384644749
 30
0.0
  0
VERTEX
  5
36D
  8
LAYER_1
 10
30.36606316393231
 20
-6.56122246238135
 30
0.0
  0
VERTEX
  5
36E
  8
LAYER_1
 10
30.33791033595156
 20
-6.574945297523319
 30
0.0
  0
VERTEX
  5
36F
  8
LAYER_1
 10
30.30954684031261
 20
-6.588201158796767
 30
0.0
  0
VERTEX
  5
370
  8
LAYER_1
 10
30.28098983592933
 20
-6.600984235097657
 30
0.0
  0
VERTEX
  5
371
  8
LAYER_1
 10
30.25225648171557
 20
-6.613288715321949
 30
0.0
  0
VERTEX
  5
372
  8
LAYER_1
 10
30.22336393658521
 20
-6.625108788365605
 30
0.0
  0
VERTEX
  5
373
  8
LAYER_1
 10
30.19432935945209
 20
-6.636438643124587
 30
0.0
  0
VERTEX
  5
374
  8
LAYER_1
 10
30.16516990923008
 20
-6.647272468494855
 30
0.0
  0
VERTEX
  5
375
  8
LAYER_1
 10
30.13590274483304
 20
-6.657604453372372
 30
0.0
  0
VERTEX
  5
376
  8
LAYER_1
 10
30.10654502517482
 20
-6.667428786653097
 30
0.0
  0
VERTEX
  5
377
  8
LAYER_1
 10
30.0771139091693
 20
-6.676739657232996
 30
0.0
  0
VERTEX
  5
378
  8
LAYER_1
 10
30.04762655573032
 20
-6.685531254008028
 30
0.0
  0
VERTEX
  5
379
  8
LAYER_1
 10
30.01810012377175
 20
-6.693797765874155
 30
0.0
  0
VERTEX
  5
37A
  8
LAYER_1
 10
29.98855177220744
 20
-6.701533381727338
 30
0.0
  0
VERTEX
  5
37B
  8
LAYER_1
 10
29.95899865995127
 20
-6.708732290463539
 30
0.0
  0
VERTEX
  5
37C
  8
LAYER_1
 10
29.92945794591708
 20
-6.715388680978718
 30
0.0
  0
VERTEX
  5
37D
  8
LAYER_1
 10
29.89994678901874
 20
-6.721496742168839
 30
0.0
  0
VERTEX
  5
37E
  8
LAYER_1
 10
29.87048234817011
 20
-6.727050662929861
 30
0.0
  0
VERTEX
  5
37F
  8
LAYER_1
 10
29.84108178228504
 20
-6.732044632157747
 30
0.0
  0
VERTEX
  5
380
  8
LAYER_1
 10
29.8117622502774
 20
-6.736472838748458
 30
0.0
  0
VERTEX
  5
381
  8
LAYER_1
 10
29.78254091106105
 20
-6.740329471597956
 30
0.0
  0
VERTEX
  5
382
  8
LAYER_1
 10
29.75343492354984
 20
-6.743608719602203
 30
0.0
  0
VERTEX
  5
383
  8
LAYER_1
 10
29.72446144665765
 20
-6.74630477165716
 30
0.0
  0
VERTEX
  5
384
  8
LAYER_1
 10
29.69563763929832
 20
-6.748411816658788
 30
0.0
  0
VERTEX
  5
385
  8
LAYER_1
 10
29.66698066038571
 20
-6.749924043503048
 30
0.0
  0
VERTEX
  5
386
  8
LAYER_1
 10
29.63850766883369
 20
-6.750835641085903
 30
0.0
  0
VERTEX
  5
387
  8
LAYER_1
 10
29.61023582355612
 20
-6.751140798303314
 30
0.0
  0
VERTEX
  5
388
  8
LAYER_1
 10
1.235235823544642
 20
-6.751140798313028
 30
0.0
  0
VERTEX
  5
389
  8
LAYER_1
 10
1.218634874273348
 20
-6.751429514024005
 30
0.0
  0
VERTEX
  5
38A
  8
LAYER_1
 10
1.20198104767677
 20
-6.752288955744722
 30
0.0
  0
VERTEX
  5
38B
  8
LAYER_1
 10
1.185284401873215
 20
-6.753709065356871
 30
0.0
  0
VERTEX
  5
38C
  8
LAYER_1
 10
1.16855499498099
 20
-6.755679784742146
 30
0.0
  0
VERTEX
  5
38D
  8
LAYER_1
 10
1.151802885118402
 20
-6.758191055782239
 30
0.0
  0
VERTEX
  5
38E
  8
LAYER_1
 10
1.135038130403757
 20
-6.761232820358845
 30
0.0
  0
VERTEX
  5
38F
  8
LAYER_1
 10
1.118270788955362
 20
-6.764795020353656
 30
0.0
  0
VERTEX
  5
390
  8
LAYER_1
 10
1.101510918891524
 20
-6.768867597648365
 30
0.0
  0
VERTEX
  5
391
  8
LAYER_1
 10
1.08476857833055
 20
-6.773440494124665
 30
0.0
  0
VERTEX
  5
392
  8
LAYER_1
 10
1.068053825390747
 20
-6.778503651664249
 30
0.0
  0
VERTEX
  5
393
  8
LAYER_1
 10
1.051376718190421
 20
-6.784047012148811
 30
0.0
  0
VERTEX
  5
394
  8
LAYER_1
 10
1.034747314847879
 20
-6.790060517460045
 30
0.0
  0
VERTEX
  5
395
  8
LAYER_1
 10
1.018175673481429
 20
-6.796534109479643
 30
0.0
  0
VERTEX
  5
396
  8
LAYER_1
 10
1.001671852209376
 20
-6.803457730089297
 30
0.0
  0
VERTEX
  5
397
  8
LAYER_1
 10
0.9852459091500283
 20
-6.810821321170701
 30
0.0
  0
VERTEX
  5
398
  8
LAYER_1
 10
0.968907902421692
 20
-6.818614824605549
 30
0.0
  0
VERTEX
  5
399
  8
LAYER_1
 10
0.9526678901426742
 20
-6.826828182275533
 30
0.0
  0
VERTEX
  5
39A
  8
LAYER_1
 10
0.9365359304312812
 20
-6.835451336062349
 30
0.0
  0
VERTEX
  5
39B
  8
LAYER_1
 10
0.9205220814058205
 20
-6.844474227847686
 30
0.0
  0
VERTEX
  5
39C
  8
LAYER_1
 10
0.9046364011845984
 20
-6.853886799513241
 30
0.0
  0
VERTEX
  5
39D
  8
LAYER_1
 10
0.8888889478859221
 20
-6.863678992940704
 30
0.0
  0
VERTEX
  5
39E
  8
LAYER_1
 10
0.8732897796280981
 20
-6.87384075001177
 30
0.0
  0
VERTEX
  5
39F
  8
LAYER_1
 10
0.8578489545294332
 20
-6.884362012608131
 30
0.0
  0
VERTEX
  5
3A0
  8
LAYER_1
 10
0.8425765307082345
 20
-6.895232722611482
 30
0.0
  0
VERTEX
  5
3A1
  8
LAYER_1
 10
0.8274825662828086
 20
-6.906442821903514
 30
0.0
  0
VERTEX
  5
3A2
  8
LAYER_1
 10
0.8125771193714624
 20
-6.91798225236592
 30
0.0
  0
VERTEX
  5
3A3
  8
LAYER_1
 10
0.7978702480925026
 20
-6.929840955880398
 30
0.0
  0
VERTEX
  5
3A4
  8
LAYER_1
 10
0.7833720105642361
 20
-6.942008874328634
 30
0.0
  0
VERTEX
  5
3A5
  8
LAYER_1
 10
0.7690924649049697
 20
-6.954475949592325
 30
0.0
  0
VERTEX
  5
3A6
  8
LAYER_1
 10
0.7550416692330102
 20
-6.967232123553164
 30
0.0
  0
VERTEX
  5
3A7
  8
LAYER_1
 10
0.7412296816666644
 20
-6.980267338092844
 30
0.0
  0
VERTEX
  5
3A8
  8
LAYER_1
 10
0.7276665603242393
 20
-6.993571535093059
 30
0.0
  0
VERTEX
  5
3A9
  8
LAYER_1
 10
0.7143623633240415
 20
-7.0071346564355
 30
0.0
  0
VERTEX
  5
3AA
  8
LAYER_1
 10
0.7013271487843777
 20
-7.020946644001862
 30
0.0
  0
VERTEX
  5
3AB
  8
LAYER_1
 10
0.688570974823555
 20
-7.034997439673838
 30
0.0
  0
VERTEX
  5
3AC
  8
LAYER_1
 10
0.6761038995598799
 20
-7.049276985333121
 30
0.0
  0
VERTEX
  5
3AD
  8
LAYER_1
 10
0.6639359811116594
 20
-7.063775222861403
 30
0.0
  0
VERTEX
  5
3AE
  8
LAYER_1
 10
0.6520772775972004
 20
-7.078482094140378
 30
0.0
  0
VERTEX
  5
3AF
  8
LAYER_1
 10
0.6405378471348097
 20
-7.093387541051739
 30
0.0
  0
VERTEX
  5
3B0
  8
LAYER_1
 10
0.6293277478427939
 20
-7.108481505477179
 30
0.0
  0
VERTEX
  5
3B1
  8
LAYER_1
 10
0.6184570378394599
 20
-7.123753929298393
 30
0.0
  0
VERTEX
  5
3B2
  8
LAYER_1
 10
0.6079357752431147
 20
-7.139194754397072
 30
0.0
  0
VERTEX
  5
3B3
  8
LAYER_1
 10
0.5977740181720648
 20
-7.15479392265491
 30
0.0
  0
VERTEX
  5
3B4
  8
LAYER_1
 10
0.5879818247446172
 20
-7.170541375953601
 30
0.0
  0
VERTEX
  5
3B5
  8
LAYER_1
 10
0.5785692530790787
 20
-7.186427056174837
 30
0.0
  0
VERTEX
  5
3B6
  8
LAYER_1
 10
0.5695463612937561
 20
-7.20244090520031
 30
0.0
  0
VERTEX
  5
3B7
  8
LAYER_1
 10
0.5609232075069563
 20
-7.218572864911716
 30
0.0
  0
VERTEX
  5
3B8
  8
LAYER_1
 10
0.5527098498369861
 20
-7.234812877190745
 30
0.0
  0
VERTEX
  5
3B9
  8
LAYER_1
 10
0.5449163464021521
 20
-7.251150883919092
 30
0.0
  0
VERTEX
  5
3BA
  8
LAYER_1
 10
0.5375527553207613
 20
-7.26757682697845
 30
0.0
  0
VERTEX
  5
3BB
  8
LAYER_1
 10
0.5306291347111204
 20
-7.284080648250512
 30
0.0
  0
VERTEX
  5
3BC
  8
LAYER_1
 10
0.5241555426915363
 20
-7.300652289616973
 30
0.0
  0
VERTEX
  5
3BD
  8
LAYER_1
 10
0.5181420373803157
 20
-7.317281692959524
 30
0.0
  0
VERTEX
  5
3BE
  8
LAYER_1
 10
0.5125986768957655
 20
-7.333958800159858
 30
0.0
  0
VERTEX
  5
3BF
  8
LAYER_1
 10
0.5075355193561927
 20
-7.35067355309967
 30
0.0
  0
VERTEX
  5
3C0
  8
LAYER_1
 10
0.5029626228799038
 20
-7.367415893660651
 30
0.0
  0
VERTEX
  5
3C1
  8
LAYER_1
 10
0.4988900455852058
 20
-7.384175763724494
 30
0.0
  0
VERTEX
  5
3C2
  8
LAYER_1
 10
0.4953278455904053
 20
-7.400943105172895
 30
0.0
  0
VERTEX
  5
3C3
  8
LAYER_1
 10
0.4922860810138093
 20
-7.417707859887546
 30
0.0
  0
VERTEX
  5
3C4
  8
LAYER_1
 10
0.4897748099737246
 20
-7.434459969750138
 30
0.0
  0
VERTEX
  5
3C5
  8
LAYER_1
 10
0.4878040905884579
 20
-7.451189376642366
 30
0.0
  0
VERTEX
  5
3C6
  8
LAYER_1
 10
0.4863839809763161
 20
-7.467886022445924
 30
0.0
  0
VERTEX
  5
3C7
  8
LAYER_1
 10
0.4855245392556061
 20
-7.484539849042504
 30
0.0
  0
VERTEX
  5
3C8
  8
LAYER_1
 10
0.4852358235446346
 20
-7.501140798313799
 30
0.0
  0
VERTEX
  5
3C9
  8
LAYER_1
 10
0.4852358235446346
 20
-33.00114079831368
 30
0.0
  0
VERTEX
  5
3CA
  8
LAYER_1
 10
52.79773582353987
 20
-33.00114079831368
 30
0.0
  0
VERTEX
  5
3CB
  8
LAYER_1
 10
52.81964100456273
 20
-33.0008544735793
 30
0.0
  0
VERTEX
  5
3CC
  8
LAYER_1
 10
52.84146897090831
 20
-33.00000205298033
 30
0.0
  0
VERTEX
  5
3CD
  8
LAYER_1
 10
52.86321831208326
 20
-32.99859336692302
 30
0.0
  0
VERTEX
  5
3CE
  8
LAYER_1
 10
52.88488761759417
 20
-32.99663824581363
 30
0.0
  0
VERTEX
  5
3CF
  8
LAYER_1
 10
52.90647547694769
 20
-32.99414652005839
 30
0.0
  0
VERTEX
  5
3D0
  8
LAYER_1
 10
52.92798047965043
 20
-32.99112802006357
 30
0.0
  0
VERTEX
  5
3D1
  8
LAYER_1
 10
52.94940121520901
 20
-32.9875925762354
 30
0.0
  0
VERTEX
  5
3D2
  8
LAYER_1
 10
52.97073627313007
 20
-32.98355001898015
 30
0.0
  0
VERTEX
  5
3D3
  8
LAYER_1
 10
52.99198424292022
 20
-32.97901017870407
 30
0.0
  0
VERTEX
  5
3D4
  8
LAYER_1
 10
53.01314371408607
 20
-32.97398288581338
 30
0.0
  0
VERTEX
  5
3D5
  8
LAYER_1
 10
53.03421327613426
 20
-32.96847797071437
 30
0.0
  0
VERTEX
  5
3D6
  8
LAYER_1
 10
53.05519151857141
 20
-32.96250526381327
 30
0.0
  0
VERTEX
  5
3D7
  8
LAYER_1
 10
53.07607703090413
 20
-32.95607459551633
 30
0.0
  0
VERTEX
  5
3D8
  8
LAYER_1
 10
53.09686840263905
 20
-32.9491957962298
 30
0.0
  0
VERTEX
  5
3D9
  8
LAYER_1
 10
53.1175642232828
 20
-32.94187869635994
 30
0.0
  0
VERTEX
  5
3DA
  8
LAYER_1
 10
53.13816308234199
 20
-32.934133126313
 30
0.0
  0
VERTEX
  5
3DB
  8
LAYER_1
 10
53.15866356932325
 20
-32.92596891649522
 30
0.0
  0
VERTEX
  5
3DC
  8
LAYER_1
 10
53.1790642737332
 20
-32.91739589731286
 30
0.0
  0
VERTEX
  5
3DD
  8
LAYER_1
 10
53.19936378507845
 20
-32.90842389917216
 30
0.0
  0
VERTEX
  5
3DE
  8
LAYER_1
 10
53.21956069286564
 20
-32.89906275247938
 30
0.0
  0
VERTEX
  5
3DF
  8
LAYER_1
 10
53.23965358660139
 20
-32.88932228764077
 30
0.0
  0
VERTEX
  5
3E0
  8
LAYER_1
 10
53.25964105579232
 20
-32.87921233506256
 30
0.0
  0
VERTEX
  5
3E1
  8
LAYER_1
 10
53.27952168994504
 20
-32.86874272515102
 30
0.0
  0
VERTEX
  5
3E2
  8
LAYER_1
 10
53.29929407856619
 20
-32.85792328831241
 30
0.0
  0
VERTEX
  5
3E3
  8
LAYER_1
 10
53.31895681116238
 20
-32.84676385495295
 30
0.0
  0
VERTEX
  5
3E4
  8
LAYER_1
 10
53.33850847724024
 20
-32.83527425547892
 30
0.0
  0
VERTEX
  5
3E5
  8
LAYER_1
 10
53.35794766630639
 20
-32.82346432029655
 30
0.0
  0
VERTEX
  5
3E6
  8
LAYER_1
 10
53.37727296786745
 20
-32.81134387981211
 30
0.0
  0
VERTEX
  5
3E7
  8
LAYER_1
 10
53.39648297143004
 20
-32.79892276443184
 30
0.0
  0
VERTEX
  5
3E8
  8
LAYER_1
 10
53.41557626650079
 20
-32.78621080456198
 30
0.0
  0
VERTEX
  5
3E9
  8
LAYER_1
 10
53.45340708919323
 20
-32.75995367297853
 30
0.0
  0
VERTEX
  5
3EA
  8
LAYER_1
 10
53.49075415199778
 20
-32.73265112831177
 30
0.0
  0
VERTEX
  5
3EB
  8
LAYER_1
 10
53.52760617096737
 20
-32.70438181381168
 30
0.0
  0
VERTEX
  5
3EC
  8
LAYER_1
 10
53.56395186215501
 20
-32.67522437272827
 30
0.0
  0
VERTEX
  5
3ED
  8
LAYER_1
 10
53.59977994161368
 20
-32.64525744831156
 30
0.0
  0
VERTEX
  5
3EE
  8
LAYER_1
 10
53.63507912539633
 20
-32.61455968381154
 30
0.0
  0
VERTEX
  5
3EF
  8
LAYER_1
 10
53.66983812955596
 20
-32.58320972247822
 30
0.0
  0
VERTEX
  5
3F0
  8
LAYER_1
 10
53.70404567014555
 20
-32.55128620756159
 30
0.0
  0
VERTEX
  5
3F1
  8
LAYER_1
 10
53.73769046321807
 20
-32.51886778231165
 30
0.0
  0
VERTEX
  5
3F2
  8
LAYER_1
 10
53.77076122482649
 20
-32.48603308997842
 30
0.0
  0
VERTEX
  5
3F3
  8
LAYER_1
 10
53.8032466710238
 20
-32.4528607738119
 30
0.0
  0
VERTEX
  5
3F4
  8
LAYER_1
 10
53.83513551786297
 20
-32.41942947706208
 30
0.0
  0
VERTEX
  5
3F5
  8
LAYER_1
 10
53.86641648139698
 20
-32.38581784297898
 30
0.0
  0
VERTEX
  5
3F6
  8
LAYER_1
 10
53.8970782776788
 20
-32.35210451481259
 30
0.0
  0
VERTEX
  5
3F7
  8
LAYER_1
 10
53.92710962276143
 20
-32.31836813581292
 30
0.0
  0
VERTEX
  5
3F8
  8
LAYER_1
 10
53.95649923269782
 20
-32.28468734922996
 30
0.0
  0
SEQEND
  5
BDD
  8
LAYER_1
  0
POLYLINE
  5
71
  8
LAYER_1
 66
     1
 10
0.0
 20
0.0
 30
0.0
 70
     1
  0
VERTEX
  5
3F9
  8
LAYER_1
 10
57.66540990077866
 20
-6.277087317681683
 30
0.0
  0
VERTEX
  5
3FA
  8
LAYER_1
 10
57.66540990077866
 20
-2.402087317681683
 30
0.0
  0
VERTEX
  5
3FB
  8
LAYER_1
 10
41.66540990077866
 20
-2.402087317681683
 30
0.0
  0
VERTEX
  5
3FC
  8
LAYER_1
 10
41.66540990077866
 20
-6.277087317681683
 30
0.0
  0
VERTEX
  5
3FD
  8
LAYER_1
 10
43.66540990077866
 20
-6.277087317681683
 30
0.0
  0
VERTEX
  5
3FE
  8
LAYER_1
 10
43.66540990077866
 20
-4.277087317681683
 30
0.0
  0
VERTEX
  5
3FF
  8
LAYER_1
 10
55.66540990077866
 20
-4.277087317681683
 30
0.0
  0
VERTEX
  5
400
  8
LAYER_1
 10
55.66540990077866
 20
-6.277087317681683
 30
0.0
  0
SEQEND
  5
BDE
  8
LAYER_1
  0
POLYLINE
  5
72
  8
LAYER_1
 66
     1
 10
0.0
 20
0.0
 30
0.0
 70
     1
  0
VERTEX
  5
401
  8
LAYER_1
 10
155.4856729601556
 20
-14.28283142486447
 30
0.0
  0
VERTEX
  5
402
  8
LAYER_1
 10
155.4856729601556
 20
-23.47032187788509
 30
0.0
  0
VERTEX
  5
403
  8
LAYER_1
 10
131.6731729601556
 20
-23.47032187788509
 30
0.0
  0
VERTEX
  5
404
  8
LAYER_1
 10
131.6731729601556
 20
-14.29012396307711
 30
0.0
  0
VERTEX
  5
405
  8
LAYER_1
 10
131.6731729601556
 20
-14.2203218778851
 30
0.0
  0
VERTEX
  5
406
  8
LAYER_1
 10
132.6731729601556
 20
-14.2203218778851
 30
0.0
  0
VERTEX
  5
407
  8
LAYER_1
 10
132.6731729601556
 20
-13.0953218778851
 30
0.0
  0
VERTEX
  5
408
  8
LAYER_1
 10
132.7674310266802
 20
-13.0953218778851
 30
0.0
  0
VERTEX
  5
409
  8
LAYER_1
 10
154.4268936179904
 20
-13.0953218778851
 30
0.0
  0
VERTEX
  5
40A
  8
LAYER_1
 10
154.4856729601556
 20
-13.0953218778851
 30
0.0
  0
VERTEX
  5
40B
  8
LAYER_1
 10
154.4856729601556
 20
-14.2203218778851
 30
0.0
  0
VERTEX
  5
40C
  8
LAYER_1
 10
155.4856729601556
 20
-14.2203218778851
 30
0.0
  0
SEQEND
  5
BDF
  8
LAYER_1
  0
POLYLINE
  5
73
  8
LAYER_1
 66
     1
 10
0.0
 20
0.0
 30
0.0
 70
     1
  0
VERTEX
  5
40D
  8
LAYER_1
 10
131.8769973782397
 20
-11.22317550366846
 30
0.0
  0
VERTEX
  5
40E
  8
LAYER_1
 10
155.6894973782397
 20
-11.22317550366846
 30
0.0
  0
VERTEX
  5
40F
  8
LAYER_1
 10
155.6894973782397
 20
3.151824496331542
 30
0.0
  0
VERTEX
  5
410
  8
LAYER_1
 10
131.8769973782397
 20
3.151824496331542
 30
0.0
  0
SEQEND
  5
BE0
  8
LAYER_1
  0
POLYLINE
  5
74
  8
LAYER_1
 66
     1
 10
0.0
 20
0.0
 30
0.0
 70
     1
  0
VERTEX
  5
411
  8
LAYER_1
 10
134.6269973782397
 20
-8.535175503668455
 30
0.0
 42
0.4142135623730951
  0
VERTEX
  5
412
  8
LAYER_1
 10
134.5014973782397
 20
-8.660675503668458
 30
0.0
 42
0.4142135623730951
  0
VERTEX
  5
413
  8
LAYER_1
 10
134.6269973782397
 20
-8.78617550366846
 30
0.0
 42
0.4142135623730951
  0
VERTEX
  5
414
  8
LAYER_1
 10
134.7524973782397
 20
-8.660675503668458
 30
0.0
 42
0.4142135623730951
  0
SEQEND
  5
BE1
  8
LAYER_1
  0
POLYLINE
  5
75
  8
LAYER_1
 66
     1
 10
0.0
 20
0.0
 30
0.0
 70
     1
  0
VERTEX
  5
415
  8
LAYER_1
 10
134.6269973782397
 20
-0.6289755036684568
 30
0.0
 42
0.4142135623730951
  0
VERTEX
  5
416
  8
LAYER_1
 10
134.5014973782397
 20
-0.7544755036684592
 30
0.0
 42
0.4142135623730951
  0
VERTEX
  5
417
  8
LAYER_1
 10
134.6269973782397
 20
-0.8799755036684616
 30
0.0
 42
0.4142135623730951
  0
VERTEX
  5
418
  8
LAYER_1
 10
134.7524973782397
 20
-0.7544755036684592
 30
0.0
 42
0.4142135623730951
  0
SEQEND
  5
BE2
  8
LAYER_1
  0
POLYLINE
  5
76
  8
LAYER_1
 66
     1
 10
0.0
 20
0.0
 30
0.0
 70
     1
  0
VERTEX
  5
419
  8
LAYER_1
 10
153.0956973782397
 20
-0.6289755036684568
 30
0.0
 42
0.4142135623730951
  0
VERTEX
  5
41A
  8
LAYER_1
 10
152.9701973782397
 20
-0.7544755036684592
 30
0.0
 42
0.4142135623730951
  0
VERTEX
  5
41B
  8
LAYER_1
 10
153.0956973782397
 20
-0.8799755036684616
 30
0.0
 42
0.4142135623730951
  0
VERTEX
  5
41C
  8
LAYER_1
 10
153.2211973782397
 20
-0.7544755036684592
 30
0.0
 42
0.4142135623730951
  0
SEQEND
  5
BE3
  8
LAYER_1
  0
POLYLINE
  5
77
  8
LAYER_1
 66
     1
 10
0.0
 20
0.0
 30
0.0
 70
     1
  0
VERTEX
  5
41D
  8
LAYER_1
 10
153.0956973782397
 20
-8.535175503668455
 30
0.0
 42
0.4142135623730951
  0
VERTEX
  5
41E
  8
LAYER_1
 10
152.9701973782397
 20
-8.660675503668458
 30
0.0
 42
0.4142135623730951
  0
VERTEX
  5
41F
  8
LAYER_1
 10
153.0956973782397
 20
-8.78617550366846
 30
0.0
 42
0.4142135623730951
  0
VERTEX
  5
420
  8
LAYER_1
 10
153.2211973782397
 20
-8.660675503668458
 30
0.0
 42
0.4142135623730951
  0
SEQEND
  5
BE4
  8
LAYER_1
  0
POLYLINE
  5
78
  8
LAYER_1
 66
     1
 10
0.0
 20
0.0
 30
0.0
 70
     1
  0
VERTEX
  5
421
  8
LAYER_1
 10
146.6752741911417
 20
-38.01114691145094
 30
0.0
  0
VERTEX
  5
422
  8
LAYER_1
 10
140.3627741911212
 20
-36.32364691146186
 30
0.0
  0
VERTEX
  5
423
  8
LAYER_1
 10
140.3613630317716
 20
-36.32276802516367
 30
0.0
  0
VERTEX
  5
424
  8
LAYER_1
 10
140.3609489863726
 20
-36.32128712835606
 30
0.0
  0
VERTEX
  5
425
  8
LAYER_1
 10
140.3612896048372
 20
-36.31934149610358
 30
0.0
  0
VERTEX
  5
426
  8
LAYER_1
 10
140.3621424370786
 20
-36.31706840347076
 30
0.0
  0
VERTEX
  5
427
  8
LAYER_1
 10
140.3644149425438
 20
-36.31208893732236
 30
0.0
  0
VERTEX
  5
428
  8
LAYER_1
 10
140.3653497155939
 20
-36.30965711393588
 30
0.0
  0
VERTEX
  5
429
  8
LAYER_1
 10
140.3658269020731
 20
-36.30744693042727
 30
0.0
  0
VERTEX
  5
42A
  8
LAYER_1
 10
140.3663379640575
 20
-36.29717521149612
 30
0.0
  0
VERTEX
  5
42B
  8
LAYER_1
 10
140.3662003484431
 20
-36.28696433215615
 30
0.0
  0
VERTEX
  5
42C
  8
LAYER_1
 10
140.3654286843515
 20
-36.27682859236123
 30
0.0
  0
VERTEX
  5
42D
  8
LAYER_1
 10
140.3640376009042
 20
-36.2667822920653
 30
0.0
  0
VERTEX
  5
42E
  8
LAYER_1
 10
140.3620417272228
 20
-36.25683973122224
 30
0.0
  0
VERTEX
  5
42F
  8
LAYER_1
 10
140.359455692429
 20
-36.24701520978596
 30
0.0
  0
VERTEX
  5
430
  8
LAYER_1
 10
140.3562941256442
 20
-36.23732302771036
 30
0.0
  0
VERTEX
  5
431
  8
LAYER_1
 10
140.35257165599
 20
-36.22777748494936
 30
0.0
  0
VERTEX
  5
432
  8
LAYER_1
 10
140.3483029125881
 20
-36.21839288145684
 30
0.0
  0
VERTEX
  5
433
  8
LAYER_1
 10
140.3435025245599
 20
-36.20918351718672
 30
0.0
  0
VERTEX
  5
434
  8
LAYER_1
 10
140.3381851210271
 20
-36.2001636920929
 30
0.0
  0
VERTEX
  5
435
  8
LAYER_1
 10
140.3323653311112
 20
-36.19134770612929
 30
0.0
  0
VERTEX
  5
436
  8
LAYER_1
 10
140.3260577839338
 20
-36.18274985924978
 30
0.0
  0
VERTEX
  5
437
  8
LAYER_1
 10
140.3192771086165
 20
-36.17438445140829
 30
0.0
  0
VERTEX
  5
438
  8
LAYER_1
 10
140.3120379342809
 20
-36.16626578255871
 30
0.0
  0
VERTEX
  5
439
  8
LAYER_1
 10
140.3043548900484
 20
-36.15840815265494
 30
0.0
  0
VERTEX
  5
43A
  8
LAYER_1
 10
140.2962426050408
 20
-36.1508258616509
 30
0.0
  0
VERTEX
  5
43B
  8
LAYER_1
 10
140.2877157083795
 20
-36.14353320950048
 30
0.0
  0
VERTEX
  5
43C
  8
LAYER_1
 10
140.2787888291861
 20
-36.1365444961576
 30
0.0
  0
VERTEX
  5
43D
  8
LAYER_1
 10
140.2694765965823
 20
-36.12987402157614
 30
0.0
  0
VERTEX
  5
43E
  8
LAYER_1
 10
140.2597936396895
 20
-36.12353608571001
 30
0.0
  0
VERTEX
  5
43F
  8
LAYER_1
 10
140.2497545876294
 20
-36.11754498851314
 30
0.0
  0
VERTEX
  5
440
  8
LAYER_1
 10
140.2393740695234
 20
-36.1119150299394
 30
0.0
  0
VERTEX
  5
441
  8
LAYER_1
 10
140.2286667144933
 20
-36.10666050994271
 30
0.0
  0
VERTEX
  5
442
  8
LAYER_1
 10
140.2176471516606
 20
-36.10179572847697
 30
0.0
  0
VERTEX
  5
443
  8
LAYER_1
 10
140.2063300101468
 20
-36.09733498549609
 30
0.0
  0
VERTEX
  5
444
  8
LAYER_1
 10
140.1947299190735
 20
-36.09329258095396
 30
0.0
  0
VERTEX
  5
445
  8
LAYER_1
 10
140.1828615075623
 20
-36.0896828148045
 30
0.0
  0
VERTEX
  5
446
  8
LAYER_1
 10
140.1707394047347
 20
-36.08651998700161
 30
0.0
  0
VERTEX
  5
447
  8
LAYER_1
 10
140.1583782397124
 20
-36.08381839749918
 30
0.0
  0
VERTEX
  5
448
  8
LAYER_1
 10
140.1457926416169
 20
-36.08159234625112
 30
0.0
  0
VERTEX
  5
449
  8
LAYER_1
 10
140.1329972395698
 20
-36.07985613321134
 30
0.0
  0
VERTEX
  5
44A
  8
LAYER_1
 10
140.1212538477102
 20
-36.07872096558138
 30
0.0
  0
VERTEX
  5
44B
  8
LAYER_1
 10
140.1096151955466
 20
-36.07802855903417
 30
0.0
  0
VERTEX
  5
44C
  8
LAYER_1
 10
140.0980940268514
 20
-36.07777073900557
 30
0.0
  0
VERTEX
  5
44D
  8
LAYER_1
 10
140.0867030853968
 20
-36.07793933093148
 30
0.0
  0
VERTEX
  5
44E
  8
LAYER_1
 10
140.0754551149551
 20
-36.07852616024775
 30
0.0
  0
VERTEX
  5
44F
  8
LAYER_1
 10
140.0643628592986
 20
-36.07952305239026
 30
0.0
  0
VERTEX
  5
450
  8
LAYER_1
 10
140.0534390621997
 20
-36.08092183279489
 30
0.0
  0
VERTEX
  5
451
  8
LAYER_1
 10
140.0426964674306
 20
-36.08271432689749
 30
0.0
  0
VERTEX
  5
452
  8
LAYER_1
 10
140.0321478187636
 20
-36.08489236013394
 30
0.0
  0
VERTEX
  5
453
  8
LAYER_1
 10
140.0218058599711
 20
-36.08744775794012
 30
0.0
  0
VERTEX
  5
454
  8
LAYER_1
 10
140.0116833348253
 20
-36.09037234575189
 30
0.0
  0
VERTEX
  5
455
  8
LAYER_1
 10
140.0017929870986
 20
-36.09365794900512
 30
0.0
  0
VERTEX
  5
456
  8
LAYER_1
 10
139.9921475605631
 20
-36.09729639313569
 30
0.0
  0
VERTEX
  5
457
  8
LAYER_1
 10
139.9827597989914
 20
-36.10127950357948
 30
0.0
  0
VERTEX
  5
458
  8
LAYER_1
 10
139.9736424461555
 20
-36.10559910577234
 30
0.0
  0
VERTEX
  5
459
  8
LAYER_1
 10
139.9648082458279
 20
-36.11024702515014
 30
0.0
  0
VERTEX
  5
45A
  8
LAYER_1
 10
139.9562699417808
 20
-36.11521508714878
 30
0.0
  0
VERTEX
  5
45B
  8
LAYER_1
 10
139.9480402777866
 20
-36.1204951172041
 30
0.0
  0
VERTEX
  5
45C
  8
LAYER_1
 10
139.9401319976175
 20
-36.12607894075199
 30
0.0
  0
VERTEX
  5
45D
  8
LAYER_1
 10
139.9325578450458
 20
-36.13195838322832
 30
0.0
  0
VERTEX
  5
45E
  8
LAYER_1
 10
139.9253305638439
 20
-36.13812527006895
 30
0.0
  0
VERTEX
  5
45F
  8
LAYER_1
 10
139.9184628977841
 20
-36.14457142670976
 30
0.0
  0
VERTEX
  5
460
  8
LAYER_1
 10
139.9119675906386
 20
-36.15128867858662
 30
0.0
  0
VERTEX
  5
461
  8
LAYER_1
 10
139.9058573861797
 20
-36.1582688511354
 30
0.0
  0
VERTEX
  5
462
  8
LAYER_1
 10
139.9001450281797
 20
-36.16550376979197
 30
0.0
  0
VERTEX
  5
463
  8
LAYER_1
 10
139.8948432604111
 20
-36.1729852599922
 30
0.0
  0
VERTEX
  5
464
  8
LAYER_1
 10
139.8899648266459
 20
-36.18070514717198
 30
0.0
  0
VERTEX
  5
465
  8
LAYER_1
 10
139.8855224706566
 20
-36.18865525676716
 30
0.0
  0
VERTEX
  5
466
  8
LAYER_1
 10
139.8815289362155
 20
-36.1968274142136
 30
0.0
  0
VERTEX
  5
467
  8
LAYER_1
 10
139.8779969670948
 20
-36.2052134449472
 30
0.0
  0
VERTEX
  5
468
  8
LAYER_1
 10
139.8749393070669
 20
-36.21380517440382
 30
0.0
  0
VERTEX
  5
469
  8
LAYER_1
 10
139.872368699904
 20
-36.22259442801934
 30
0.0
  0
VERTEX
  5
46A
  8
LAYER_1
 10
139.8677423765542
 20
-36.24191863563526
 30
0.0
  0
VERTEX
  5
46B
  8
LAYER_1
 10
139.8654075641681
 20
-36.25157396678381
 30
0.0
  0
VERTEX
  5
46C
  8
LAYER_1
 10
139.8627741911279
 20
-36.26114691145904
 30
0.0
  0
VERTEX
  5
46D
  8
LAYER_1
 10
139.675274191144
 20
-36.88614691145241
 30
0.0
  0
VERTEX
  5
46E
  8
LAYER_1
 10
135.3002741911366
 20
-35.69864691145651
 30
0.0
  0
VERTEX
  5
46F
  8
LAYER_1
 10
135.4877741911379
 20
-35.07364691145579
 30
0.0
  0
VERTEX
  5
470
  8
LAYER_1
 10
135.4915800826624
 20
-35.06159287157017
 30
0.0
  0
VERTEX
  5
471
  8
LAYER_1
 10
135.4953409191446
 20
-35.04949369851474
 30
0.0
  0
VERTEX
  5
472
  8
LAYER_1
 10
135.4984236066877
 20
-35.03726993472436
 30
0.0
  0
VERTEX
  5
473
  8
LAYER_1
 10
135.4995128027643
 20
-35.03108650081447
 30
0.0
  0
VERTEX
  5
474
  8
LAYER_1
 10
135.5001950513948
 20
-35.02484212263392
 30
0.0
  0
VERTEX
  5
475
  8
LAYER_1
 10
135.5005721581782
 20
-35.01590731507675
 30
0.0
  0
VERTEX
  5
476
  8
LAYER_1
 10
135.5004247556636
 20
-35.00693484610318
 30
0.0
  0
VERTEX
  5
477
  8
LAYER_1
 10
135.4997613084251
 20
-34.99793681259137
 30
0.0
  0
VERTEX
  5
478
  8
LAYER_1
 10
135.4985902810367
 20
-34.98892531141949
 30
0.0
  0
VERTEX
  5
479
  8
LAYER_1
 10
135.4969201380723
 20
-34.97991243946572
 30
0.0
  0
VERTEX
  5
47A
  8
LAYER_1
 10
135.4947593441059
 20
-34.97091029360823
 30
0.0
  0
VERTEX
  5
47B
  8
LAYER_1
 10
135.4921163637116
 20
-34.96193097072519
 30
0.0
  0
VERTEX
  5
47C
  8
LAYER_1
 10
135.4889996614632
 20
-34.95298656769477
 30
0.0
  0
VERTEX
  5
47D
  8
LAYER_1
 10
135.4854177019348
 20
-34.94408918139512
 30
0.0
  0
VERTEX
  5
47E
  8
LAYER_1
 10
135.4813789497003
 20
-34.93525090870445
 30
0.0
  0
VERTEX
  5
47F
  8
LAYER_1
 10
135.4768918693338
 20
-34.92648384650091
 30
0.0
  0
VERTEX
  5
480
  8
LAYER_1
 10
135.4719649254092
 20
-34.91780009166266
 30
0.0
  0
VERTEX
  5
481
  8
LAYER_1
 10
135.4666065825004
 20
-34.90921174106789
 30
0.0
  0
VERTEX
  5
482
  8
LAYER_1
 10
135.4608253051816
 20
-34.90073089159476
 30
0.0
  0
VERTEX
  5
483
  8
LAYER_1
 10
135.4546295580266
 20
-34.89236964012144
 30
0.0
  0
VERTEX
  5
484
  8
LAYER_1
 10
135.4480278056094
 20
-34.88414008352612
 30
0.0
  0
VERTEX
  5
485
  8
LAYER_1
 10
135.441028512504
 20
-34.87605431868694
 30
0.0
  0
VERTEX
  5
486
  8
LAYER_1
 10
135.4336401432845
 20
-34.8681244424821
 30
0.0
  0
VERTEX
  5
487
  8
LAYER_1
 10
135.4258711625247
 20
-34.86036255178975
 30
0.0
  0
VERTEX
  5
488
  8
LAYER_1
 10
135.4177300347987
 20
-34.85278074348808
 30
0.0
  0
VERTEX
  5
489
  8
LAYER_1
 10
135.4092252246804
 20
-34.84539111445524
 30
0.0
  0
VERTEX
  5
48A
  8
LAYER_1
 10
135.4003651967438
 20
-34.83820576156941
 30
0.0
  0
VERTEX
  5
48B
  8
LAYER_1
 10
135.391158415563
 20
-34.83123678170877
 30
0.0
  0
VERTEX
  5
48C
  8
LAYER_1
 10
135.3816133457119
 20
-34.82449627175148
 30
0.0
  0
VERTEX
  5
48D
  8
LAYER_1
 10
135.3717384517644
 20
-34.81799632857572
 30
0.0
  0
VERTEX
  5
48E
  8
LAYER_1
 10
135.3615421982945
 20
-34.81174904905964
 30
0.0
  0
VERTEX
  5
48F
  8
LAYER_1
 10
135.3510330498763
 20
-34.80576653008144
 30
0.0
  0
VERTEX
  5
490
  8
LAYER_1
 10
135.3402194710837
 20
-34.80006086851926
 30
0.0
  0
VERTEX
  5
491
  8
LAYER_1
 10
135.3291099264907
 20
-34.79464416125128
 30
0.0
  0
VERTEX
  5
492
  8
LAYER_1
 10
135.3177128806713
 20
-34.7895285051557
 30
0.0
  0
VERTEX
  5
493
  8
LAYER_1
 10
135.3060367981994
 20
-34.78472599711067
 30
0.0
  0
VERTEX
  5
494
  8
LAYER_1
 10
135.294090143649
 20
-34.78024873399435
 30
0.0
  0
VERTEX
  5
495
  8
LAYER_1
 10
135.2803521750952
 20
-34.77562245450453
 30
0.0
  0
VERTEX
  5
496
  8
LAYER_1
 10
135.2666212858955
 20
-34.77154243294115
 30
0.0
  0
VERTEX
  5
497
  8
LAYER_1
 10
135.2529183667498
 20
-34.76800278187459
 30
0.0
  0
VERTEX
  5
498
  8
LAYER_1
 10
135.2392643083583
 20
-34.76499761387525
 30
0.0
  0
VERTEX
  5
499
  8
LAYER_1
 10
135.2256800014209
 20
-34.76252104151351
 30
0.0
  0
VERTEX
  5
49A
  8
LAYER_1
 10
135.2121863366376
 20
-34.76056717735975
 30
0.0
  0
VERTEX
  5
49B
  8
LAYER_1
 10
135.1988042047084
 20
-34.75913013398437
 30
0.0
  0
VERTEX
  5
49C
  8
LAYER_1
 10
135.1855544963335
 20
-34.75820402395775
 30
0.0
  0
VERTEX
  5
49D
  8
LAYER_1
 10
135.1724581022127
 20
-34.75778295985029
 30
0.0
  0
VERTEX
  5
49E
  8
LAYER_1
 10
135.1595359130461
 20
-34.75786105423235
 30
0.0
  0
VERTEX
  5
49F
  8
LAYER_1
 10
135.1468088195336
 20
-34.75843241967433
 30
0.0
  0
VERTEX
  5
4A0
  8
LAYER_1
 10
135.1342977123754
 20
-34.75949116874662
 30
0.0
  0
VERTEX
  5
4A1
  8
LAYER_1
 10
135.1220234822715
 20
-34.76103141401961
 30
0.0
  0
VERTEX
  5
4A2
  8
LAYER_1
 10
135.1100070199218
 20
-34.76304726806368
 30
0.0
  0
VERTEX
  5
4A3
  8
LAYER_1
 10
135.0982692160263
 20
-34.76553284344922
 30
0.0
  0
VERTEX
  5
4A4
  8
LAYER_1
 10
135.0868309612852
 20
-34.76848225274662
 30
0.0
  0
VERTEX
  5
4A5
  8
LAYER_1
 10
135.0757131463983
 20
-34.77188960852625
 30
0.0
  0
VERTEX
  5
4A6
  8
LAYER_1
 10
135.0649366620657
 20
-34.77574902335851
 30
0.0
  0
VERTEX
  5
4A7
  8
LAYER_1
 10
135.0545223989875
 20
-34.7800546098138
 30
0.0
  0
VERTEX
  5
4A8
  8
LAYER_1
 10
135.0444912478636
 20
-34.78480048046248
 30
0.0
  0
VERTEX
  5
4A9
  8
LAYER_1
 10
135.034864099394
 20
-34.78998074787495
 30
0.0
  0
VERTEX
  5
4AA
  8
LAYER_1
 10
135.0256618442788
 20
-34.7955895246216
 30
0.0
  0
VERTEX
  5
4AB
  8
LAYER_1
 10
135.0169053732179
 20
-34.80162092327282
 30
0.0
  0
VERTEX
  5
4AC
  8
LAYER_1
 10
135.0086155769115
 20
-34.80806905639898
 30
0.0
  0
VERTEX
  5
4AD
  8
LAYER_1
 10
135.0008133460595
 20
-34.81492803657048
 30
0.0
  0
VERTEX
  5
4AE
  8
LAYER_1
 10
134.9935195713618
 20
-34.8221919763577
 30
0.0
  0
VERTEX
  5
4AF
  8
LAYER_1
 10
134.9867551435186
 20
-34.82985498833104
 30
0.0
  0
VERTEX
  5
4B0
  8
LAYER_1
 10
134.9805409532299
 20
-34.83791118506086
 30
0.0
  0
VERTEX
  5
4B1
  8
LAYER_1
 10
134.9748978911957
 20
-34.84635467911757
 30
0.0
  0
VERTEX
  5
4B2
  8
LAYER_1
 10
134.9698468481159
 20
-34.85517958307155
 30
0.0
  0
VERTEX
  5
4B3
  8
LAYER_1
 10
134.9654087146906
 20
-34.8643800094932
 30
0.0
  0
VERTEX
  5
4B4
  8
LAYER_1
 10
134.9616043816197
 20
-34.87395007095288
 30
0.0
  0
VERTEX
  5
4B5
  8
LAYER_1
 10
134.9607879262355
 20
-34.87777827563535
 30
0.0
  0
VERTEX
  5
4B6
  8
LAYER_1
 10
134.9601164617767
 20
-34.88206886314625
 30
0.0
  0
VERTEX
  5
4B7
  8
LAYER_1
 10
134.9596292953237
 20
-34.88392737271273
 30
0.0
  0
VERTEX
  5
4B8
  8
LAYER_1
 10
134.958931409617
 20
-34.88534926468678
 30
0.0
  0
VERTEX
  5
4B9
  8
LAYER_1
 10
134.9579404823286
 20
-34.88615046796853
 30
0.0
  0
VERTEX
  5
4BA
  8
LAYER_1
 10
134.95657419113
 20
-34.88614691145813
 30
0.0
  0
VERTEX
  5
4BB
  8
LAYER_1
 10
133.5815741911325
 20
-34.47984691145735
 30
0.0
  0
VERTEX
  5
4BC
  8
LAYER_1
 10
134.1127741911276
 20
-29.76114691145856
 30
0.0
  0
VERTEX
  5
4BD
  8
LAYER_1
 10
139.1127741911362
 20
-29.76114691145757
 30
0.0
  0
VERTEX
  5
4BE
  8
LAYER_1
 10
139.1127741911316
 20
-28.13614691145813
 30
0.0
  0
VERTEX
  5
4BF
  8
LAYER_1
 10
139.8002741911304
 20
-28.13614691145822
 30
0.0
  0
VERTEX
  5
4C0
  8
LAYER_1
 10
139.8041550508383
 20
-28.13704125777333
 30
0.0
 42
0.4142135623730951
  0
VERTEX
  5
4C1
  8
LAYER_1
 10
140.0541550508383
 20
-27.88704125777333
 30
0.0
 42
0.4142135623730951
  0
VERTEX
  5
4C2
  8
LAYER_1
 10
139.8041550508383
 20
-27.63704125777333
 30
0.0
  0
VERTEX
  5
4C3
  8
LAYER_1
 10
139.8002741911304
 20
-27.63363605025339
 30
0.0
  0
VERTEX
  5
4C4
  8
LAYER_1
 10
139.8002741911303
 20
-27.01114691145821
 30
0.0
  0
VERTEX
  5
4C5
  8
LAYER_1
 10
163.5502741911303
 20
-27.01114691145821
 30
0.0
  0
VERTEX
  5
4C6
  8
LAYER_1
 10
163.5502741911303
 20
-35.76114691145828
 30
0.0
  0
VERTEX
  5
4C7
  8
LAYER_1
 10
146.7377741911336
 20
-38.76114691145609
 30
0.0
  0
VERTEX
  5
4C8
  8
LAYER_1
 10
146.6752741911382
 20
-38.32364691145273
 30
0.0
  0
VERTEX
  5
4C9
  8
LAYER_1
 10
146.687922738119
 20
-38.32218959195938
 30
0.0
 42
0.4142135623730951
  0
VERTEX
  5
4CA
  8
LAYER_1
 10
146.844187749262
 20
-38.17053700808888
 30
0.0
 42
0.3160497059051959
  0
VERTEX
  5
4CB
  8
LAYER_1
 10
146.687922738119
 20
-38.01427199694586
 30
0.0
  0
SEQEND
  5
BE5
  8
LAYER_1
  0
POLYLINE
  5
79
  8
LAYER_1
 66
     1
 10
0.0
 20
0.0
 30
0.0
 70
     1
  0
VERTEX
  5
4CC
  8
LAYER_1
 10
22.39324615136574
 20
-34.48012915393712
 30
0.0
  0
VERTEX
  5
4CD
  8
LAYER_1
 10
0.643246151365723
 20
-34.48012915393712
 30
0.0
  0
VERTEX
  5
4CE
  8
LAYER_1
 10
0.643246151365723
 20
-36.48012915393712
 30
0.0
  0
VERTEX
  5
4CF
  8
LAYER_1
 10
22.39324615136574
 20
-36.48012915393712
 30
0.0
  0
SEQEND
  5
BE6
  8
LAYER_1
  0
POLYLINE
  5
7A
  8
LAYER_1
 66
     1
 10
0.0
 20
0.0
 30
0.0
 70
     1
  0
VERTEX
  5
4D0
  8
LAYER_1
 10
45.90435523773861
 20
-34.6358318631184
 30
0.0
  0
VERTEX
  5
4D1
  8
LAYER_1
 10
24.15435523773859
 20
-34.6358318631184
 30
0.0
  0
VERTEX
  5
4D2
  8
LAYER_1
 10
24.15435523773859
 20
-36.6358318631184
 30
0.0
  0
VERTEX
  5
4D3
  8
LAYER_1
 10
45.90435523773861
 20
-36.6358318631184
 30
0.0
  0
SEQEND
  5
BE7
  8
LAYER_1
  0
POLYLINE
  5
7B
  8
LAYER_1
 66
     1
 10
0.0
 20
0.0
 30
0.0
 70
     1
  0
VERTEX
  5
4D4
  8
LAYER_1
 10
76.4654807600661
 20
-30.30466120756279
 30
0.0
  0
VERTEX
  5
4D5
  8
LAYER_1
 10
100.2779807600661
 20
-30.30466120756279
 30
0.0
  0
VERTEX
  5
4D6
  8
LAYER_1
 10
100.2779807600661
 20
-6.617161207562809
 30
0.0
  0
VERTEX
  5
4D7
  8
LAYER_1
 10
76.4654807600661
 20
-6.617161207562809
 30
0.0
  0
SEQEND
  5
BE8
  8
LAYER_1
  0
POLYLINE
  5
7C
  8
LAYER_1
 66
     1
 10
0.0
 20
0.0
 30
0.0
 70
     1
  0
VERTEX
  5
4D8
  8
LAYER_1
 10
78.4654807600661
 20
-28.11716120756279
 30
0.0
 42
0.4142135623730951
  0
VERTEX
  5
4D9
  8
LAYER_1
 10
78.2779807600661
 20
-28.30466120756279
 30
0.0
 42
0.4142135623730951
  0
VERTEX
  5
4DA
  8
LAYER_1
 10
78.4654807600661
 20
-28.49216120756279
 30
0.0
 42
0.4142135623730951
  0
VERTEX
  5
4DB
  8
LAYER_1
 10
78.6529807600661
 20
-28.30466120756279
 30
0.0
 42
0.4142135623730951
  0
SEQEND
  5
BE9
  8
LAYER_1
  0
POLYLINE
  5
7D
  8
LAYER_1
 66
     1
 10
0.0
 20
0.0
 30
0.0
 70
     1
  0
VERTEX
  5
4DC
  8
LAYER_1
 10
98.2779807600661
 20
-28.11716120756279
 30
0.0
 42
0.4142135623730951
  0
VERTEX
  5
4DD
  8
LAYER_1
 10
98.0904807600661
 20
-28.30466120756279
 30
0.0
 42
0.4142135623730951
  0
VERTEX
  5
4DE
  8
LAYER_1
 10
98.2779807600661
 20
-28.49216120756279
 30
0.0
 42
0.4142135623730951
  0
VERTEX
  5
4DF
  8
LAYER_1
 10
98.4654807600661
 20
-28.30466120756279
 30
0.0
 42
0.4142135623730951
  0
SEQEND
  5
BEA
  8
LAYER_1
  0
POLYLINE
  5
7E
  8
LAYER_1
 66
     1
 10
0.0
 20
0.0
 30
0.0
 70
     1
  0
VERTEX
  5
4E0
  8
LAYER_1
 10
98.2779807600661
 20
-8.429661207562809
 30
0.0
 42
0.4142135623730951
  0
VERTEX
  5
4E1
  8
LAYER_1
 10
98.0904807600661
 20
-8.617161207562809
 30
0.0
 42
0.4142135623730951
  0
VERTEX
  5
4E2
  8
LAYER_1
 10
98.2779807600661
 20
-8.804661207562809
 30
0.0
 42
0.4142135623730951
  0
VERTEX
  5
4E3
  8
LAYER_1
 10
98.4654807600661
 20
-8.617161207562809
 30
0.0
 42
0.4142135623730951
  0
SEQEND
  5
BEB
  8
LAYER_1
  0
POLYLINE
  5
7F
  8
LAYER_1
 66
     1
 10
0.0
 20
0.0
 30
0.0
 70
     1
  0
VERTEX
  5
4E4
  8
LAYER_1
 10
78.4654807600661
 20
-8.429661207562809
 30
0.0
 42
0.4142135623730951
  0
VERTEX
  5
4E5
  8
LAYER_1
 10
78.2779807600661
 20
-8.617161207562809
 30
0.0
 42
0.4142135623730951
  0
VERTEX
  5
4E6
  8
LAYER_1
 10
78.4654807600661
 20
-8.804661207562809
 30
0.0
 42
0.4142135623730951
  0
VERTEX
  5
4E7
  8
LAYER_1
 10
78.6529807600661
 20
-8.617161207562809
 30
0.0
 42
0.4142135623730951
  0
SEQEND
  5
BEC
  8
LAYER_1
  0
POLYLINE
  5
80
  8
LAYER_1
 66
     1
 10
0.0
 20
0.0
 30
0.0
 70
     1
  0
VERTEX
  5
4E8
  8
LAYER_1
 10
80.57718095891656
 20
13.6410884085577
 30
0.0
  0
VERTEX
  5
4E9
  8
LAYER_1
 10
86.88968095893708
 20
11.95358840856861
 30
0.0
  0
VERTEX
  5
4EA
  8
LAYER_1
 10
86.8910921182866
 20
11.95270952227043
 30
0.0
  0
VERTEX
  5
4EB
  8
LAYER_1
 10
86.89150616368562
 20
11.95122862546282
 30
0.0
  0
VERTEX
  5
4EC
  8
LAYER_1
 10
86.89116554522101
 20
11.94928299321034
 30
0.0
  0
VERTEX
  5
4ED
  8
LAYER_1
 10
86.89031271297968
 20
11.94700990057752
 30
0.0
  0
VERTEX
  5
4EE
  8
LAYER_1
 10
86.88804020751445
 20
11.94203043442912
 30
0.0
  0
VERTEX
  5
4EF
  8
LAYER_1
 10
86.88710543446435
 20
11.93959861104263
 30
0.0
  0
VERTEX
  5
4F0
  8
LAYER_1
 10
86.8866282479851
 20
11.93738842753402
 30
0.0
  0
VERTEX
  5
4F1
  8
LAYER_1
 10
86.88611718600072
 20
11.92711670860288
 30
0.0
  0
VERTEX
  5
4F2
  8
LAYER_1
 10
86.88625480161512
 20
11.9169058292629
 30
0.0
  0
VERTEX
  5
4F3
  8
LAYER_1
 10
86.88702646570675
 20
11.90677008946798
 30
0.0
  0
VERTEX
  5
4F4
  8
LAYER_1
 10
86.88841754915404
 20
11.89672378917205
 30
0.0
  0
VERTEX
  5
4F5
  8
LAYER_1
 10
86.89041342283541
 20
11.88678122832899
 30
0.0
  0
VERTEX
  5
4F6
  8
LAYER_1
 10
86.89299945762926
 20
11.87695670689271
 30
0.0
  0
VERTEX
  5
4F7
  8
LAYER_1
 10
86.89616102441406
 20
11.86726452481712
 30
0.0
  0
VERTEX
  5
4F8
  8
LAYER_1
 10
86.89988349406822
 20
11.85771898205611
 30
0.0
  0
VERTEX
  5
4F9
  8
LAYER_1
 10
86.90415223747017
 20
11.8483343785636
 30
0.0
  0
VERTEX
  5
4FA
  8
LAYER_1
 10
86.90895262549833
 20
11.83912501429348
 30
0.0
  0
VERTEX
  5
4FB
  8
LAYER_1
 10
86.91427002903114
 20
11.83010518919966
 30
0.0
  0
VERTEX
  5
4FC
  8
LAYER_1
 10
86.92008981894702
 20
11.82128920323605
 30
0.0
  0
VERTEX
  5
4FD
  8
LAYER_1
 10
86.9263973661244
 20
11.81269135635654
 30
0.0
  0
VERTEX
  5
4FE
  8
LAYER_1
 10
86.9331780414417
 20
11.80432594851505
 30
0.0
  0
VERTEX
  5
4FF
  8
LAYER_1
 10
86.94041721577737
 20
11.79620727966546
 30
0.0
  0
VERTEX
  5
500
  8
LAYER_1
 10
86.94810026000982
 20
11.7883496497617
 30
0.0
  0
VERTEX
  5
501
  8
LAYER_1
 10
86.95621254501748
 20
11.78076735875766
 30
0.0
  0
VERTEX
  5
502
  8
LAYER_1
 10
86.96473944167879
 20
11.77347470660724
 30
0.0
  0
VERTEX
  5
503
  8
LAYER_1
 10
86.97366632087216
 20
11.76648599326435
 30
0.0
  0
VERTEX
  5
504
  8
LAYER_1
 10
86.982978553476
 20
11.7598155186829
 30
0.0
  0
VERTEX
  5
505
  8
LAYER_1
 10
86.99266151036878
 20
11.75347758281678
 30
0.0
  0
VERTEX
  5
506
  8
LAYER_1
 10
87.0027005624289
 20
11.7474864856199
 30
0.0
  0
VERTEX
  5
507
  8
LAYER_1
 10
87.0130810805348
 20
11.74185652704617
 30
0.0
  0
VERTEX
  5
508
  8
LAYER_1
 10
87.02378843556491
 20
11.73660200704948
 30
0.0
  0
VERTEX
  5
509
  8
LAYER_1
 10
87.03480799839764
 20
11.73173722558374
 30
0.0
  0
VERTEX
  5
50A
  8
LAYER_1
 10
87.04612513991145
 20
11.72727648260286
 30
0.0
  0
VERTEX
  5
50B
  8
LAYER_1
 10
87.05772523098474
 20
11.72323407806073
 30
0.0
  0
VERTEX
  5
50C
  8
LAYER_1
 10
87.06959364249595
 20
11.71962431191127
 30
0.0
  0
VERTEX
  5
50D
  8
LAYER_1
 10
87.08171574532349
 20
11.71646148410837
 30
0.0
  0
VERTEX
  5
50E
  8
LAYER_1
 10
87.09407691034582
 20
11.71375989460595
 30
0.0
  0
VERTEX
  5
50F
  8
LAYER_1
 10
87.10666250844133
 20
11.71153384335789
 30
0.0
  0
VERTEX
  5
510
  8
LAYER_1
 10
87.11945791048848
 20
11.70979763031811
 30
0.0
  0
VERTEX
  5
511
  8
LAYER_1
 10
87.13120130234807
 20
11.70866246268815
 30
0.0
  0
VERTEX
  5
512
  8
LAYER_1
 10
87.14283995451163
 20
11.70797005614094
 30
0.0
  0
VERTEX
  5
513
  8
LAYER_1
 10
87.15436112320688
 20
11.70771223611235
 30
0.0
  0
VERTEX
  5
514
  8
LAYER_1
 10
87.16575206466148
 20
11.70788082803825
 30
0.0
  0
VERTEX
  5
515
  8
LAYER_1
 10
87.17700003510316
 20
11.70846765735453
 30
0.0
  0
VERTEX
  5
516
  8
LAYER_1
 10
87.18809229075961
 20
11.70946454949704
 30
0.0
  0
VERTEX
  5
517
  8
LAYER_1
 10
87.19901608785854
 20
11.71086332990166
 30
0.0
  0
VERTEX
  5
518
  8
LAYER_1
 10
87.20975868262762
 20
11.71265582400426
 30
0.0
  0
VERTEX
  5
519
  8
LAYER_1
 10
87.22030733129458
 20
11.71483385724071
 30
0.0
  0
VERTEX
  5
51A
  8
LAYER_1
 10
87.23064929008711
 20
11.71738925504688
 30
0.0
  0
VERTEX
  5
51B
  8
LAYER_1
 10
87.2407718152329
 20
11.72031384285865
 30
0.0
  0
VERTEX
  5
51C
  8
LAYER_1
 10
87.25066216295966
 20
11.72359944611189
 30
0.0
  0
VERTEX
  5
51D
  8
LAYER_1
 10
87.26030758949507
 20
11.72723789024246
 30
0.0
  0
VERTEX
  5
51E
  8
LAYER_1
 10
87.26969535106686
 20
11.73122100068624
 30
0.0
  0
VERTEX
  5
51F
  8
LAYER_1
 10
87.2788127039027
 20
11.7355406028791
 30
0.0
  0
VERTEX
  5
520
  8
LAYER_1
 10
87.28764690423033
 20
11.74018852225691
 30
0.0
  0
VERTEX
  5
521
  8
LAYER_1
 10
87.2961852082774
 20
11.74515658425554
 30
0.0
  0
VERTEX
  5
522
  8
LAYER_1
 10
87.30441487227162
 20
11.75043661431086
 30
0.0
  0
VERTEX
  5
523
  8
LAYER_1
 10
87.31232315244074
 20
11.75602043785875
 30
0.0
  0
VERTEX
  5
524
  8
LAYER_1
 10
87.31989730501239
 20
11.76189988033508
 30
0.0
  0
VERTEX
  5
525
  8
LAYER_1
 10
87.32712458621431
 20
11.76806676717571
 30
0.0
  0
VERTEX
  5
526
  8
LAYER_1
 10
87.33399225227419
 20
11.77451292381652
 30
0.0
  0
VERTEX
  5
527
  8
LAYER_1
 10
87.3404875594197
 20
11.78123017569338
 30
0.0
  0
VERTEX
  5
528
  8
LAYER_1
 10
87.34659776387858
 20
11.78821034824216
 30
0.0
  0
VERTEX
  5
529
  8
LAYER_1
 10
87.3523101218785
 20
11.79544526689873
 30
0.0
  0
VERTEX
  5
52A
  8
LAYER_1
 10
87.35761188964719
 20
11.80292675709896
 30
0.0
  0
VERTEX
  5
52B
  8
LAYER_1
 10
87.36249032341232
 20
11.81064664427873
 30
0.0
  0
VERTEX
  5
52C
  8
LAYER_1
 10
87.3669326794016
 20
11.81859675387391
 30
0.0
  0
VERTEX
  5
52D
  8
LAYER_1
 10
87.37092621384275
 20
11.82676891132036
 30
0.0
  0
VERTEX
  5
52E
  8
LAYER_1
 10
87.37445818296344
 20
11.83515494205396
 30
0.0
  0
VERTEX
  5
52F
  8
LAYER_1
 10
87.37751584299139
 20
11.84374667151058
 30
0.0
  0
VERTEX
  5
530
  8
LAYER_1
 10
87.38008645015427
 20
11.8525359251261
 30
0.0
  0
VERTEX
  5
531
  8
LAYER_1
 10
87.38471277350405
 20
11.87186013274203
 30
0.0
  0
VERTEX
  5
532
  8
LAYER_1
 10
87.38704758589016
 20
11.88151546389058
 30
0.0
  0
VERTEX
  5
533
  8
LAYER_1
 10
87.38968095893031
 20
11.89108840856581
 30
0.0
  0
VERTEX
  5
534
  8
LAYER_1
 10
87.57718095891431
 20
12.51608840855918
 30
0.0
  0
VERTEX
  5
535
  8
LAYER_1
 10
91.95218095892167
 20
11.32858840856327
 30
0.0
  0
VERTEX
  5
536
  8
LAYER_1
 10
91.76468095892037
 20
10.70358840856256
 30
0.0
  0
VERTEX
  5
537
  8
LAYER_1
 10
91.76087506739583
 20
10.69153436867694
 30
0.0
  0
VERTEX
  5
538
  8
LAYER_1
 10
91.75711423091363
 20
10.6794351956215
 30
0.0
  0
VERTEX
  5
539
  8
LAYER_1
 10
91.75403154337056
 20
10.66721143183113
 30
0.0
  0
VERTEX
  5
53A
  8
LAYER_1
 10
91.75294234729394
 20
10.66102799792123
 30
0.0
  0
VERTEX
  5
53B
  8
LAYER_1
 10
91.75226009866341
 20
10.65478361974068
 30
0.0
  0
VERTEX
  5
53C
  8
LAYER_1
 10
91.75188299188007
 20
10.64584881218351
 30
0.0
  0
VERTEX
  5
53D
  8
LAYER_1
 10
91.75203039439464
 20
10.63687634320994
 30
0.0
  0
VERTEX
  5
53E
  8
LAYER_1
 10
91.75269384163312
 20
10.62787830969813
 30
0.0
  0
VERTEX
  5
53F
  8
LAYER_1
 10
91.75386486902154
 20
10.61886680852625
 30
0.0
  0
VERTEX
  5
540
  8
LAYER_1
 10
91.75553501198593
 20
10.60985393657248
 30
0.0
  0
VERTEX
  5
541
  8
LAYER_1
 10
91.7576958059523
 20
10.60085179071499
 30
0.0
  0
VERTEX
  5
542
  8
LAYER_1
 10
91.76033878634667
 20
10.59187246783195
 30
0.0
  0
VERTEX
  5
543
  8
LAYER_1
 10
91.76345548859503
 20
10.58292806480152
 30
0.0
  0
VERTEX
  5
544
  8
LAYER_1
 10
91.76703744812343
 20
10.57403067850188
 30
0.0
  0
VERTEX
  5
545
  8
LAYER_1
 10
91.77107620035791
 20
10.5651924058112
 30
0.0
  0
VERTEX
  5
546
  8
LAYER_1
 10
91.77556328072444
 20
10.55642534360766
 30
0.0
  0
VERTEX
  5
547
  8
LAYER_1
 10
91.78049022464907
 20
10.54774158876941
 30
0.0
  0
VERTEX
  5
548
  8
LAYER_1
 10
91.7858485675578
 20
10.53915323817464
 30
0.0
  0
VERTEX
  5
549
  8
LAYER_1
 10
91.79162984487667
 20
10.53067238870151
 30
0.0
  0
VERTEX
  5
54A
  8
LAYER_1
 10
91.79782559203167
 20
10.5223111372282
 30
0.0
  0
VERTEX
  5
54B
  8
LAYER_1
 10
91.80442734444884
 20
10.51408158063287
 30
0.0
  0
VERTEX
  5
54C
  8
LAYER_1
 10
91.8114266375542
 20
10.5059958157937
 30
0.0
  0
VERTEX
  5
54D
  8
LAYER_1
 10
91.81881500677376
 20
10.49806593958886
 30
0.0
  0
VERTEX
  5
54E
  8
LAYER_1
 10
91.82658398753354
 20
10.49030404889651
 30
0.0
  0
VERTEX
  5
54F
  8
LAYER_1
 10
91.83472511525956
 20
10.48272224059484
 30
0.0
  0
VERTEX
  5
550
  8
LAYER_1
 10
91.84322992537784
 20
10.475332611562
 30
0.0
  0
VERTEX
  5
551
  8
LAYER_1
 10
91.85208995331439
 20
10.46814725867617
 30
0.0
  0
VERTEX
  5
552
  8
LAYER_1
 10
91.86129673449523
 20
10.46117827881553
 30
0.0
  0
VERTEX
  5
553
  8
LAYER_1
 10
91.8708418043464
 20
10.45443776885824
 30
0.0
  0
VERTEX
  5
554
  8
LAYER_1
 10
91.8807166982939
 20
10.44793782568247
 30
0.0
  0
VERTEX
  5
555
  8
LAYER_1
 10
91.89091295176374
 20
10.4416905461664
 30
0.0
  0
VERTEX
  5
556
  8
LAYER_1
 10
91.90142210018193
 20
10.43570802718818
 30
0.0
  0
VERTEX
  5
557
  8
LAYER_1
 10
91.91223567897454
 20
10.43000236562601
 30
0.0
  0
VERTEX
  5
558
  8
LAYER_1
 10
91.92334522356754
 20
10.42458565835805
 30
0.0
  0
VERTEX
  5
559
  8
LAYER_1
 10
91.93474226938697
 20
10.41947000226246
 30
0.0
  0
VERTEX
  5
55A
  8
LAYER_1
 10
91.94641835185885
 20
10.41466749421742
 30
0.0
  0
VERTEX
  5
55B
  8
LAYER_1
 10
91.9583650064092
 20
10.4101902311011
 30
0.0
  0
VERTEX
  5
55C
  8
LAYER_1
 10
91.97210297496301
 20
10.40556395161128
 30
0.0
  0
VERTEX
  5
55D
  8
LAYER_1
 10
91.98583386416274
 20
10.4014839300479
 30
0.0
  0
VERTEX
  5
55E
  8
LAYER_1
 10
91.9995367833084
 20
10.39794427898135
 30
0.0
  0
VERTEX
  5
55F
  8
LAYER_1
 10
92.01319084169994
 20
10.39493911098201
 30
0.0
  0
VERTEX
  5
560
  8
LAYER_1
 10
92.02677514863736
 20
10.39246253862026
 30
0.0
  0
VERTEX
  5
561
  8
LAYER_1
 10
92.04026881342064
 20
10.39050867446651
 30
0.0
  0
VERTEX
  5
562
  8
LAYER_1
 10
92.05365094534977
 20
10.38907163109113
 30
0.0
  0
VERTEX
  5
563
  8
LAYER_1
 10
92.06690065372476
 20
10.38814552106452
 30
0.0
  0
VERTEX
  5
564
  8
LAYER_1
 10
92.07999704784557
 20
10.38772445695705
 30
0.0
  0
VERTEX
  5
565
  8
LAYER_1
 10
92.09291923701218
 20
10.38780255133911
 30
0.0
  0
VERTEX
  5
566
  8
LAYER_1
 10
92.10564633052459
 20
10.38837391678109
 30
0.0
  0
VERTEX
  5
567
  8
LAYER_1
 10
92.11815743768277
 20
10.38943266585339
 30
0.0
  0
VERTEX
  5
568
  8
LAYER_1
 10
92.13043166778672
 20
10.39097291112638
 30
0.0
  0
VERTEX
  5
569
  8
LAYER_1
 10
92.14244813013643
 20
10.39298876517045
 30
0.0
  0
VERTEX
  5
56A
  8
LAYER_1
 10
92.15418593403189
 20
10.39547434055599
 30
0.0
  0
VERTEX
  5
56B
  8
LAYER_1
 10
92.16562418877305
 20
10.39842374985338
 30
0.0
  0
VERTEX
  5
56C
  8
LAYER_1
 10
92.17674200365994
 20
10.40183110563301
 30
0.0
  0
VERTEX
  5
56D
  8
LAYER_1
 10
92.18751848799249
 20
10.40569052046528
 30
0.0
  0
VERTEX
  5
56E
  8
LAYER_1
 10
92.19793275107074
 20
10.40999610692056
 30
0.0
  0
VERTEX
  5
56F
  8
LAYER_1
 10
92.20796390219466
 20
10.41474197756924
 30
0.0
  0
VERTEX
  5
570
  8
LAYER_1
 10
92.21759105066423
 20
10.41992224498171
 30
0.0
  0
VERTEX
  5
571
  8
LAYER_1
 10
92.22679330577944
 20
10.42553102172836
 30
0.0
  0
VERTEX
  5
572
  8
LAYER_1
 10
92.23554977684027
 20
10.43156242037957
 30
0.0
  0
VERTEX
  5
573
  8
LAYER_1
 10
92.24383957314672
 20
10.43801055350574
 30
0.0
  0
VERTEX
  5
574
  8
LAYER_1
 10
92.25164180399875
 20
10.44486953367723
 30
0.0
  0
VERTEX
  5
575
  8
LAYER_1
 10
92.25893557869637
 20
10.45213347346446
 30
0.0
  0
VERTEX
  5
576
  8
LAYER_1
 10
92.26570000653956
 20
10.45979648543778
 30
0.0
  0
VERTEX
  5
577
  8
LAYER_1
 10
92.2719141968283
 20
10.46785268216762
 30
0.0
  0
VERTEX
  5
578
  8
LAYER_1
 10
92.27755725886257
 20
10.47629617622433
 30
0.0
  0
VERTEX
  5
579
  8
LAYER_1
 10
92.28260830194237
 20
10.48512108017831
 30
0.0
  0
VERTEX
  5
57A
  8
LAYER_1
 10
92.2870464353677
 20
10.49432150659995
 30
0.0
  0
VERTEX
  5
57B
  8
LAYER_1
 10
92.2908507684385
 20
10.50389156805964
 30
0.0
  0
VERTEX
  5
57C
  8
LAYER_1
 10
92.29166722382274
 20
10.50771977274211
 30
0.0
  0
VERTEX
  5
57D
  8
LAYER_1
 10
92.29233868828152
 20
10.51201036025302
 30
0.0
  0
VERTEX
  5
57E
  8
LAYER_1
 10
92.2928258547346
 20
10.51386886981951
 30
0.0
  0
VERTEX
  5
57F
  8
LAYER_1
 10
92.2935237404412
 20
10.51529076179355
 30
0.0
  0
VERTEX
  5
580
  8
LAYER_1
 10
92.29451466772964
 20
10.5160919650753
 30
0.0
  0
VERTEX
  5
581
  8
LAYER_1
 10
92.29588095892822
 20
10.5160884085649
 30
0.0
  0
VERTEX
  5
582
  8
LAYER_1
 10
93.67088095892572
 20
10.10978840856411
 30
0.0
  0
VERTEX
  5
583
  8
LAYER_1
 10
93.13968095893065
 20
5.391088408565331
 30
0.0
  0
VERTEX
  5
584
  8
LAYER_1
 10
88.13968095892201
 20
5.391088408564322
 30
0.0
  0
VERTEX
  5
585
  8
LAYER_1
 10
88.13968095892662
 20
3.76608840856489
 30
0.0
  0
VERTEX
  5
586
  8
LAYER_1
 10
87.45218095892781
 20
3.766088408564976
 30
0.0
  0
VERTEX
  5
587
  8
LAYER_1
 10
87.44830009921995
 20
3.766982754880097
 30
0.0
 42
0.4142135623730951
  0
VERTEX
  5
588
  8
LAYER_1
 10
87.19830009921995
 20
3.516982754880097
 30
0.0
 42
0.4142135623730951
  0
VERTEX
  5
589
  8
LAYER_1
 10
87.44830009921995
 20
3.266982754880097
 30
0.0
  0
VERTEX
  5
58A
  8
LAYER_1
 10
87.45218095892784
 20
3.263577547360164
 30
0.0
  0
VERTEX
  5
58B
  8
LAYER_1
 10
87.45218095892793
 20
2.641088408564976
 30
0.0
  0
VERTEX
  5
58C
  8
LAYER_1
 10
63.70218095892798
 20
2.641088408564976
 30
0.0
  0
VERTEX
  5
58D
  8
LAYER_1
 10
63.70218095892798
 20
11.39108840856505
 30
0.0
  0
VERTEX
  5
58E
  8
LAYER_1
 10
80.51468095892463
 20
14.39108840856284
 30
0.0
  0
VERTEX
  5
58F
  8
LAYER_1
 10
80.57718095892002
 20
13.95358840855949
 30
0.0
  0
VERTEX
  5
590
  8
LAYER_1
 10
80.56453241193927
 20
13.95213108906615
 30
0.0
 42
0.4142135623730951
  0
VERTEX
  5
591
  8
LAYER_1
 10
80.40826740079623
 20
13.80047850519565
 30
0.0
 42
0.3160497059051959
  0
VERTEX
  5
592
  8
LAYER_1
 10
80.56453241193927
 20
13.64421349405263
 30
0.0
  0
SEQEND
  5
BED
  8
LAYER_1
  0
POLYLINE
  5
81
  8
LAYER_1
 66
     1
 10
0.0
 20
0.0
 30
0.0
 70
     1
  0
VERTEX
  5
593
  8
LAYER_1
 10
1.017823152297268
 20
1.030485734360326
 30
0.0
  0
VERTEX
  5
594
  8
LAYER_1
 10
24.83032315229727
 20
1.030485734360326
 30
0.0
  0
VERTEX
  5
595
  8
LAYER_1
 10
24.83032315229727
 20
32.15548573436033
 30
0.0
  0
VERTEX
  5
596
  8
LAYER_1
 10
1.017823152297268
 20
32.15548573436033
 30
0.0
  0
SEQEND
  5
BEE
  8
LAYER_1
  0
POLYLINE
  5
82
  8
LAYER_1
 66
     1
 10
0.0
 20
0.0
 30
0.0
 70
     1
  0
VERTEX
  5
597
  8
LAYER_1
 10
6.924073152297268
 20
6.405485734360326
 30
0.0
  0
VERTEX
  5
598
  8
LAYER_1
 10
18.92407315229727
 20
6.405485734360326
 30
0.0
  0
VERTEX
  5
599
  8
LAYER_1
 10
18.92407315229727
 20
7.905485734360326
 30
0.0
  0
VERTEX
  5
59A
  8
LAYER_1
 10
6.924073152297268
 20
7.905485734360326
 30
0.0
  0
SEQEND
  5
BEF
  8
LAYER_1
  0
POLYLINE
  5
83
  8
LAYER_1
 66
     1
 10
0.0
 20
0.0
 30
0.0
 70
     1
  0
VERTEX
  5
59B
  8
LAYER_1
 10
36.47746892366806
 20
1.32338693412256
 30
0.0
  0
VERTEX
  5
59C
  8
LAYER_1
 10
59.66496892366803
 20
1.323386934122553
 30
0.0
  0
VERTEX
  5
59D
  8
LAYER_1
 10
62.03996892366283
 20
7.760886934121231
 30
0.0
  0
VERTEX
  5
59E
  8
LAYER_1
 10
54.53996892365586
 20
9.792086934116725
 30
0.0
  0
SEQEND
  5
BF0
  8
LAYER_1
  0
POLYLINE
  5
84
  8
LAYER_1
 66
     1
 10
0.0
 20
0.0
 30
0.0
 70
     1
  0
VERTEX
  5
59F
  8
LAYER_1
 10
61.10575266857515
 20
14.7745736279176
 30
0.0
  0
VERTEX
  5
5A0
  8
LAYER_1
 10
37.91825266857518
 20
14.7745736279176
 30
0.0
  0
VERTEX
  5
5A1
  8
LAYER_1
 10
35.54325266858038
 20
8.337073627918919
 30
0.0
  0
VERTEX
  5
5A2
  8
LAYER_1
 10
43.04325266858734
 20
6.305873627923425
 30
0.0
  0
SEQEND
  5
BF1
  8
LAYER_1
  0
POLYLINE
  5
85
  8
LAYER_1
 66
     1
 10
0.0
 20
0.0
 30
0.0
 70
     1
  0
VERTEX
  5
5A3
  8
LAYER_1
 10
42.51782315230093
 20
16.77769280676466
 30
0.0
  0
VERTEX
  5
5A4
  8
LAYER_1
 10
24.04912315218616
 20
38.52769280679988
 30
0.0
  0
VERTEX
  5
5A5
  8
LAYER_1
 10
24.03873153438181
 20
38.54034143303417
 30
0.0
  0
VERTEX
  5
5A6
  8
LAYER_1
 10
24.02874364115922
 20
38.55332291319569
 30
0.0
  0
VERTEX
  5
5A7
  8
LAYER_1
 10
24.01915463065887
 20
38.56662316430312
 30
0.0
  0
VERTEX
  5
5A8
  8
LAYER_1
 10
24.00995966102125
 20
38.58022810337516
 30
0.0
  0
VERTEX
  5
5A9
  8
LAYER_1
 10
24.00115389038683
 20
38.59412364743051
 30
0.0
  0
VERTEX
  5
5AA
  8
LAYER_1
 10
23.9927324768961
 20
38.60829571348785
 30
0.0
  0
VERTEX
  5
5AB
  8
LAYER_1
 10
23.98469057868955
 20
38.62273021856588
 30
0.0
  0
VERTEX
  5
5AC
  8
LAYER_1
 10
23.97702335390765
 20
38.6374130796833
 30
0.0
  0
VERTEX
  5
5AD
  8
LAYER_1
 10
23.96972596069089
 20
38.6523302138588
 30
0.0
  0
VERTEX
  5
5AE
  8
LAYER_1
 10
23.96279355717975
 20
38.66746753811108
 30
0.0
  0
VERTEX
  5
5AF
  8
LAYER_1
 10
23.95622130151472
 20
38.68281096945882
 30
0.0
  0
VERTEX
  5
5B0
  8
LAYER_1
 10
23.95000435183628
 20
38.69834642492074
 30
0.0
  0
VERTEX
  5
5B1
  8
LAYER_1
 10
23.94413786628491
 20
38.71405982151551
 30
0.0
  0
VERTEX
  5
5B2
  8
LAYER_1
 10
23.9386170030011
 20
38.72993707626183
 30
0.0
  0
VERTEX
  5
5B3
  8
LAYER_1
 10
23.93343692012532
 20
38.74596410617841
 30
0.0
  0
VERTEX
  5
5B4
  8
LAYER_1
 10
23.92859277579807
 20
38.76212682828393
 30
0.0
  0
VERTEX
  5
5B5
  8
LAYER_1
 10
23.92407972815982
 20
38.7784111595971
 30
0.0
  0
VERTEX
  5
5B6
  8
LAYER_1
 10
23.91989293535106
 20
38.79480301713658
 30
0.0
  0
VERTEX
  5
5B7
  8
LAYER_1
 10
23.91602755551227
 20
38.8112883179211
 30
0.0
  0
VERTEX
  5
5B8
  8
LAYER_1
 10
23.91247874678394
 20
38.82785297896933
 30
0.0
  0
VERTEX
  5
5B9
  8
LAYER_1
 10
23.90924166730654
 20
38.84448291729998
 30
0.0
  0
VERTEX
  5
5BA
  8
LAYER_1
 10
23.90631147522057
 20
38.86116404993174
 30
0.0
  0
VERTEX
  5
5BB
  8
LAYER_1
 10
23.90135238578483
 20
38.89462356617338
 30
0.0
  0
VERTEX
  5
5BC
  8
LAYER_1
 10
23.89756274360057
 20
38.92811886384379
 30
0.0
  0
VERTEX
  5
5BD
  8
LAYER_1
 10
23.89490381379165
 20
38.96153727909252
 30
0.0
  0
VERTEX
  5
5BE
  8
LAYER_1
 10
23.89333686148196
 20
38.99476614806915
 30
0.0
  0
VERTEX
  5
5BF
  8
LAYER_1
 10
23.89282315179534
 20
39.02769280692321
 30
0.0
  0
VERTEX
  5
5C0
  8
LAYER_1
 10
23.89282315168037
 20
47.4026928070341
 30
0.0
  0
VERTEX
  5
5C1
  8
LAYER_1
 10
23.89322629677153
 20
47.41963201317351
 30
0.0
  0
VERTEX
  5
5C2
  8
LAYER_1
 10
23.8944230908443
 20
47.43668049063253
 30
0.0
  0
VERTEX
  5
5C3
  8
LAYER_1
 10
23.89639457209696
 20
47.45381883352978
 30
0.0
  0
VERTEX
  5
5C4
  8
LAYER_1
 10
23.89912177872777
 20
47.47102763598392
 30
0.0
  0
VERTEX
  5
5C5
  8
LAYER_1
 10
23.90258574893502
 20
47.48828749211359
 30
0.0
  0
VERTEX
  5
5C6
  8
LAYER_1
 10
23.90676752091698
 20
47.50557899603744
 30
0.0
  0
VERTEX
  5
5C7
  8
LAYER_1
 10
23.91164813287192
 20
47.5228827418741
 30
0.0
  0
VERTEX
  5
5C8
  8
LAYER_1
 10
23.91720862299811
 20
47.54017932374223
 30
0.0
  0
VERTEX
  5
5C9
  8
LAYER_1
 10
23.92343002949382
 20
47.55744933576047
 30
0.0
  0
VERTEX
  5
5CA
  8
LAYER_1
 10
23.93029339055733
 20
47.57467337204746
 30
0.0
  0
VERTEX
  5
5CB
  8
LAYER_1
 10
23.9377797443869
 20
47.59183202672185
 30
0.0
  0
VERTEX
  5
5CC
  8
LAYER_1
 10
23.94587012918082
 20
47.60890589390229
 30
0.0
  0
VERTEX
  5
5CD
  8
LAYER_1
 10
23.95454558313735
 20
47.62587556770741
 30
0.0
  0
VERTEX
  5
5CE
  8
LAYER_1
 10
23.96378714445476
 20
47.64272164225588
 30
0.0
  0
VERTEX
  5
5CF
  8
LAYER_1
 10
23.97357585133133
 20
47.65942471166632
 30
0.0
  0
VERTEX
  5
5D0
  8
LAYER_1
 10
23.98389274196533
 20
47.67596537005739
 30
0.0
  0
VERTEX
  5
5D1
  8
LAYER_1
 10
23.99471885455504
 20
47.69232421154773
 30
0.0
  0
VERTEX
  5
5D2
  8
LAYER_1
 10
24.00603522729871
 20
47.70848183025598
 30
0.0
  0
VERTEX
  5
5D3
  8
LAYER_1
 10
24.01782289839463
 20
47.7244188203008
 30
0.0
  0
VERTEX
  5
5D4
  8
LAYER_1
 10
24.03006290604108
 20
47.74011577580081
 30
0.0
  0
VERTEX
  5
5D5
  8
LAYER_1
 10
24.04273628843632
 20
47.75555329087467
 30
0.0
  0
VERTEX
  5
5D6
  8
LAYER_1
 10
24.05582408377862
 20
47.77071195964103
 30
0.0
  0
VERTEX
  5
5D7
  8
LAYER_1
 10
24.06930733026625
 20
47.78557237621852
 30
0.0
  0
VERTEX
  5
5D8
  8
LAYER_1
 10
24.0831670660975
 20
47.80011513472581
 30
0.0
  0
VERTEX
  5
5D9
  8
LAYER_1
 10
24.09738432947062
 20
47.81432082928153
 30
0.0
  0
VERTEX
  5
5DA
  8
LAYER_1
 10
24.11194015858391
 20
47.82817005400432
 30
0.0
  0
VERTEX
  5
5DB
  8
LAYER_1
 10
24.12681559163561
 20
47.84164340301282
 30
0.0
  0
VERTEX
  5
5DC
  8
LAYER_1
 10
24.14199166682402
 20
47.85472147042569
 30
0.0
  0
VERTEX
  5
5DD
  8
LAYER_1
 10
24.15744942234739
 20
47.86738485036156
 30
0.0
  0
VERTEX
  5
5DE
  8
LAYER_1
 10
24.17316989640401
 20
47.8796141369391
 30
0.0
  0
VERTEX
  5
5DF
  8
LAYER_1
 10
24.18913412719215
 20
47.89138992427694
 30
0.0
  0
VERTEX
  5
5E0
  8
LAYER_1
 10
24.20532315291007
 20
47.90269280649371
 30
0.0
  0
VERTEX
  5
5E1
  8
LAYER_1
 10
24.22002921531076
 20
47.91240707719983
 30
0.0
  0
VERTEX
  5
5E2
  8
LAYER_1
 10
24.23488359024224
 20
47.92169514797015
 30
0.0
  0
VERTEX
  5
5E3
  8
LAYER_1
 10
24.24987737508087
 20
47.93056216769706
 30
0.0
  0
VERTEX
  5
5E4
  8
LAYER_1
 10
24.26500166720299
 20
47.9390132852729
 30
0.0
  0
VERTEX
  5
5E5
  8
LAYER_1
 10
24.28024756398495
 20
47.94705364959002
 30
0.0
  0
VERTEX
  5
5E6
  8
LAYER_1
 10
24.2956061628031
 20
47.9546884095408
 30
0.0
  0
VERTEX
  5
5E7
  8
LAYER_1
 10
24.31106856103377
 20
47.96192271401758
 30
0.0
  0
VERTEX
  5
5E8
  8
LAYER_1
 10
24.32662585605332
 20
47.96876171191272
 30
0.0
  0
VERTEX
  5
5E9
  8
LAYER_1
 10
24.34226914523809
 20
47.97521055211858
 30
0.0
  0
VERTEX
  5
5EA
  8
LAYER_1
 10
24.35798952596443
 20
47.98127438352752
 30
0.0
  0
VERTEX
  5
5EB
  8
LAYER_1
 10
24.37377809560869
 20
47.98695835503189
 30
0.0
  0
VERTEX
  5
5EC
  8
LAYER_1
 10
24.38962595154721
 20
47.99226761552407
 30
0.0
  0
VERTEX
  5
5ED
  8
LAYER_1
 10
24.40552419115634
 20
47.9972073138964
 30
0.0
  0
VERTEX
  5
5EE
  8
LAYER_1
 10
24.42146391181242
 20
48.00178259904123
 30
0.0
  0
VERTEX
  5
5EF
  8
LAYER_1
 10
24.43743621089181
 20
48.00599861985093
 30
0.0
  0
VERTEX
  5
5F0
  8
LAYER_1
 10
24.45343218577084
 20
48.00986052521787
 30
0.0
  0
VERTEX
  5
5F1
  8
LAYER_1
 10
24.46944293382586
 20
48.01337346403439
 30
0.0
  0
VERTEX
  5
5F2
  8
LAYER_1
 10
24.48545955243323
 20
48.01654258519286
 30
0.0
  0
VERTEX
  5
5F3
  8
LAYER_1
 10
24.50147313896928
 20
48.01937303758562
 30
0.0
  0
VERTEX
  5
5F4
  8
LAYER_1
 10
24.51747479081037
 20
48.02186997010504
 30
0.0
  0
VERTEX
  5
5F5
  8
LAYER_1
 10
24.53345560533284
 20
48.02403853164348
 30
0.0
  0
VERTEX
  5
5F6
  8
LAYER_1
 10
24.54940667991303
 20
48.02588387109328
 30
0.0
  0
VERTEX
  5
5F7
  8
LAYER_1
 10
24.56531911192729
 20
48.02741113734683
 30
0.0
  0
VERTEX
  5
5F8
  8
LAYER_1
 10
24.58118399875197
 20
48.02862547929647
 30
0.0
  0
VERTEX
  5
5F9
  8
LAYER_1
 10
24.61273552633798
 20
48.03013598585345
 30
0.0
  0
VERTEX
  5
5FA
  8
LAYER_1
 10
24.64399004168182
 20
48.03045658190308
 30
0.0
  0
VERTEX
  5
5FB
  8
LAYER_1
 10
24.67487632379425
 20
48.02962845858424
 30
0.0
  0
VERTEX
  5
5FC
  8
LAYER_1
 10
24.70532315168606
 20
48.02769280703578
 30
0.0
  0
VERTEX
  5
5FD
  8
LAYER_1
 10
32.33032315219629
 20
47.40269280681409
 30
0.0
  0
VERTEX
  5
5FE
  8
LAYER_1
 10
32.39062566980354
 20
47.39823098042645
 30
0.0
  0
VERTEX
  5
5FF
  8
LAYER_1
 10
32.45304611279634
 20
47.39381112569196
 30
0.0
  0
VERTEX
  5
600
  8
LAYER_1
 10
32.48481773236474
 20
47.39128613080118
 30
0.0
  0
VERTEX
  5
601
  8
LAYER_1
 10
32.51683944454242
 20
47.38837466055151
 30
0.0
  0
VERTEX
  5
602
  8
LAYER_1
 10
32.54901811975036
 20
47.38494439218557
 30
0.0
  0
VERTEX
  5
603
  8
LAYER_1
 10
32.58126062840951
 20
47.38086300294596
 30
0.0
  0
VERTEX
  5
604
  8
LAYER_1
 10
32.61347384094086
 20
47.37599817007531
 30
0.0
  0
VERTEX
  5
605
  8
LAYER_1
 10
32.64556462776535
 20
47.37021757081619
 30
0.0
  0
VERTEX
  5
606
  8
LAYER_1
 10
32.67743985930396
 20
47.36338888241126
 30
0.0
  0
VERTEX
  5
607
  8
LAYER_1
 10
32.69326753884762
 20
47.35954015391741
 30
0.0
  0
VERTEX
  5
608
  8
LAYER_1
 10
32.70900640597767
 20
47.35537978210309
 30
0.0
  0
VERTEX
  5
609
  8
LAYER_1
 10
32.72464481949672
 20
47.3508912266236
 30
0.0
  0
VERTEX
  5
60A
  8
LAYER_1
 10
32.74017113820743
 20
47.34605794713429
 30
0.0
  0
VERTEX
  5
60B
  8
LAYER_1
 10
32.75557372091238
 20
47.34086340329048
 30
0.0
  0
VERTEX
  5
60C
  8
LAYER_1
 10
32.77084092641421
 20
47.33529105474749
 30
0.0
  0
VERTEX
  5
60D
  8
LAYER_1
 10
32.78596111351553
 20
47.32932436116064
 30
0.0
  0
VERTEX
  5
60E
  8
LAYER_1
 10
32.80092264101898
 20
47.32294678218528
 30
0.0
  0
VERTEX
  5
60F
  8
LAYER_1
 10
32.81571386772715
 20
47.31614177747673
 30
0.0
  0
VERTEX
  5
610
  8
LAYER_1
 10
32.8303231524427
 20
47.30889280669029
 30
0.0
  0
VERTEX
  5
611
  8
LAYER_1
 10
32.85036161431898
 20
47.29832378182742
 30
0.0
  0
VERTEX
  5
612
  8
LAYER_1
 10
32.87072522262346
 20
47.28709883236074
 30
0.0
  0
VERTEX
  5
613
  8
LAYER_1
 10
32.8913298113539
 20
47.27526994998701
 30
0.0
  0
VERTEX
  5
614
  8
LAYER_1
 10
32.91209121450803
 20
47.26288912640301
 30
0.0
  0
VERTEX
  5
615
  8
LAYER_1
 10
32.93292526608363
 20
47.25000835330551
 30
0.0
  0
VERTEX
  5
616
  8
LAYER_1
 10
32.95374780007842
 20
47.23667962239129
 30
0.0
  0
VERTEX
  5
617
  8
LAYER_1
 10
32.97447465049017
 20
47.22295492535713
 30
0.0
  0
VERTEX
  5
618
  8
LAYER_1
 10
32.99502165131662
 20
47.20888625389979
 30
0.0
  0
VERTEX
  5
619
  8
LAYER_1
 10
33.01530463655553
 20
47.19452559971605
 30
0.0
  0
VERTEX
  5
61A
  8
LAYER_1
 10
33.03523944020463
 20
47.1799249545027
 30
0.0
  0
VERTEX
  5
61B
  8
LAYER_1
 10
33.0547418962617
 20
47.16513630995648
 30
0.0
  0
VERTEX
  5
61C
  8
LAYER_1
 10
33.07372783872447
 20
47.15021165777419
 30
0.0
  0
VERTEX
  5
61D
  8
LAYER_1
 10
33.0921131015907
 20
47.1352029896526
 30
0.0
  0
VERTEX
  5
61E
  8
LAYER_1
 10
33.10981351885813
 20
47.12016229728849
 30
0.0
  0
VERTEX
  5
61F
  8
LAYER_1
 10
33.12674492452452
 20
47.10514157237861
 30
0.0
  0
VERTEX
  5
620
  8
LAYER_1
 10
33.14282315258762
 20
47.09019280661977
 30
0.0
  0
VERTEX
  5
621
  8
LAYER_1
 10
33.15309149140005
 20
47.08005500204246
 30
0.0
  0
VERTEX
  5
622
  8
LAYER_1
 10
33.16295761201287
 20
47.06962087232731
 30
0.0
  0
VERTEX
  5
623
  8
LAYER_1
 10
33.17243329131824
 20
47.05890353985635
 30
0.0
  0
VERTEX
  5
624
  8
LAYER_1
 10
33.18153030620824
 20
47.04791612701162
 30
0.0
  0
VERTEX
  5
625
  8
LAYER_1
 10
33.19026043357505
 20
47.03667175617513
 30
0.0
  0
VERTEX
  5
626
  8
LAYER_1
 10
33.19863545031076
 20
47.02518354972893
 30
0.0
  0
VERTEX
  5
627
  8
LAYER_1
 10
33.20666713330752
 20
47.01346463005503
 30
0.0
  0
VERTEX
  5
628
  8
LAYER_1
 10
33.21436725945745
 20
47.00152811953549
 30
0.0
  0
VERTEX
  5
629
  8
LAYER_1
 10
33.22174760565267
 20
46.98938714055231
 30
0.0
  0
VERTEX
  5
62A
  8
LAYER_1
 10
33.22881994878533
 20
46.97705481548753
 30
0.0
  0
VERTEX
  5
62B
  8
LAYER_1
 10
33.23559606574754
 20
46.96454426672317
 30
0.0
  0
VERTEX
  5
62C
  8
LAYER_1
 10
33.24208773343143
 20
46.95186861664128
 30
0.0
  0
VERTEX
  5
62D
  8
LAYER_1
 10
33.25426482853278
 20
46.92607450205298
 30
0.0
  0
VERTEX
  5
62E
  8
LAYER_1
 10
33.26544544922639
 20
46.89977745077888
 30
0.0
  0
VERTEX
  5
62F
  8
LAYER_1
 10
33.2757238106493
 20
46.87308244187521
 30
0.0
  0
VERTEX
  5
630
  8
LAYER_1
 10
33.28519412793851
 20
46.84609445439821
 30
0.0
  0
VERTEX
  5
631
  8
LAYER_1
 10
33.29395061623107
 20
46.8189184674041
 30
0.0
  0
VERTEX
  5
632
  8
LAYER_1
 10
33.30208749066399
 20
46.79165945994914
 30
0.0
  0
VERTEX
  5
633
  8
LAYER_1
 10
33.30969896637431
 20
46.76442241108955
 30
0.0
  0
VERTEX
  5
634
  8
LAYER_1
 10
33.31687925849904
 20
46.73731229988158
 30
0.0
  0
VERTEX
  5
635
  8
LAYER_1
 10
33.33032315253982
 20
46.68389280664543
 30
0.0
  0
VERTEX
  5
636
  8
LAYER_1
 10
34.01782315229676
 20
43.90269280676465
 30
0.0
  0
VERTEX
  5
637
  8
LAYER_1
 10
34.02304094363183
 20
43.88243823619625
 30
0.0
  0
VERTEX
  5
638
  8
LAYER_1
 10
34.02866806746425
 20
43.86222484883681
 30
0.0
  0
VERTEX
  5
639
  8
LAYER_1
 10
34.03469924189052
 20
43.84205948327232
 30
0.0
  0
VERTEX
  5
63A
  8
LAYER_1
 10
34.0411291850071
 20
43.82194897808881
 30
0.0
  0
VERTEX
  5
63B
  8
LAYER_1
 10
34.04795261491049
 20
43.80190017187225
 30
0.0
  0
VERTEX
  5
63C
  8
LAYER_1
 10
34.05516424969715
 20
43.78191990320865
 30
0.0
  0
VERTEX
  5
63D
  8
LAYER_1
 10
34.06275880746357
 20
43.76201501068402
 30
0.0
  0
VERTEX
  5
63E
  8
LAYER_1
 10
34.07073100630622
 20
43.74219233288435
 30
0.0
  0
VERTEX
  5
63F
  8
LAYER_1
 10
34.07907556432159
 20
43.72245870839565
 30
0.0
  0
VERTEX
  5
640
  8
LAYER_1
 10
34.08778719960615
 20
43.70282097580392
 30
0.0
  0
VERTEX
  5
641
  8
LAYER_1
 10
34.09686063025639
 20
43.68328597369516
 30
0.0
  0
VERTEX
  5
642
  8
LAYER_1
 10
34.10629057436878
 20
43.66386054065537
 30
0.0
  0
VERTEX
  5
643
  8
LAYER_1
 10
34.11607175003981
 20
43.64455151527056
 30
0.0
  0
VERTEX
  5
644
  8
LAYER_1
 10
34.12619887536596
 20
43.62536573612672
 30
0.0
  0
VERTEX
  5
645
  8
LAYER_1
 10
34.1366666684437
 20
43.60631004180986
 30
0.0
  0
VERTEX
  5
646
  8
LAYER_1
 10
34.14746984736949
 20
43.58739127090598
 30
0.0
  0
VERTEX
  5
647
  8
LAYER_1
 10
34.15860313023985
 20
43.56861626200107
 30
0.0
  0
VERTEX
  5
648
  8
LAYER_1
 10
34.17006123515124
 20
43.54999185368116
 30
0.0
  0
VERTEX
  5
649
  8
LAYER_1
 10
34.18183888020013
 20
43.53152488453222
 30
0.0
  0
VERTEX
  5
64A
  8
LAYER_1
 10
34.19393078348301
 20
43.51322219314027
 30
0.0
  0
VERTEX
  5
64B
  8
LAYER_1
 10
34.20633166309636
 20
43.4950906180913
 30
0.0
  0
VERTEX
  5
64C
  8
LAYER_1
 10
34.21903623713666
 20
43.47713699797131
 30
0.0
  0
VERTEX
  5
64D
  8
LAYER_1
 10
34.2320392237004
 20
43.45936817136631
 30
0.0
  0
VERTEX
  5
64E
  8
LAYER_1
 10
34.24533534088403
 20
43.44179097686232
 30
0.0
  0
VERTEX
  5
64F
  8
LAYER_1
 10
34.25891930678405
 20
43.42441225304532
 30
0.0
  0
VERTEX
  5
650
  8
LAYER_1
 10
34.27278583949694
 20
43.40723883850131
 30
0.0
  0
VERTEX
  5
651
  8
LAYER_1
 10
34.28692965711917
 20
43.39027757181629
 30
0.0
  0
VERTEX
  5
652
  8
LAYER_1
 10
34.30134547774723
 20
43.37353529157627
 30
0.0
  0
VERTEX
  5
653
  8
LAYER_1
 10
34.31602801947759
 20
43.35701883636725
 30
0.0
  0
VERTEX
  5
654
  8
LAYER_1
 10
34.33097200040674
 20
43.34073504477524
 30
0.0
  0
VERTEX
  5
655
  8
LAYER_1
 10
34.34617213863114
 20
43.32469075538622
 30
0.0
  0
VERTEX
  5
656
  8
LAYER_1
 10
34.36162315224729
 20
43.3088928067862
 30
0.0
  0
VERTEX
  5
657
  8
LAYER_1
 10
34.37915448314464
 20
43.29155132247982
 30
0.0
  0
VERTEX
  5
658
  8
LAYER_1
 10
34.39697743317449
 20
43.27450959107626
 30
0.0
  0
VERTEX
  5
659
  8
LAYER_1
 10
34.41508203345014
 20
43.25776762266783
 30
0.0
  0
VERTEX
  5
65A
  8
LAYER_1
 10
34.43345831508487
 20
43.24132542734684
 30
0.0
  0
VERTEX
  5
65B
  8
LAYER_1
 10
34.45209630919199
 20
43.2251830152056
 30
0.0
  0
VERTEX
  5
65C
  8
LAYER_1
 10
34.47098604688479
 20
43.20934039633641
 30
0.0
  0
VERTEX
  5
65D
  8
LAYER_1
 10
34.49011755927656
 20
43.19379758083156
 30
0.0
  0
VERTEX
  5
65E
  8
LAYER_1
 10
34.5094808774806
 20
43.17855457878339
 30
0.0
  0
VERTEX
  5
65F
  8
LAYER_1
 10
34.5290660326102
 20
43.16361140028418
 30
0.0
  0
VERTEX
  5
660
  8
LAYER_1
 10
34.54886305577867
 20
43.14896805542624
 30
0.0
  0
VERTEX
  5
661
  8
LAYER_1
 10
34.56886197809929
 20
43.13462455430187
 30
0.0
  0
VERTEX
  5
662
  8
LAYER_1
 10
34.58905283068538
 20
43.12058090700339
 30
0.0
  0
VERTEX
  5
663
  8
LAYER_1
 10
34.60942564465022
 20
43.10683712362309
 30
0.0
  0
VERTEX
  5
664
  8
LAYER_1
 10
34.62997045110708
 20
43.09339321425329
 30
0.0
  0
VERTEX
  5
665
  8
LAYER_1
 10
34.65067728116929
 20
43.08024918898629
 30
0.0
  0
VERTEX
  5
666
  8
LAYER_1
 10
34.67153616595014
 20
43.06740505791439
 30
0.0
  0
VERTEX
  5
667
  8
LAYER_1
 10
34.69253713656291
 20
43.0548608311299
 30
0.0
  0
VERTEX
  5
668
  8
LAYER_1
 10
34.7136702241209
 20
43.04261651872512
 30
0.0
  0
VERTEX
  5
669
  8
LAYER_1
 10
34.73492545973743
 20
43.03067213079236
 30
0.0
  0
VERTEX
  5
66A
  8
LAYER_1
 10
34.75629287452576
 20
43.01902767742394
 30
0.0
  0
VERTEX
  5
66B
  8
LAYER_1
 10
34.77776249959921
 20
43.00768316871214
 30
0.0
  0
VERTEX
  5
66C
  8
LAYER_1
 10
34.79932436607106
 20
42.99663861474928
 30
0.0
  0
VERTEX
  5
66D
  8
LAYER_1
 10
34.84268494766317
 20
42.97544941143959
 30
0.0
  0
VERTEX
  5
66E
  8
LAYER_1
 10
34.88629486820846
 20
42.95546014823331
 30
0.0
  0
VERTEX
  5
66F
  8
LAYER_1
 10
34.93007437661327
 20
42.9366709058689
 30
0.0
  0
VERTEX
  5
670
  8
LAYER_1
 10
34.97394372178398
 20
42.91908176508478
 30
0.0
  0
VERTEX
  5
671
  8
LAYER_1
 10
35.01782315262696
 20
42.90269280661942
 30
0.0
  0
VERTEX
  5
672
  8
LAYER_1
 10
52.20532315231361
 20
36.71519280675649
 30
0.0
  0
VERTEX
  5
673
  8
LAYER_1
 10
52.24134522138009
 20
36.70233611936178
 30
0.0
  0
VERTEX
  5
674
  8
LAYER_1
 10
52.27771745985049
 20
36.68965038392821
 30
0.0
  0
VERTEX
  5
675
  8
LAYER_1
 10
52.31445170087929
 20
36.6772430875325
 30
0.0
  0
VERTEX
  5
676
  8
LAYER_1
 10
52.35155977762101
 20
36.66522171725135
 30
0.0
  0
VERTEX
  5
677
  8
LAYER_1
 10
52.38905352323012
 20
36.65369376016145
 30
0.0
  0
VERTEX
  5
678
  8
LAYER_1
 10
52.42694477086111
 20
36.64276670333951
 30
0.0
  0
VERTEX
  5
679
  8
LAYER_1
 10
52.46524535366848
 20
36.63254803386222
 30
0.0
  0
VERTEX
  5
67A
  8
LAYER_1
 10
52.50396710480674
 20
36.6231452388063
 30
0.0
  0
VERTEX
  5
67B
  8
LAYER_1
 10
52.54312185743038
 20
36.61466580524845
 30
0.0
  0
VERTEX
  5
67C
  8
LAYER_1
 10
52.58272144469387
 20
36.60721722026535
 30
0.0
  0
VERTEX
  5
67D
  8
LAYER_1
 10
52.60269174917636
 20
36.60391308570082
 30
0.0
  0
VERTEX
  5
67E
  8
LAYER_1
 10
52.62277769975174
 20
36.60090697093374
 30
0.0
  0
VERTEX
  5
67F
  8
LAYER_1
 10
52.64298077556434
 20
36.5982123118487
 30
0.0
  0
VERTEX
  5
680
  8
LAYER_1
 10
52.66330245575847
 20
36.59584254433028
 30
0.0
  0
VERTEX
  5
681
  8
LAYER_1
 10
52.68374421947844
 20
36.59381110426308
 30
0.0
  0
VERTEX
  5
682
  8
LAYER_1
 10
52.70430754586855
 20
36.5921314275317
 30
0.0
  0
VERTEX
  5
683
  8
LAYER_1
 10
52.72499391407313
 20
36.59081695002071
 30
0.0
  0
VERTEX
  5
684
  8
LAYER_1
 10
52.74580480323647
 20
36.58988110761469
 30
0.0
  0
VERTEX
  5
685
  8
LAYER_1
 10
52.7667416925029
 20
36.58933733619825
 30
0.0
  0
VERTEX
  5
686
  8
LAYER_1
 10
52.78780606101674
 20
36.58919907165597
 30
0.0
  0
VERTEX
  5
687
  8
LAYER_1
 10
52.80899938792228
 20
36.58947974987242
 30
0.0
  0
VERTEX
  5
688
  8
LAYER_1
 10
52.83032315236383
 20
36.59019280673222
 30
0.0
  0
VERTEX
  5
689
  8
LAYER_1
 10
52.86167040399665
 20
36.59190282941897
 30
0.0
  0
VERTEX
  5
68A
  8
LAYER_1
 10
52.89318507047416
 20
36.59429317182754
 30
0.0
  0
VERTEX
  5
68B
  8
LAYER_1
 10
52.92484978288199
 20
36.59734777361358
 30
0.0
  0
VERTEX
  5
68C
  8
LAYER_1
 10
52.95664717230579
 20
36.60105057443272
 30
0.0
  0
VERTEX
  5
68D
  8
LAYER_1
 10
52.98855986983121
 20
36.60538551394062
 30
0.0
  0
VERTEX
  5
68E
  8
LAYER_1
 10
53.02057050654388
 20
36.61033653179291
 30
0.0
  0
VERTEX
  5
68F
  8
LAYER_1
 10
53.05266171352945
 20
36.61588756764526
 30
0.0
  0
VERTEX
  5
690
  8
LAYER_1
 10
53.08481612187354
 20
36.62202256115329
 30
0.0
  0
VERTEX
  5
691
  8
LAYER_1
 10
53.11701636266182
 20
36.62872545197266
 30
0.0
  0
VERTEX
  5
692
  8
LAYER_1
 10
53.14924506697993
 20
36.63598017975901
 30
0.0
  0
VERTEX
  5
693
  8
LAYER_1
 10
53.18148486591349
 20
36.64377068416799
 30
0.0
  0
VERTEX
  5
694
  8
LAYER_1
 10
53.21371839054815
 20
36.65208090485526
 30
0.0
  0
VERTEX
  5
695
  8
LAYER_1
 10
53.24592827196957
 20
36.66089478147644
 30
0.0
  0
VERTEX
  5
696
  8
LAYER_1
 10
53.27809714126337
 20
36.67019625368719
 30
0.0
  0
VERTEX
  5
697
  8
LAYER_1
 10
53.3102076295152
 20
36.67996926114316
 30
0.0
  0
VERTEX
  5
698
  8
LAYER_1
 10
53.3422423678107
 20
36.69019774349999
 30
0.0
  0
VERTEX
  5
699
  8
LAYER_1
 10
53.37418398723551
 20
36.70086564041333
 30
0.0
  0
VERTEX
  5
69A
  8
LAYER_1
 10
53.40601511887528
 20
36.7119568915388
 30
0.0
  0
VERTEX
  5
69B
  8
LAYER_1
 10
53.43771839381565
 20
36.72345543653208
 30
0.0
  0
VERTEX
  5
69C
  8
LAYER_1
 10
53.46927644314226
 20
36.73534521504881
 30
0.0
  0
VERTEX
  5
69D
  8
LAYER_1
 10
53.50067189794075
 20
36.74761016674462
 30
0.0
  0
VERTEX
  5
69E
  8
LAYER_1
 10
53.53188738929675
 20
36.76023423127516
 30
0.0
  0
VERTEX
  5
69F
  8
LAYER_1
 10
53.56290554829592
 20
36.77320134829609
 30
0.0
  0
VERTEX
  5
6A0
  8
LAYER_1
 10
53.59370900602389
 20
36.78649545746305
 30
0.0
  0
VERTEX
  5
6A1
  8
LAYER_1
 10
53.62428039356632
 20
36.80010049843168
 30
0.0
  0
VERTEX
  5
6A2
  8
LAYER_1
 10
53.65460234200883
 20
36.81400041085762
 30
0.0
  0
VERTEX
  5
6A3
  8
LAYER_1
 10
53.68465748243708
 20
36.82817913439654
 30
0.0
  0
VERTEX
  5
6A4
  8
LAYER_1
 10
53.7144284459367
 20
36.84262060870407
 30
0.0
  0
VERTEX
  5
6A5
  8
LAYER_1
 10
53.74389786359333
 20
36.85730877343585
 30
0.0
  0
VERTEX
  5
6A6
  8
LAYER_1
 10
53.77304836649262
 20
36.87222756824754
 30
0.0
  0
VERTEX
  5
6A7
  8
LAYER_1
 10
53.8018625857202
 20
36.88736093279476
 30
0.0
  0
VERTEX
  5
6A8
  8
LAYER_1
 10
53.83032315236173
 20
36.90269280673319
 30
0.0
  0
VERTEX
  5
6A9
  8
LAYER_1
 10
53.86934061905934
 20
36.924556575719
 30
0.0
  0
VERTEX
  5
6AA
  8
LAYER_1
 10
53.9077466603455
 20
36.9472390970676
 30
0.0
  0
VERTEX
  5
6AB
  8
LAYER_1
 10
53.94552081413747
 20
36.97071905187187
 30
0.0
  0
VERTEX
  5
6AC
  8
LAYER_1
 10
53.98264261835253
 20
36.99497512122465
 30
0.0
  0
VERTEX
  5
6AD
  8
LAYER_1
 10
54.01909161090796
 20
37.01998598621877
 30
0.0
  0
VERTEX
  5
6AE
  8
LAYER_1
 10
54.05484732972106
 20
37.0457303279471
 30
0.0
  0
VERTEX
  5
6AF
  8
LAYER_1
 10
54.08988931270909
 20
37.07218682750246
 30
0.0
  0
VERTEX
  5
6B0
  8
LAYER_1
 10
54.12419709778935
 20
37.09933416597772
 30
0.0
  0
VERTEX
  5
6B1
  8
LAYER_1
 10
54.1577502228791
 20
37.12715102446573
 30
0.0
  0
VERTEX
  5
6B2
  8
LAYER_1
 10
54.19052822589565
 20
37.15561608405933
 30
0.0
  0
VERTEX
  5
6B3
  8
LAYER_1
 10
54.22251064475625
 20
37.18470802585136
 30
0.0
  0
VERTEX
  5
6B4
  8
LAYER_1
 10
54.25367701737819
 20
37.21440553093467
 30
0.0
  0
VERTEX
  5
6B5
  8
LAYER_1
 10
54.28400688167876
 20
37.24468728040211
 30
0.0
  0
VERTEX
  5
6B6
  8
LAYER_1
 10
54.31347977557523
 20
37.27553195534654
 30
0.0
  0
VERTEX
  5
6B7
  8
LAYER_1
 10
54.3420752369849
 20
37.30691823686078
 30
0.0
  0
VERTEX
  5
6B8
  8
LAYER_1
 10
54.36977280382502
 20
37.33882480603771
 30
0.0
  0
VERTEX
  5
6B9
  8
LAYER_1
 10
54.3965520140129
 20
37.37123034397015
 30
0.0
  0
VERTEX
  5
6BA
  8
LAYER_1
 10
54.42239240546581
 20
37.40411353175097
 30
0.0
  0
VERTEX
  5
6BB
  8
LAYER_1
 10
54.44727351610103
 20
37.43745305047299
 30
0.0
  0
VERTEX
  5
6BC
  8
LAYER_1
 10
54.47117488383584
 20
37.47122758122908
 30
0.0
  0
VERTEX
  5
6BD
  8
LAYER_1
 10
54.49407604658752
 20
37.50541580511208
 30
0.0
  0
VERTEX
  5
6BE
  8
LAYER_1
 10
54.51595654227337
 20
37.53999640321484
 30
0.0
  0
VERTEX
  5
6BF
  8
LAYER_1
 10
54.53679590881065
 20
37.57494805663019
 30
0.0
  0
VERTEX
  5
6C0
  8
LAYER_1
 10
54.55657368411664
 20
37.61024944645101
 30
0.0
  0
VERTEX
  5
6C1
  8
LAYER_1
 10
54.57526940610865
 20
37.64587925377012
 30
0.0
  0
VERTEX
  5
6C2
  8
LAYER_1
 10
54.59286261270391
 20
37.68181615968038
 30
0.0
  0
VERTEX
  5
6C3
  8
LAYER_1
 10
54.60933284181975
 20
37.71803884527464
 30
0.0
  0
VERTEX
  5
6C4
  8
LAYER_1
 10
54.62465963137342
 20
37.75452599164574
 30
0.0
  0
VERTEX
  5
6C5
  8
LAYER_1
 10
54.63882251928221
 20
37.79125627988653
 30
0.0
  0
VERTEX
  5
6C6
  8
LAYER_1
 10
54.65180104346341
 20
37.82820839108985
 30
0.0
  0
VERTEX
  5
6C7
  8
LAYER_1
 10
54.65783977475531
 20
37.84676096814398
 30
0.0
  0
VERTEX
  5
6C8
  8
LAYER_1
 10
54.6635747418343
 20
37.86536100634856
 30
0.0
  0
VERTEX
  5
6C9
  8
LAYER_1
 10
54.66900338694002
 20
37.88400584084019
 30
0.0
  0
VERTEX
  5
6CA
  8
LAYER_1
 10
54.67412315231215
 20
37.9026928067555
 30
0.0
  0
VERTEX
  5
6CB
  8
LAYER_1
 10
56.8303231520859
 20
46.02769280692763
 30
0.0
  0
VERTEX
  5
6CC
  8
LAYER_1
 10
56.84986107126096
 20
46.09956059649683
 30
0.0
  0
VERTEX
  5
6CD
  8
LAYER_1
 10
56.86027330450643
 20
46.13593113090477
 30
0.0
  0
VERTEX
  5
6CE
  8
LAYER_1
 10
56.87123984165702
 20
46.17246900910365
 30
0.0
  0
VERTEX
  5
6CF
  8
LAYER_1
 10
56.88285477381261
 20
46.20908141912506
 30
0.0
  0
VERTEX
  5
6D0
  8
LAYER_1
 10
56.89521219207306
 20
46.24567554900051
 30
0.0
  0
VERTEX
  5
6D1
  8
LAYER_1
 10
56.90840618753826
 20
46.28215858676159
 30
0.0
  0
VERTEX
  5
6D2
  8
LAYER_1
 10
56.92253085130806
 20
46.31843772043985
 30
0.0
  0
VERTEX
  5
6D3
  8
LAYER_1
 10
56.93768027448235
 20
46.35442013806683
 30
0.0
  0
VERTEX
  5
6D4
  8
LAYER_1
 10
56.94566867431488
 20
46.37227107462095
 30
0.0
  0
VERTEX
  5
6D5
  8
LAYER_1
 10
56.95394854816098
 20
46.39001302767408
 30
0.0
  0
VERTEX
  5
6D6
  8
LAYER_1
 10
56.96253165740815
 20
46.40763439573017
 30
0.0
  0
VERTEX
  5
6D7
  8
LAYER_1
 10
56.97142976344385
 20
46.42512357729317
 30
0.0
  0
VERTEX
  5
6D8
  8
LAYER_1
 10
56.98065462765558
 20
46.44246897086702
 30
0.0
  0
VERTEX
  5
6D9
  8
LAYER_1
 10
56.99021801143081
 20
46.45965897495565
 30
0.0
  0
VERTEX
  5
6DA
  8
LAYER_1
 10
57.00013167615704
 20
46.47668198806302
 30
0.0
  0
VERTEX
  5
6DB
  8
LAYER_1
 10
57.01040738322175
 20
46.49352640869307
 30
0.0
  0
VERTEX
  5
6DC
  8
LAYER_1
 10
57.0210568940124
 20
46.51018063534974
 30
0.0
  0
VERTEX
  5
6DD
  8
LAYER_1
 10
57.03209196991651
 20
46.52663306653698
 30
0.0
  0
VERTEX
  5
6DE
  8
LAYER_1
 10
57.04352437232154
 20
46.54287210075874
 30
0.0
  0
VERTEX
  5
6DF
  8
LAYER_1
 10
57.05536586261499
 20
46.55888613651894
 30
0.0
  0
VERTEX
  5
6E0
  8
LAYER_1
 10
57.06762820218434
 20
46.57466357232154
 30
0.0
  0
VERTEX
  5
6E1
  8
LAYER_1
 10
57.08032315241707
 20
46.59019280667049
 30
0.0
  0
VERTEX
  5
6E2
  8
LAYER_1
 10
57.10503203641892
 20
46.61940033428937
 30
0.0
  0
VERTEX
  5
6E3
  8
LAYER_1
 10
57.13050356520482
 20
46.64894409219559
 30
0.0
  0
VERTEX
  5
6E4
  8
LAYER_1
 10
57.15670548963493
 20
46.67869878025303
 30
0.0
  0
VERTEX
  5
6E5
  8
LAYER_1
 10
57.18360556056935
 20
46.7085390983256
 30
0.0
  0
VERTEX
  5
6E6
  8
LAYER_1
 10
57.21117152886823
 20
46.73833974627721
 30
0.0
  0
VERTEX
  5
6E7
  8
LAYER_1
 10
57.23937114539171
 20
46.76797542397174
 30
0.0
  0
VERTEX
  5
6E8
  8
LAYER_1
 10
57.26817216099989
 20
46.79732083127313
 30
0.0
  0
VERTEX
  5
6E9
  8
LAYER_1
 10
57.29754232655293
 20
46.82625066804525
 30
0.0
  0
VERTEX
  5
6EA
  8
LAYER_1
 10
57.32744939291094
 20
46.85463963415204
 30
0.0
  0
VERTEX
  5
6EB
  8
LAYER_1
 10
57.35786111093407
 20
46.88236242945736
 30
0.0
  0
VERTEX
  5
6EC
  8
LAYER_1
 10
57.38874523148243
 20
46.90929375382513
 30
0.0
  0
VERTEX
  5
6ED
  8
LAYER_1
 10
57.42006950541617
 20
46.93530830711927
 30
0.0
  0
VERTEX
  5
6EE
  8
LAYER_1
 10
57.45180168359541
 20
46.96028078920367
 30
0.0
  0
VERTEX
  5
6EF
  8
LAYER_1
 10
57.46781065892088
 20
46.97233709724969
 30
0.0
  0
VERTEX
  5
6F0
  8
LAYER_1
 10
57.48390951688027
 20
46.98408589994224
 30
0.0
  0
VERTEX
  5
6F1
  8
LAYER_1
 10
57.50009422633111
 20
46.9955115347643
 30
0.0
  0
VERTEX
  5
6F2
  8
LAYER_1
 10
57.51636075613091
 20
47.00659833919887
 30
0.0
  0
VERTEX
  5
6F3
  8
LAYER_1
 10
57.53270507513719
 20
47.01733065072894
 30
0.0
  0
VERTEX
  5
6F4
  8
LAYER_1
 10
57.54912315220744
 20
47.02769280683749
 30
0.0
  0
VERTEX
  5
6F5
  8
LAYER_1
 10
57.55642370348583
 20
47.031986432388
 30
0.0
  0
VERTEX
  5
6F6
  8
LAYER_1
 10
57.56446598885327
 20
47.03630682136346
 30
0.0
  0
VERTEX
  5
6F7
  8
LAYER_1
 10
57.58268034411284
 20
47.04501432899979
 30
0.0
  0
VERTEX
  5
6F8
  8
LAYER_1
 10
57.60357538250129
 20
47.05378820856751
 30
0.0
  0
VERTEX
  5
6F9
  8
LAYER_1
 10
57.62696026853376
 20
47.06260133888765
 30
0.0
  0
VERTEX
  5
6FA
  8
LAYER_1
 10
57.65264416672538
 20
47.07142659878123
 30
0.0
  0
VERTEX
  5
6FB
  8
LAYER_1
 10
57.68043624159128
 20
47.08023686706929
 30
0.0
  0
VERTEX
  5
6FC
  8
LAYER_1
 10
57.71014565764659
 20
47.08900502257285
 30
0.0
  0
VERTEX
  5
6FD
  8
LAYER_1
 10
57.74158157940646
 20
47.09770394411295
 30
0.0
  0
VERTEX
  5
6FE
  8
LAYER_1
 10
57.774553171386
 20
47.10630651051062
 30
0.0
  0
VERTEX
  5
6FF
  8
LAYER_1
 10
57.80886959810037
 20
47.11478560058688
 30
0.0
  0
VERTEX
  5
700
  8
LAYER_1
 10
57.84434002406468
 20
47.12311409316278
 30
0.0
  0
VERTEX
  5
701
  8
LAYER_1
 10
57.88077361379408
 20
47.13126486705933
 30
0.0
  0
VERTEX
  5
702
  8
LAYER_1
 10
57.91797953180371
 20
47.13921080109758
 30
0.0
  0
VERTEX
  5
703
  8
LAYER_1
 10
57.95576694260868
 20
47.14692477409854
 30
0.0
  0
VERTEX
  5
704
  8
LAYER_1
 10
57.99394501072413
 20
47.15437966488324
 30
0.0
  0
VERTEX
  5
705
  8
LAYER_1
 10
58.03232290066519
 20
47.16154835227273
 30
0.0
  0
VERTEX
  5
706
  8
LAYER_1
 10
58.07070977694701
 20
47.16840371508803
 30
0.0
  0
VERTEX
  5
707
  8
LAYER_1
 10
58.10891480408473
 20
47.17491863215017
 30
0.0
  0
VERTEX
  5
708
  8
LAYER_1
 10
58.14674714659346
 20
47.18106598228017
 30
0.0
  0
VERTEX
  5
709
  8
LAYER_1
 10
58.18401596898835
 20
47.18681864429907
 30
0.0
  0
VERTEX
  5
70A
  8
LAYER_1
 10
58.22053043578452
 20
47.19214949702791
 30
0.0
  0
VERTEX
  5
70B
  8
LAYER_1
 10
58.25609971149711
 20
47.1970314192877
 30
0.0
  0
VERTEX
  5
70C
  8
LAYER_1
 10
58.29053296064126
 20
47.20143728989947
 30
0.0
  0
VERTEX
  5
70D
  8
LAYER_1
 10
58.32363934773209
 20
47.20533998768428
 30
0.0
  0
VERTEX
  5
70E
  8
LAYER_1
 10
58.35522803728474
 20
47.20871239146314
 30
0.0
  0
VERTEX
  5
70F
  8
LAYER_1
 10
58.38510819381435
 20
47.21152738005708
 30
0.0
  0
VERTEX
  5
710
  8
LAYER_1
 10
58.41308898183606
 20
47.21375783228712
 30
0.0
  0
VERTEX
  5
711
  8
LAYER_1
 10
58.43897956586498
 20
47.2153766269743
 30
0.0
  0
VERTEX
  5
712
  8
LAYER_1
 10
58.46258911041626
 20
47.21635664293966
 30
0.0
  0
VERTEX
  5
713
  8
LAYER_1
 10
58.48372678000504
 20
47.21667075900422
 30
0.0
  0
VERTEX
  5
714
  8
LAYER_1
 10
58.50220173914644
 20
47.21629185398902
 30
0.0
  0
VERTEX
  5
715
  8
LAYER_1
 10
58.51782315235559
 20
47.21519280671507
 30
0.0
  0
VERTEX
  5
716
  8
LAYER_1
 10
63.33032315233459
 20
46.71519280672807
 30
0.0
  0
VERTEX
  5
717
  8
LAYER_1
 10
63.42684210707647
 20
46.7051122592665
 30
0.0
  0
VERTEX
  5
718
  8
LAYER_1
 10
63.47707166757455
 20
46.69957744118811
 30
0.0
  0
VERTEX
  5
719
  8
LAYER_1
 10
63.52832134435673
 20
46.69352081247597
 30
0.0
  0
VERTEX
  5
71A
  8
LAYER_1
 10
63.58037118307252
 20
46.68679828732854
 30
0.0
  0
VERTEX
  5
71B
  8
LAYER_1
 10
63.63300122937141
 20
46.6792657799443
 30
0.0
  0
VERTEX
  5
71C
  8
LAYER_1
 10
63.68599152890292
 20
46.67077920452172
 30
0.0
  0
VERTEX
  5
71D
  8
LAYER_1
 10
63.73912212731653
 20
46.66119447525928
 30
0.0
  0
VERTEX
  5
71E
  8
LAYER_1
 10
63.76567130286961
 20
46.65594527612514
 30
0.0
  0
VERTEX
  5
71F
  8
LAYER_1
 10
63.79217307026178
 20
46.65036750635546
 30
0.0
  0
VERTEX
  5
720
  8
LAYER_1
 10
63.81859993519923
 20
46.64444315522505
 30
0.0
  0
VERTEX
  5
721
  8
LAYER_1
 10
63.84492440338816
 20
46.63815421200874
 30
0.0
  0
VERTEX
  5
722
  8
LAYER_1
 10
63.87111898053473
 20
46.63148266598131
 30
0.0
  0
VERTEX
  5
723
  8
LAYER_1
 10
63.89715617234516
 20
46.62441050641759
 30
0.0
  0
VERTEX
  5
724
  8
LAYER_1
 10
63.92300848452562
 20
46.61691972259238
 30
0.0
  0
VERTEX
  5
725
  8
LAYER_1
 10
63.94864842278231
 20
46.60899230378048
 30
0.0
  0
VERTEX
  5
726
  8
LAYER_1
 10
63.9740484928214
 20
46.60061023925672
 30
0.0
  0
VERTEX
  5
727
  8
LAYER_1
 10
63.99918120034909
 20
46.5917555182959
 30
0.0
  0
VERTEX
  5
728
  8
LAYER_1
 10
64.02401905107158
 20
46.58241013017284
 30
0.0
  0
VERTEX
  5
729
  8
LAYER_1
 10
64.04853455069502
 20
46.57255606416233
 30
0.0
  0
VERTEX
  5
72A
  8
LAYER_1
 10
64.07270020492564
 20
46.5621753095392
 30
0.0
  0
VERTEX
  5
72B
  8
LAYER_1
 10
64.0964885194696
 20
46.55124985557823
 30
0.0
  0
VERTEX
  5
72C
  8
LAYER_1
 10
64.11987200003311
 20
46.53976169155426
 30
0.0
  0
VERTEX
  5
72D
  8
LAYER_1
 10
64.14282315232234
 20
46.5276928067421
 30
0.0
  0
VERTEX
  5
72E
  8
LAYER_1
 10
64.17011336795233
 20
46.5122054260553
 30
0.0
  0
VERTEX
  5
72F
  8
LAYER_1
 10
64.19669301973467
 20
46.49588474571046
 30
0.0
  0
VERTEX
  5
730
  8
LAYER_1
 10
64.22260429376158
 20
46.47879379079671
 30
0.0
  0
VERTEX
  5
731
  8
LAYER_1
 10
64.2478893761253
 20
46.46099558640329
 30
0.0
  0
VERTEX
  5
732
  8
LAYER_1
 10
64.27259045291805
 20
46.44255315761934
 30
0.0
  0
VERTEX
  5
733
  8
LAYER_1
 10
64.29674971023209
 20
46.42352952953408
 30
0.0
  0
VERTEX
  5
734
  8
LAYER_1
 10
64.32040933415965
 20
46.40398772723667
 30
0.0
  0
VERTEX
  5
735
  8
LAYER_1
 10
64.34361151079295
 20
46.38399077581632
 30
0.0
  0
VERTEX
  5
736
  8
LAYER_1
 10
64.36639842622424
 20
46.3636017003622
 30
0.0
  0
VERTEX
  5
737
  8
LAYER_1
 10
64.38881226654577
 20
46.34288352596349
 30
0.0
  0
VERTEX
  5
738
  8
LAYER_1
 10
64.41089521784974
 20
46.32189927770939
 30
0.0
  0
VERTEX
  5
739
  8
LAYER_1
 10
64.43268946622842
 20
46.30071198068907
 30
0.0
  0
VERTEX
  5
73A
  8
LAYER_1
 10
64.47558059857877
 20
46.25798034070655
 30
0.0
  0
VERTEX
  5
73B
  8
LAYER_1
 10
64.51782315233473
 20
46.21519280672941
 30
0.0
  0
VERTEX
  5
73C
  8
LAYER_1
 10
64.53009539721177
 20
46.20240125600051
 30
0.0
  0
VERTEX
  5
73D
  8
LAYER_1
 10
64.54201960889435
 20
46.18929707171579
 30
0.0
  0
VERTEX
  5
73E
  8
LAYER_1
 10
64.55360181815428
 20
46.17589323691297
 30
0.0
  0
VERTEX
  5
73F
  8
LAYER_1
 10
64.56484805576338
 20
46.16220273462979
 30
0.0
  0
VERTEX
  5
740
  8
LAYER_1
 10
64.5757643524935
 20
46.14823854790396
 30
0.0
  0
VERTEX
  5
741
  8
LAYER_1
 10
64.58635673911645
 20
46.13401365977322
 30
0.0
  0
VERTEX
  5
742
  8
LAYER_1
 10
64.59663124640409
 20
46.11954105327528
 30
0.0
  0
VERTEX
  5
743
  8
LAYER_1
 10
64.60659390512825
 20
46.10483371144787
 30
0.0
  0
VERTEX
  5
744
  8
LAYER_1
 10
64.61625074606074
 20
46.08990461732872
 30
0.0
  0
VERTEX
  5
745
  8
LAYER_1
 10
64.62560779997341
 20
46.07476675395554
 30
0.0
  0
VERTEX
  5
746
  8
LAYER_1
 10
64.63467109763809
 20
46.05943310436607
 30
0.0
  0
VERTEX
  5
747
  8
LAYER_1
 10
64.6434466698266
 20
46.04391665159802
 30
0.0
  0
VERTEX
  5
748
  8
LAYER_1
 10
64.65194054731079
 20
46.02823037868913
 30
0.0
  0
VERTEX
  5
749
  8
LAYER_1
 10
64.66015876086247
 20
46.01238726867712
 30
0.0
  0
VERTEX
  5
74A
  8
LAYER_1
 10
64.67579231925569
 20
45.98028246949462
 30
0.0
  0
VERTEX
  5
74B
  8
LAYER_1
 10
64.69039559118093
 20
45.94770611835232
 30
0.0
  0
VERTEX
  5
74C
  8
LAYER_1
 10
64.7040168228128
 20
45.91476207955202
 30
0.0
  0
VERTEX
  5
74D
  8
LAYER_1
 10
64.716704260326
 20
45.88155421739552
 30
0.0
  0
VERTEX
  5
74E
  8
LAYER_1
 10
64.72850614989517
 20
45.8481863961846
 30
0.0
  0
VERTEX
  5
74F
  8
LAYER_1
 10
64.73947073769496
 20
45.81476248022106
 30
0.0
  0
VERTEX
  5
750
  8
LAYER_1
 10
64.74964626990007
 20
45.78138633380672
 30
0.0
  0
VERTEX
  5
751
  8
LAYER_1
 10
64.75908099268511
 20
45.74816182124334
 30
0.0
  0
VERTEX
  5
752
  8
LAYER_1
 10
64.76782315222476
 20
45.71519280683275
 30
0.0
  0
VERTEX
  5
753
  8
LAYER_1
 10
65.39282315229744
 20
43.27769280676539
 30
0.0
  0
VERTEX
  5
754
  8
LAYER_1
 10
65.40025585409667
 20
43.25053099271216
 30
0.0
  0
VERTEX
  5
755
  8
LAYER_1
 10
65.40855126228078
 20
43.22361533057397
 30
0.0
  0
VERTEX
  5
756
  8
LAYER_1
 10
65.4176922179359
 20
43.19695163145489
 30
0.0
  0
VERTEX
  5
757
  8
LAYER_1
 10
65.42766156214816
 20
43.17054570645895
 30
0.0
  0
VERTEX
  5
758
  8
LAYER_1
 10
65.43844213600372
 20
43.14440336669018
 30
0.0
  0
VERTEX
  5
759
  8
LAYER_1
 10
65.4500167805887
 20
43.11853042325261
 30
0.0
  0
VERTEX
  5
75A
  8
LAYER_1
 10
65.46236833698927
 20
43.0929326872503
 30
0.0
  0
VERTEX
  5
75B
  8
LAYER_1
 10
65.47547964629155
 20
43.06761596978728
 30
0.0
  0
VERTEX
  5
75C
  8
LAYER_1
 10
65.48933354958166
 20
43.04258608196758
 30
0.0
  0
VERTEX
  5
75D
  8
LAYER_1
 10
65.50391288794576
 20
43.01784883489527
 30
0.0
  0
VERTEX
  5
75E
  8
LAYER_1
 10
65.51920050247001
 20
42.99341003967434
 30
0.0
  0
VERTEX
  5
75F
  8
LAYER_1
 10
65.53517923424052
 20
42.96927550740887
 30
0.0
  0
VERTEX
  5
760
  8
LAYER_1
 10
65.55183192434345
 20
42.94545104920287
 30
0.0
  0
VERTEX
  5
761
  8
LAYER_1
 10
65.56914141386491
 20
42.9219424761604
 30
0.0
  0
VERTEX
  5
762
  8
LAYER_1
 10
65.5870905438911
 20
42.89875559938548
 30
0.0
  0
VERTEX
  5
763
  8
LAYER_1
 10
65.60566215550807
 20
42.87589622998216
 30
0.0
  0
VERTEX
  5
764
  8
LAYER_1
 10
65.62483908980204
 20
42.85337017905448
 30
0.0
  0
VERTEX
  5
765
  8
LAYER_1
 10
65.6446041878591
 20
42.83118325770647
 30
0.0
  0
VERTEX
  5
766
  8
LAYER_1
 10
65.66494029076543
 20
42.80934127704217
 30
0.0
  0
VERTEX
  5
767
  8
LAYER_1
 10
65.68583023960716
 20
42.78785004816562
 30
0.0
  0
VERTEX
  5
768
  8
LAYER_1
 10
65.70725687547042
 20
42.76671538218086
 30
0.0
  0
VERTEX
  5
769
  8
LAYER_1
 10
65.72920303944133
 20
42.74594309019193
 30
0.0
  0
VERTEX
  5
76A
  8
LAYER_1
 10
65.75165157260608
 20
42.72553898330287
 30
0.0
  0
VERTEX
  5
76B
  8
LAYER_1
 10
65.77458531605075
 20
42.70550887261771
 30
0.0
  0
VERTEX
  5
76C
  8
LAYER_1
 10
65.79798711086153
 20
42.68585856924049
 30
0.0
  0
VERTEX
  5
76D
  8
LAYER_1
 10
65.82183979812453
 20
42.66659388427526
 30
0.0
  0
VERTEX
  5
76E
  8
LAYER_1
 10
65.84612621892589
 20
42.64772062882605
 30
0.0
  0
VERTEX
  5
76F
  8
LAYER_1
 10
65.87082921435177
 20
42.62924461399689
 30
0.0
  0
VERTEX
  5
770
  8
LAYER_1
 10
65.89593162548832
 20
42.61117165089183
 30
0.0
  0
VERTEX
  5
771
  8
LAYER_1
 10
65.92141629342166
 20
42.59350755061491
 30
0.0
  0
VERTEX
  5
772
  8
LAYER_1
 10
65.9472660592379
 20
42.57625812427016
 30
0.0
  0
VERTEX
  5
773
  8
LAYER_1
 10
65.97346376402325
 20
42.55942918296162
 30
0.0
  0
VERTEX
  5
774
  8
LAYER_1
 10
65.9999922488638
 20
42.54302653779333
 30
0.0
  0
VERTEX
  5
775
  8
LAYER_1
 10
66.02683435484569
 20
42.52705599986934
 30
0.0
  0
VERTEX
  5
776
  8
LAYER_1
 10
66.05397292305507
 20
42.51152338029367
 30
0.0
  0
VERTEX
  5
777
  8
LAYER_1
 10
66.0813907945781
 20
42.49643449017037
 30
0.0
  0
VERTEX
  5
778
  8
LAYER_1
 10
66.1090708105009
 20
42.48179514060348
 30
0.0
  0
VERTEX
  5
779
  8
LAYER_1
 10
66.1369958119096
 20
42.46761114269704
 30
0.0
  0
VERTEX
  5
77A
  8
LAYER_1
 10
66.16514863989033
 20
42.45388830755508
 30
0.0
  0
VERTEX
  5
77B
  8
LAYER_1
 10
66.19351213552929
 20
42.44063244628162
 30
0.0
  0
VERTEX
  5
77C
  8
LAYER_1
 10
66.22206913991258
 20
42.42784936998072
 30
0.0
  0
VERTEX
  5
77D
  8
LAYER_1
 10
66.25080249412633
 20
42.41554488975643
 30
0.0
  0
VERTEX
  5
77E
  8
LAYER_1
 10
66.2796950392567
 20
42.40372481671278
 30
0.0
  0
VERTEX
  5
77F
  8
LAYER_1
 10
66.30872961638981
 20
42.3923949619538
 30
0.0
  0
VERTEX
  5
780
  8
LAYER_1
 10
66.33788906661181
 20
42.38156113658353
 30
0.0
  0
VERTEX
  5
781
  8
LAYER_1
 10
66.36715623100886
 20
42.37122915170602
 30
0.0
  0
VERTEX
  5
782
  8
LAYER_1
 10
66.39651395066707
 20
42.36140481842529
 30
0.0
  0
VERTEX
  5
783
  8
LAYER_1
 10
66.42594506667261
 20
42.35209394784539
 30
0.0
  0
VERTEX
  5
784
  8
LAYER_1
 10
66.45543242011159
 20
42.34330235107036
 30
0.0
  0
VERTEX
  5
785
  8
LAYER_1
 10
66.48495885207016
 20
42.33503583920423
 30
0.0
  0
VERTEX
  5
786
  8
LAYER_1
 10
66.51450720363447
 20
42.32730022335105
 30
0.0
  0
VERTEX
  5
787
  8
LAYER_1
 10
66.54406031589065
 20
42.32010131461485
 30
0.0
  0
VERTEX
  5
788
  8
LAYER_1
 10
66.57360102992483
 20
42.31344492409967
 30
0.0
  0
VERTEX
  5
789
  8
LAYER_1
 10
66.60311218682318
 20
42.30733686290955
 30
0.0
  0
VERTEX
  5
78A
  8
LAYER_1
 10
66.63257662767181
 20
42.30178294214852
 30
0.0
  0
VERTEX
  5
78B
  8
LAYER_1
 10
66.66197719355688
 20
42.29678897292064
 30
0.0
  0
VERTEX
  5
78C
  8
LAYER_1
 10
66.69129672556451
 20
42.29236076632992
 30
0.0
  0
VERTEX
  5
78D
  8
LAYER_1
 10
66.72051806478086
 20
42.28850413348043
 30
0.0
  0
VERTEX
  5
78E
  8
LAYER_1
 10
66.74962405229208
 20
42.28522488547618
 30
0.0
  0
VERTEX
  5
78F
  8
LAYER_1
 10
66.77859752918428
 20
42.28252883342122
 30
0.0
  0
VERTEX
  5
790
  8
LAYER_1
 10
66.80742133654361
 20
42.28042178841959
 30
0.0
  0
VERTEX
  5
791
  8
LAYER_1
 10
66.8360783154562
 20
42.27890956157533
 30
0.0
  0
VERTEX
  5
792
  8
LAYER_1
 10
66.86455130700823
 20
42.27799796399248
 30
0.0
  0
VERTEX
  5
793
  8
LAYER_1
 10
66.89282315228579
 20
42.27769280677506
 30
0.0
  0
VERTEX
  5
794
  8
LAYER_1
 10
95.26782315229727
 20
42.27769280676536
 30
0.0
  0
VERTEX
  5
795
  8
LAYER_1
 10
95.28442410156856
 20
42.27740409105439
 30
0.0
  0
VERTEX
  5
796
  8
LAYER_1
 10
95.30107792816514
 20
42.27654464933367
 30
0.0
  0
VERTEX
  5
797
  8
LAYER_1
 10
95.31777457396869
 20
42.27512453972152
 30
0.0
  0
VERTEX
  5
798
  8
LAYER_1
 10
95.33450398086092
 20
42.27315382033624
 30
0.0
  0
VERTEX
  5
799
  8
LAYER_1
 10
95.35125609072351
 20
42.27064254929615
 30
0.0
  0
VERTEX
  5
79A
  8
LAYER_1
 10
95.36802084543815
 20
42.26760078471954
 30
0.0
  0
VERTEX
  5
79B
  8
LAYER_1
 10
95.38478818688655
 20
42.26403858472473
 30
0.0
  0
VERTEX
  5
79C
  8
LAYER_1
 10
95.40154805695039
 20
42.25996600743002
 30
0.0
  0
VERTEX
  5
79D
  8
LAYER_1
 10
95.41829039751136
 20
42.25539311095373
 30
0.0
  0
VERTEX
  5
79E
  8
LAYER_1
 10
95.43500515045116
 20
42.25032995341414
 30
0.0
  0
VERTEX
  5
79F
  8
LAYER_1
 10
95.4516822576515
 20
42.24478659292958
 30
0.0
  0
VERTEX
  5
7A0
  8
LAYER_1
 10
95.46831166099403
 20
42.23877308761834
 30
0.0
  0
VERTEX
  5
7A1
  8
LAYER_1
 10
95.48488330236049
 20
42.23229949559875
 30
0.0
  0
VERTEX
  5
7A2
  8
LAYER_1
 10
95.50138712363254
 20
42.2253758749891
 30
0.0
  0
VERTEX
  5
7A3
  8
LAYER_1
 10
95.51781306669189
 20
42.2180122839077
 30
0.0
  0
VERTEX
  5
7A4
  8
LAYER_1
 10
95.53415107342022
 20
42.21021878047284
 30
0.0
  0
VERTEX
  5
7A5
  8
LAYER_1
 10
95.55039108569923
 20
42.20200542280286
 30
0.0
  0
VERTEX
  5
7A6
  8
LAYER_1
 10
95.56652304541063
 20
42.19338226901604
 30
0.0
  0
VERTEX
  5
7A7
  8
LAYER_1
 10
95.58253689443609
 20
42.18435937723071
 30
0.0
  0
VERTEX
  5
7A8
  8
LAYER_1
 10
95.59842257465732
 20
42.17494680556516
 30
0.0
  0
VERTEX
  5
7A9
  8
LAYER_1
 10
95.61417002795599
 20
42.16515461213769
 30
0.0
  0
VERTEX
  5
7AA
  8
LAYER_1
 10
95.6297691962138
 20
42.15499285506662
 30
0.0
  0
VERTEX
  5
7AB
  8
LAYER_1
 10
95.64521002131247
 20
42.14447159247026
 30
0.0
  0
VERTEX
  5
7AC
  8
LAYER_1
 10
95.66048244513368
 20
42.13360088246691
 30
0.0
  0
VERTEX
  5
7AD
  8
LAYER_1
 10
95.67557640955908
 20
42.12239078317487
 30
0.0
  0
VERTEX
  5
7AE
  8
LAYER_1
 10
95.69048185647043
 20
42.11085135271246
 30
0.0
  0
VERTEX
  5
7AF
  8
LAYER_1
 10
95.7051887277494
 20
42.09899264919798
 30
0.0
  0
VERTEX
  5
7B0
  8
LAYER_1
 10
95.71968696527767
 20
42.08682473074975
 30
0.0
  0
VERTEX
  5
7B1
  8
LAYER_1
 10
95.73396651093694
 20
42.07435765548605
 30
0.0
  0
VERTEX
  5
7B2
  8
LAYER_1
 10
95.74801730660889
 20
42.06160148152522
 30
0.0
  0
VERTEX
  5
7B3
  8
LAYER_1
 10
95.76182929417524
 20
42.04856626698553
 30
0.0
  0
VERTEX
  5
7B4
  8
LAYER_1
 10
95.77539241551767
 20
42.03526206998532
 30
0.0
  0
VERTEX
  5
7B5
  8
LAYER_1
 10
95.78869661251787
 20
42.02169894864288
 30
0.0
  0
VERTEX
  5
7B6
  8
LAYER_1
 10
95.80173182705752
 20
42.00788696107652
 30
0.0
  0
VERTEX
  5
7B7
  8
LAYER_1
 10
95.81448800101836
 20
41.99383616540455
 30
0.0
  0
VERTEX
  5
7B8
  8
LAYER_1
 10
95.82695507628203
 20
41.97955661974527
 30
0.0
  0
VERTEX
  5
7B9
  8
LAYER_1
 10
95.83912299473025
 20
41.96505838221698
 30
0.0
  0
VERTEX
  5
7BA
  8
LAYER_1
 10
95.85098169824471
 20
41.95035151093801
 30
0.0
  0
VERTEX
  5
7BB
  8
LAYER_1
 10
95.8625211287071
 20
41.93544606402664
 30
0.0
  0
VERTEX
  5
7BC
  8
LAYER_1
 10
95.87373122799912
 20
41.9203520996012
 30
0.0
  0
VERTEX
  5
7BD
  8
LAYER_1
 10
95.88460193800245
 20
41.90507967577999
 30
0.0
  0
VERTEX
  5
7BE
  8
LAYER_1
 10
95.89512320059879
 20
41.88963885068132
 30
0.0
  0
VERTEX
  5
7BF
  8
LAYER_1
 10
95.90528495766983
 20
41.87403968242347
 30
0.0
  0
VERTEX
  5
7C0
  8
LAYER_1
 10
95.91507715109728
 20
41.85829222912479
 30
0.0
  0
VERTEX
  5
7C1
  8
LAYER_1
 10
95.92448972276281
 20
41.84240654890355
 30
0.0
  0
VERTEX
  5
7C2
  8
LAYER_1
 10
95.93351261454814
 20
41.82639269987808
 30
0.0
  0
VERTEX
  5
7C3
  8
LAYER_1
 10
95.94213576833494
 20
41.81026074016667
 30
0.0
  0
VERTEX
  5
7C4
  8
LAYER_1
 10
95.95034912600491
 20
41.79402072788764
 30
0.0
  0
VERTEX
  5
7C5
  8
LAYER_1
 10
95.95814262943975
 20
41.77768272115929
 30
0.0
  0
VERTEX
  5
7C6
  8
LAYER_1
 10
95.96550622052115
 20
41.76125677809993
 30
0.0
  0
VERTEX
  5
7C7
  8
LAYER_1
 10
95.97242984113078
 20
41.74475295682787
 30
0.0
  0
VERTEX
  5
7C8
  8
LAYER_1
 10
95.97890343315036
 20
41.72818131546141
 30
0.0
  0
VERTEX
  5
7C9
  8
LAYER_1
 10
95.9849169384616
 20
41.71155191211886
 30
0.0
  0
VERTEX
  5
7CA
  8
LAYER_1
 10
95.99046029894615
 20
41.69487480491853
 30
0.0
  0
VERTEX
  5
7CB
  8
LAYER_1
 10
95.99552345648571
 20
41.67816005197871
 30
0.0
  0
VERTEX
  5
7CC
  8
LAYER_1
 10
96.000096352962
 20
41.66141771141773
 30
0.0
  0
VERTEX
  5
7CD
  8
LAYER_1
 10
96.00416893025671
 20
41.64465784135388
 30
0.0
  0
VERTEX
  5
7CE
  8
LAYER_1
 10
96.00773113025151
 20
41.62789049990548
 30
0.0
  0
VERTEX
  5
7CF
  8
LAYER_1
 10
96.01077289482811
 20
41.61112574519083
 30
0.0
  0
VERTEX
  5
7D0
  8
LAYER_1
 10
96.01328416586819
 20
41.59437363532824
 30
0.0
  0
VERTEX
  5
7D1
  8
LAYER_1
 10
96.01525488525346
 20
41.57764422843601
 30
0.0
  0
VERTEX
  5
7D2
  8
LAYER_1
 10
96.0166749948656
 20
41.56094758263245
 30
0.0
  0
VERTEX
  5
7D3
  8
LAYER_1
 10
96.0175344365863
 20
41.54429375603587
 30
0.0
  0
VERTEX
  5
7D4
  8
LAYER_1
 10
96.01782315229727
 20
41.52769280676458
 30
0.0
  0
VERTEX
  5
7D5
  8
LAYER_1
 10
96.01782315229727
 20
16.0276928067647
 30
0.0
  0
VERTEX
  5
7D6
  8
LAYER_1
 10
43.70532315230204
 20
16.0276928067647
 30
0.0
  0
VERTEX
  5
7D7
  8
LAYER_1
 10
43.68341797127919
 20
16.02797913149908
 30
0.0
  0
VERTEX
  5
7D8
  8
LAYER_1
 10
43.66159000493361
 20
16.02883155209805
 30
0.0
  0
VERTEX
  5
7D9
  8
LAYER_1
 10
43.63984066375866
 20
16.03024023815536
 30
0.0
  0
VERTEX
  5
7DA
  8
LAYER_1
 10
43.61817135824774
 20
16.03219535926476
 30
0.0
  0
VERTEX
  5
7DB
  8
LAYER_1
 10
43.59658349889422
 20
16.03468708502
 30
0.0
  0
VERTEX
  5
7DC
  8
LAYER_1
 10
43.57507849619148
 20
16.03770558501482
 30
0.0
  0
VERTEX
  5
7DD
  8
LAYER_1
 10
43.55365776063289
 20
16.04124102884298
 30
0.0
  0
VERTEX
  5
7DE
  8
LAYER_1
 10
43.53232270271184
 20
16.04528358609824
 30
0.0
  0
VERTEX
  5
7DF
  8
LAYER_1
 10
43.51107473292169
 20
16.04982342637432
 30
0.0
  0
VERTEX
  5
7E0
  8
LAYER_1
 10
43.48991526175584
 20
16.054850719265
 30
0.0
  0
VERTEX
  5
7E1
  8
LAYER_1
 10
43.46884569970765
 20
16.06035563436402
 30
0.0
  0
VERTEX
  5
7E2
  8
LAYER_1
 10
43.4478674572705
 20
16.06632834126512
 30
0.0
  0
VERTEX
  5
7E3
  8
LAYER_1
 10
43.42698194493778
 20
16.07275900956206
 30
0.0
  0
VERTEX
  5
7E4
  8
LAYER_1
 10
43.40619057320286
 20
16.07963780884858
 30
0.0
  0
VERTEX
  5
7E5
  8
LAYER_1
 10
43.38549475255911
 20
16.08695490871844
 30
0.0
  0
VERTEX
  5
7E6
  8
LAYER_1
 10
43.36489589349992
 20
16.09470047876539
 30
0.0
  0
VERTEX
  5
7E7
  8
LAYER_1
 10
43.34439540651866
 20
16.10286468858317
 30
0.0
  0
VERTEX
  5
7E8
  8
LAYER_1
 10
43.32399470210871
 20
16.11143770776553
 30
0.0
  0
VERTEX
  5
7E9
  8
LAYER_1
 10
43.30369519076346
 20
16.12040970590623
 30
0.0
  0
VERTEX
  5
7EA
  8
LAYER_1
 10
43.28349828297627
 20
16.12977085259901
 30
0.0
  0
VERTEX
  5
7EB
  8
LAYER_1
 10
43.26340538924052
 20
16.13951131743763
 30
0.0
  0
VERTEX
  5
7EC
  8
LAYER_1
 10
43.24341792004959
 20
16.14962127001583
 30
0.0
  0
VERTEX
  5
7ED
  8
LAYER_1
 10
43.22353728589687
 20
16.16009087992736
 30
0.0
  0
VERTEX
  5
7EE
  8
LAYER_1
 10
43.20376489727572
 20
16.17091031676598
 30
0.0
  0
VERTEX
  5
7EF
  8
LAYER_1
 10
43.18410216467953
 20
16.18206975012543
 30
0.0
  0
VERTEX
  5
7F0
  8
LAYER_1
 10
43.16455049860167
 20
16.19355934959946
 30
0.0
  0
VERTEX
  5
7F1
  8
LAYER_1
 10
43.14511130953552
 20
16.20536928478182
 30
0.0
  0
VERTEX
  5
7F2
  8
LAYER_1
 10
43.12578600797446
 20
16.21748972526627
 30
0.0
  0
VERTEX
  5
7F3
  8
LAYER_1
 10
43.10657600441187
 20
16.22991084064654
 30
0.0
  0
VERTEX
  5
7F4
  8
LAYER_1
 10
43.08748270934112
 20
16.2426228005164
 30
0.0
  0
VERTEX
  5
7F5
  8
LAYER_1
 10
43.04965188664868
 20
16.26887993209985
 30
0.0
  0
VERTEX
  5
7F6
  8
LAYER_1
 10
43.01230482384413
 20
16.29618247676662
 30
0.0
  0
VERTEX
  5
7F7
  8
LAYER_1
 10
42.97545280487454
 20
16.32445179126671
 30
0.0
  0
VERTEX
  5
7F8
  8
LAYER_1
 10
42.9391071136869
 20
16.35360923235011
 30
0.0
  0
VERTEX
  5
7F9
  8
LAYER_1
 10
42.90327903422823
 20
16.38357615676682
 30
0.0
  0
VERTEX
  5
7FA
  8
LAYER_1
 10
42.86797985044558
 20
16.41427392126684
 30
0.0
  0
VERTEX
  5
7FB
  8
LAYER_1
 10
42.83322084628595
 20
16.44562388260017
 30
0.0
  0
VERTEX
  5
7FC
  8
LAYER_1
 10
42.79901330569636
 20
16.47754739751679
 30
0.0
  0
VERTEX
  5
7FD
  8
LAYER_1
 10
42.76536851262384
 20
16.50996582276672
 30
0.0
  0
VERTEX
  5
7FE
  8
LAYER_1
 10
42.73229775101542
 20
16.54280051509995
 30
0.0
  0
VERTEX
  5
7FF
  8
LAYER_1
 10
42.69981230481811
 20
16.57597283126648
 30
0.0
  0
VERTEX
  5
800
  8
LAYER_1
 10
42.66792345797894
 20
16.60940412801629
 30
0.0
  0
VERTEX
  5
801
  8
LAYER_1
 10
42.63664249444493
 20
16.6430157620994
 30
0.0
  0
VERTEX
  5
802
  8
LAYER_1
 10
42.60598069816311
 20
16.67672909026578
 30
0.0
  0
VERTEX
  5
803
  8
LAYER_1
 10
42.57594935308048
 20
16.71046546926546
 30
0.0
  0
VERTEX
  5
804
  8
LAYER_1
 10
42.54655974314409
 20
16.74414625584842
 30
0.0
  0
SEQEND
  5
BF2
  8
LAYER_1
  0
POLYLINE
  5
86
  8
LAYER_1
 66
     1
 10
0.0
 20
0.0
 30
0.0
 70
     1
  0
VERTEX
  5
805
  8
LAYER_1
 10
93.39542972418985
 20
47.10513048452664
 30
0.0
  0
VERTEX
  5
806
  8
LAYER_1
 10
69.58292972418985
 20
47.10513048452664
 30
0.0
  0
VERTEX
  5
807
  8
LAYER_1
 10
69.58292972418985
 20
43.73013048452664
 30
0.0
  0
VERTEX
  5
808
  8
LAYER_1
 10
93.39542972418985
 20
43.73013048452664
 30
0.0
  0
SEQEND
  5
BF3
  8
LAYER_1
  0
POLYLINE
  5
87
  8
LAYER_1
 66
     1
 10
0.0
 20
0.0
 30
0.0
 70
     1
  0
VERTEX
  5
809
  8
LAYER_1
 10
34.2629884035496
 20
0.969514265639674
 30
0.0
  0
VERTEX
  5
80A
  8
LAYER_1
 10
34.2629884035496
 20
24.78201426563967
 30
0.0
  0
VERTEX
  5
80B
  8
LAYER_1
 10
26.2629884035496
 20
24.78201426563967
 30
0.0
  0
VERTEX
  5
80C
  8
LAYER_1
 10
26.2629884035496
 20
0.969514265639674
 30
0.0
  0
SEQEND
  5
BF4
  8
LAYER_1
  0
POLYLINE
  5
88
  8
LAYER_1
 66
     1
 10
0.0
 20
0.0
 30
0.0
 70
     1
  0
VERTEX
  5
80D
  8
LAYER_1
 10
32.94998840354961
 20
2.469514265639674
 30
0.0
 42
0.4142135623730951
  0
VERTEX
  5
80E
  8
LAYER_1
 10
33.0754884035496
 20
2.344014265639672
 30
0.0
 42
0.4142135623730951
  0
VERTEX
  5
80F
  8
LAYER_1
 10
33.20098840354959
 20
2.469514265639674
 30
0.0
 42
0.4142135623730951
  0
VERTEX
  5
810
  8
LAYER_1
 10
33.0754884035496
 20
2.595014265639676
 30
0.0
 42
0.4142135623730951
  0
SEQEND
  5
BF5
  8
LAYER_1
  0
POLYLINE
  5
89
  8
LAYER_1
 66
     1
 10
0.0
 20
0.0
 30
0.0
 70
     1
  0
VERTEX
  5
811
  8
LAYER_1
 10
32.94998840354961
 20
12.84451426563967
 30
0.0
 42
0.4142135623730951
  0
VERTEX
  5
812
  8
LAYER_1
 10
33.0754884035496
 20
12.71901426563967
 30
0.0
 42
0.4142135623730951
  0
VERTEX
  5
813
  8
LAYER_1
 10
33.20098840354959
 20
12.84451426563967
 30
0.0
 42
0.4142135623730951
  0
VERTEX
  5
814
  8
LAYER_1
 10
33.0754884035496
 20
12.97001426563968
 30
0.0
 42
0.4142135623730951
  0
SEQEND
  5
BF6
  8
LAYER_1
  0
POLYLINE
  5
8A
  8
LAYER_1
 66
     1
 10
0.0
 20
0.0
 30
0.0
 70
     1
  0
VERTEX
  5
815
  8
LAYER_1
 10
32.94998840354961
 20
23.25951426563968
 30
0.0
 42
0.4142135623730951
  0
VERTEX
  5
816
  8
LAYER_1
 10
33.0754884035496
 20
23.13401426563968
 30
0.0
 42
0.4142135623730951
  0
VERTEX
  5
817
  8
LAYER_1
 10
33.20098840354959
 20
23.25951426563968
 30
0.0
 42
0.4142135623730951
  0
VERTEX
  5
818
  8
LAYER_1
 10
33.0754884035496
 20
23.38501426563967
 30
0.0
 42
0.4142135623730951
  0
SEQEND
  5
BF7
  8
LAYER_1
  0
POLYLINE
  5
8B
  8
LAYER_1
 66
     1
 10
0.0
 20
0.0
 30
0.0
 70
     1
  0
VERTEX
  5
819
  8
LAYER_1
 10
23.7321768477027
 20
36.14125167856234
 30
0.0
  0
VERTEX
  5
81A
  8
LAYER_1
 10
0.9821768477027177
 20
36.14125167856234
 30
0.0
  0
VERTEX
  5
81B
  8
LAYER_1
 10
0.9821768477027177
 20
34.14125167856234
 30
0.0
  0
VERTEX
  5
81C
  8
LAYER_1
 10
23.7321768477027
 20
34.14125167856234
 30
0.0
  0
SEQEND
  5
BF8
  8
LAYER_1
  0
POLYLINE
  5
8C
  8
LAYER_1
 66
     1
 10
0.0
 20
0.0
 30
0.0
 70
     1
  0
VERTEX
  5
81D
  8
LAYER_1
 10
107.0426861586977
 20
18.74745299285576
 30
0.0
  0
VERTEX
  5
81E
  8
LAYER_1
 10
119.2932663748383
 20
18.74724007337846
 30
0.0
 42
0.4142135623730951
  0
VERTEX
  5
81F
  8
LAYER_1
 10
119.5432606029234
 20
18.99738606937225
 30
0.0
 42
0.4142135623730951
  0
VERTEX
  5
820
  8
LAYER_1
 10
119.2932663748383
 20
19.2474057724907
 30
0.0
  0
VERTEX
  5
821
  8
LAYER_1
 10
119.2931307801603
 20
28.68403677463944
 30
0.0
 42
0.4142135623730951
  0
VERTEX
  5
822
  8
LAYER_1
 10
119.5429894135674
 20
28.93411856677074
 30
0.0
 42
0.4142135623730951
  0
VERTEX
  5
823
  8
LAYER_1
 10
119.2931307801603
 20
29.18435632207771
 30
0.0
  0
VERTEX
  5
824
  8
LAYER_1
 10
107.0437469015057
 20
29.18421138551512
 30
0.0
 42
0.4142135623730951
  0
VERTEX
  5
825
  8
LAYER_1
 10
106.7942216562582
 20
28.93382869364556
 30
0.0
 42
0.4142135623730951
  0
VERTEX
  5
826
  8
LAYER_1
 10
107.0437469015057
 20
28.68354184316149
 30
0.0
  0
VERTEX
  5
827
  8
LAYER_1
 10
107.0426861586977
 20
19.24758339328474
 30
0.0
 42
0.4142135623730951
  0
VERTEX
  5
828
  8
LAYER_1
 10
106.7921001706423
 20
18.99781190832683
 30
0.0
 42
0.4142135623730951
  0
SEQEND
  5
BF9
  8
LAYER_1
  0
POLYLINE
  5
8D
  8
LAYER_1
 66
     1
 10
0.0
 20
0.0
 30
0.0
 70
     1
  0
VERTEX
  5
829
  8
LAYER_1
 10
106.7307721467532
 20
24.1520940773847
 30
0.0
 42
0.4142135623730951
  0
VERTEX
  5
82A
  8
LAYER_1
 10
106.5757721467532
 20
23.99709407738469
 30
0.0
 42
0.4142135623730951
  0
VERTEX
  5
82B
  8
LAYER_1
 10
106.7307721467532
 20
23.84209407738469
 30
0.0
 42
0.4142135623730951
  0
VERTEX
  5
82C
  8
LAYER_1
 10
106.8857721467532
 20
23.99709407738469
 30
0.0
 42
0.4142135623730951
  0
SEQEND
  5
BFA
  8
LAYER_1
  0
POLYLINE
  5
8E
  8
LAYER_1
 66
     1
 10
0.0
 20
0.0
 30
0.0
 70
     1
  0
VERTEX
  5
82D
  8
LAYER_1
 10
119.6682721467532
 20
24.1520940773847
 30
0.0
 42
0.4142135623730951
  0
VERTEX
  5
82E
  8
LAYER_1
 10
119.5132721467532
 20
23.99709407738469
 30
0.0
 42
0.4142135623730951
  0
VERTEX
  5
82F
  8
LAYER_1
 10
119.6682721467532
 20
23.84209407738469
 30
0.0
 42
0.4142135623730951
  0
VERTEX
  5
830
  8
LAYER_1
 10
119.8232721467532
 20
23.99709407738469
 30
0.0
 42
0.4142135623730951
  0
SEQEND
  5
BFB
  8
LAYER_1
  0
POLYLINE
  5
8F
  8
LAYER_1
 66
     1
 10
0.0
 20
0.0
 30
0.0
 70
     1
  0
VERTEX
  5
831
  8
LAYER_1
 10
113.1994721467532
 20
29.6520940773847
 30
0.0
 42
0.4142135623730951
  0
VERTEX
  5
832
  8
LAYER_1
 10
113.0444721467532
 20
29.49709407738469
 30
0.0
 42
0.4142135623730951
  0
VERTEX
  5
833
  8
LAYER_1
 10
113.1994721467532
 20
29.34209407738469
 30
0.0
 42
0.4142135623730951
  0
VERTEX
  5
834
  8
LAYER_1
 10
113.3544721467532
 20
29.49709407738469
 30
0.0
 42
0.4142135623730951
  0
SEQEND
  5
BFC
  8
LAYER_1
  0
POLYLINE
  5
90
  8
LAYER_1
 66
     1
 10
0.0
 20
0.0
 30
0.0
 70
     1
  0
VERTEX
  5
835
  8
LAYER_1
 10
113.1994721467532
 20
18.5895940773847
 30
0.0
 42
0.4142135623730951
  0
VERTEX
  5
836
  8
LAYER_1
 10
113.0444721467532
 20
18.43459407738469
 30
0.0
 42
0.4142135623730951
  0
VERTEX
  5
837
  8
LAYER_1
 10
113.1994721467532
 20
18.27959407738469
 30
0.0
 42
0.4142135623730951
  0
VERTEX
  5
838
  8
LAYER_1
 10
113.3544721467532
 20
18.43459407738469
 30
0.0
 42
0.4142135623730951
  0
SEQEND
  5
BFD
  8
LAYER_1
  0
POLYLINE
  5
91
  8
LAYER_1
 66
     1
 10
0.0
 20
0.0
 30
0.0
 70
     1
  0
VERTEX
  5
839
  8
LAYER_1
 10
101.2932721467532
 20
34.84189169794356
 30
0.0
  0
VERTEX
  5
83A
  8
LAYER_1
 10
101.2932721467532
 20
3.404594077384694
 30
0.0
  0
VERTEX
  5
83B
  8
LAYER_1
 10
125.1057721467532
 20
3.404594077384694
 30
0.0
  0
VERTEX
  5
83C
  8
LAYER_1
 10
125.1057721467532
 20
34.80960391562606
 30
0.0
  0
VERTEX
  5
83D
  8
LAYER_1
 10
125.1057721467532
 20
34.84209407738469
 30
0.0
  0
VERTEX
  5
83E
  8
LAYER_1
 10
124.0432721467532
 20
34.84209407738469
 30
0.0
  0
VERTEX
  5
83F
  8
LAYER_1
 10
124.0432721467532
 20
35.34179356639907
 30
0.0
  0
VERTEX
  5
840
  8
LAYER_1
 10
124.0429296072165
 20
35.34209407738469
 30
0.0
  0
VERTEX
  5
841
  8
LAYER_1
 10
123.9490364947047
 20
35.34209407738469
 30
0.0
  0
VERTEX
  5
842
  8
LAYER_1
 10
102.3558656485857
 20
35.34209407738469
 30
0.0
  0
VERTEX
  5
843
  8
LAYER_1
 10
102.3557721467532
 20
35.34203011853457
 30
0.0
  0
VERTEX
  5
844
  8
LAYER_1
 10
102.3557721467532
 20
34.84209407738469
 30
0.0
  0
VERTEX
  5
845
  8
LAYER_1
 10
101.2932721467532
 20
34.84209407738469
 30
0.0
  0
SEQEND
  5
BFE
  8
LAYER_1
  0
POLYLINE
  5
92
  8
LAYER_1
 66
     1
 10
0.0
 20
0.0
 30
0.0
 70
     1
  0
VERTEX
  5
846
  8
LAYER_1
 10
102.7619721467532
 20
34.53009407738468
 30
0.0
 42
0.4142135623730951
  0
VERTEX
  5
847
  8
LAYER_1
 10
102.6364721467532
 20
34.40459407738469
 30
0.0
 42
0.4142135623730951
  0
VERTEX
  5
848
  8
LAYER_1
 10
102.7619721467532
 20
34.27909407738469
 30
0.0
 42
0.4142135623730951
  0
VERTEX
  5
849
  8
LAYER_1
 10
102.8874721467532
 20
34.40459407738469
 30
0.0
 42
0.4142135623730951
  0
SEQEND
  5
BFF
  8
LAYER_1
  0
POLYLINE
  5
93
  8
LAYER_1
 66
     1
 10
0.0
 20
0.0
 30
0.0
 70
     1
  0
VERTEX
  5
84A
  8
LAYER_1
 10
113.1995221467532
 20
34.53009407738468
 30
0.0
 42
0.4142135623730951
  0
VERTEX
  5
84B
  8
LAYER_1
 10
113.0740221467532
 20
34.40459407738469
 30
0.0
 42
0.4142135623730951
  0
VERTEX
  5
84C
  8
LAYER_1
 10
113.1995221467532
 20
34.27909407738469
 30
0.0
 42
0.4142135623730951
  0
VERTEX
  5
84D
  8
LAYER_1
 10
113.3250221467532
 20
34.40459407738469
 30
0.0
 42
0.4142135623730951
  0
SEQEND
  5
C00
  8
LAYER_1
  0
POLYLINE
  5
94
  8
LAYER_1
 66
     1
 10
0.0
 20
0.0
 30
0.0
 70
     1
  0
VERTEX
  5
84E
  8
LAYER_1
 10
123.5744721467532
 20
34.53009407738468
 30
0.0
 42
0.4142135623730951
  0
VERTEX
  5
84F
  8
LAYER_1
 10
123.4489721467532
 20
34.40459407738469
 30
0.0
 42
0.4142135623730951
  0
VERTEX
  5
850
  8
LAYER_1
 10
123.5744721467532
 20
34.27909407738469
 30
0.0
 42
0.4142135623730951
  0
VERTEX
  5
851
  8
LAYER_1
 10
123.6999721467532
 20
34.40459407738469
 30
0.0
 42
0.4142135623730951
  0
SEQEND
  5
C01
  8
LAYER_1
  0
POLYLINE
  5
95
  8
LAYER_1
 66
     1
 10
0.0
 20
0.0
 30
0.0
 70
     1
  0
VERTEX
  5
852
  8
LAYER_1
 10
102.8428071221163
 20
-38.68502296105179
 30
0.0
  0
VERTEX
  5
853
  8
LAYER_1
 10
126.5928071221163
 20
-38.68502296105179
 30
0.0
  0
VERTEX
  5
854
  8
LAYER_1
 10
126.5928071221163
 20
-2.716322961051809
 30
0.0
  0
VERTEX
  5
855
  8
LAYER_1
 10
102.8428071221163
 20
-2.716322961051809
 30
0.0
  0
SEQEND
  5
C02
  8
LAYER_1
  0
POLYLINE
  5
96
  8
LAYER_1
 66
     1
 10
0.0
 20
0.0
 30
0.0
 70
     1
  0
VERTEX
  5
856
  8
LAYER_1
 10
114.7178071221163
 20
-3.398822961051799
 30
0.0
 42
0.4142135623730951
  0
VERTEX
  5
857
  8
LAYER_1
 10
114.3378071221163
 20
-3.778822961051809
 30
0.0
 42
0.4142135623730951
  0
VERTEX
  5
858
  8
LAYER_1
 10
114.7178071221163
 20
-4.158822961051804
 30
0.0
 42
0.4142135623730951
  0
VERTEX
  5
859
  8
LAYER_1
 10
115.0978071221163
 20
-3.778822961051809
 30
0.0
 42
0.4142135623730951
  0
SEQEND
  5
C03
  8
LAYER_1
  0
POLYLINE
  5
97
  8
LAYER_1
 66
     1
 10
0.0
 20
0.0
 30
0.0
 70
     1
  0
VERTEX
  5
85A
  8
LAYER_1
 10
114.7178571221163
 20
-3.018822961051804
 30
0.0
 42
0.4142135623730951
  0
VERTEX
  5
85B
  8
LAYER_1
 10
113.9578571221163
 20
-3.778822961051809
 30
0.0
 42
0.4142135623730951
  0
VERTEX
  5
85C
  8
LAYER_1
 10
114.7178571221163
 20
-4.5388229610518
 30
0.0
 42
0.4142135623730951
  0
VERTEX
  5
85D
  8
LAYER_1
 10
115.4778571221163
 20
-3.778822961051809
 30
0.0
 42
0.4142135623730951
  0
SEQEND
  5
C04
  8
LAYER_1
  0
POLYLINE
  5
98
  8
LAYER_1
 66
     1
 10
0.0
 20
0.0
 30
0.0
 70
     1
  0
VERTEX
  5
85E
  8
LAYER_1
 10
107.7490571221163
 20
-35.40382296105181
 30
0.0
  0
VERTEX
  5
85F
  8
LAYER_1
 10
121.8115571221163
 20
-35.40382296105181
 30
0.0
  0
VERTEX
  5
860
  8
LAYER_1
 10
121.8115571221163
 20
-34.65382296105181
 30
0.0
  0
VERTEX
  5
861
  8
LAYER_1
 10
107.7490571221163
 20
-34.65382296105181
 30
0.0
  0
SEQEND
  5
C05
  8
LAYER_1
  0
POLYLINE
  5
99
  8
LAYER_1
 66
     1
 10
0.0
 20
0.0
 30
0.0
 70
     1
  0
VERTEX
  5
862
  8
LAYER_1
 10
129.8915460122515
 20
45.8942042135876
 30
0.0
  0
VERTEX
  5
863
  8
LAYER_1
 10
129.8915460122515
 20
22.08170421358759
 30
0.0
  0
VERTEX
  5
864
  8
LAYER_1
 10
153.1415460122515
 20
22.08170421358759
 30
0.0
  0
VERTEX
  5
865
  8
LAYER_1
 10
153.1415460122515
 20
45.8942042135876
 30
0.0
  0
SEQEND
  5
C06
  8
LAYER_1
  0
POLYLINE
  5
9A
  8
LAYER_1
 66
     1
 10
0.0
 20
0.0
 30
0.0
 70
     1
  0
VERTEX
  5
866
  8
LAYER_1
 10
132.3915460122515
 20
42.8942042135876
 30
0.0
 42
0.4142135623730951
  0
VERTEX
  5
867
  8
LAYER_1
 10
131.8915460122515
 20
42.3942042135876
 30
0.0
  0
VERTEX
  5
868
  8
LAYER_1
 10
131.8915460122515
 20
25.51920421358759
 30
0.0
 42
0.4142135623730951
  0
VERTEX
  5
869
  8
LAYER_1
 10
132.3915460122515
 20
25.01920421358759
 30
0.0
  0
VERTEX
  5
86A
  8
LAYER_1
 10
140.7665460122515
 20
25.01920421358759
 30
0.0
 42
0.4142135623730951
  0
VERTEX
  5
86B
  8
LAYER_1
 10
141.2665460122515
 20
25.51920421358759
 30
0.0
  0
VERTEX
  5
86C
  8
LAYER_1
 10
141.2665460122515
 20
42.3942042135876
 30
0.0
 42
0.4142135623730951
  0
VERTEX
  5
86D
  8
LAYER_1
 10
140.7665460122515
 20
42.8942042135876
 30
0.0
  0
SEQEND
  5
C07
  8
LAYER_1
  0
POLYLINE
  5
9B
  8
LAYER_1
 66
     1
 10
0.0
 20
0.0
 30
0.0
 70
     1
  0
VERTEX
  5
86E
  8
LAYER_1
 10
141.5165460122515
 20
46.1442042135876
 30
0.0
  0
VERTEX
  5
86F
  8
LAYER_1
 10
141.5165460122515
 20
21.83170421358759
 30
0.0
  0
VERTEX
  5
870
  8
LAYER_1
 10
142.0165460122515
 20
21.83170421358759
 30
0.0
  0
VERTEX
  5
871
  8
LAYER_1
 10
142.0165460122515
 20
46.1442042135876
 30
0.0
  0
SEQEND
  5
C08
  8
LAYER_1
  0
POLYLINE
  5
9C
  8
LAYER_1
 66
     1
 10
0.0
 20
0.0
 30
0.0
 70
     1
  0
VERTEX
  5
872
  8
LAYER_1
 10
140.7982460122515
 20
42.3942042135876
 30
0.0
 42
0.4142135623730951
  0
VERTEX
  5
873
  8
LAYER_1
 10
140.6727460122515
 20
42.51970421358759
 30
0.0
 42
0.4142135623730951
  0
VERTEX
  5
874
  8
LAYER_1
 10
140.5472460122515
 20
42.3942042135876
 30
0.0
 42
0.4142135623730951
  0
VERTEX
  5
875
  8
LAYER_1
 10
140.6727460122515
 20
42.2687042135876
 30
0.0
 42
0.4142135623730951
  0
SEQEND
  5
C09
  8
LAYER_1
  0
POLYLINE
  5
9D
  8
LAYER_1
 66
     1
 10
0.0
 20
0.0
 30
0.0
 70
     1
  0
VERTEX
  5
876
  8
LAYER_1
 10
140.7982460122515
 20
34.0192042135876
 30
0.0
 42
0.4142135623730951
  0
VERTEX
  5
877
  8
LAYER_1
 10
140.6727460122515
 20
34.1447042135876
 30
0.0
 42
0.4142135623730951
  0
VERTEX
  5
878
  8
LAYER_1
 10
140.5472460122515
 20
34.0192042135876
 30
0.0
 42
0.4142135623730951
  0
VERTEX
  5
879
  8
LAYER_1
 10
140.6727460122515
 20
33.8937042135876
 30
0.0
 42
0.4142135623730951
  0
SEQEND
  5
C0A
  8
LAYER_1
  0
POLYLINE
  5
9E
  8
LAYER_1
 66
     1
 10
0.0
 20
0.0
 30
0.0
 70
     1
  0
VERTEX
  5
87A
  8
LAYER_1
 10
140.7982460122515
 20
25.64420421358759
 30
0.0
 42
0.4142135623730951
  0
VERTEX
  5
87B
  8
LAYER_1
 10
140.6727460122515
 20
25.76970421358761
 30
0.0
 42
0.4142135623730951
  0
VERTEX
  5
87C
  8
LAYER_1
 10
140.5472460122515
 20
25.64420421358759
 30
0.0
 42
0.4142135623730951
  0
VERTEX
  5
87D
  8
LAYER_1
 10
140.6727460122515
 20
25.5187042135876
 30
0.0
 42
0.4142135623730951
  0
SEQEND
  5
C0B
  8
LAYER_1
  0
POLYLINE
  5
9F
  8
LAYER_1
 66
     1
 10
0.0
 20
0.0
 30
0.0
 70
     1
  0
VERTEX
  5
87E
  8
LAYER_1
 10
132.5482460122515
 20
25.64420421358759
 30
0.0
 42
0.4142135623730951
  0
VERTEX
  5
87F
  8
LAYER_1
 10
132.4227460122515
 20
25.76970421358761
 30
0.0
 42
0.4142135623730951
  0
VERTEX
  5
880
  8
LAYER_1
 10
132.2972460122515
 20
25.64420421358759
 30
0.0
 42
0.4142135623730951
  0
VERTEX
  5
881
  8
LAYER_1
 10
132.4227460122515
 20
25.5187042135876
 30
0.0
 42
0.4142135623730951
  0
SEQEND
  5
C0C
  8
LAYER_1
  0
POLYLINE
  5
A0
  8
LAYER_1
 66
     1
 10
0.0
 20
0.0
 30
0.0
 70
     1
  0
VERTEX
  5
882
  8
LAYER_1
 10
132.5482460122515
 20
34.0192042135876
 30
0.0
 42
0.4142135623730951
  0
VERTEX
  5
883
  8
LAYER_1
 10
132.4227460122515
 20
34.1447042135876
 30
0.0
 42
0.4142135623730951
  0
VERTEX
  5
884
  8
LAYER_1
 10
132.2972460122515
 20
34.0192042135876
 30
0.0
 42
0.4142135623730951
  0
VERTEX
  5
885
  8
LAYER_1
 10
132.4227460122515
 20
33.8937042135876
 30
0.0
 42
0.4142135623730951
  0
SEQEND
  5
C0D
  8
LAYER_1
  0
POLYLINE
  5
A1
  8
LAYER_1
 66
     1
 10
0.0
 20
0.0
 30
0.0
 70
     1
  0
VERTEX
  5
886
  8
LAYER_1
 10
132.5482460122515
 20
42.3942042135876
 30
0.0
 42
0.4142135623730951
  0
VERTEX
  5
887
  8
LAYER_1
 10
132.4227460122515
 20
42.51970421358759
 30
0.0
 42
0.4142135623730951
  0
VERTEX
  5
888
  8
LAYER_1
 10
132.2972460122515
 20
42.3942042135876
 30
0.0
 42
0.4142135623730951
  0
VERTEX
  5
889
  8
LAYER_1
 10
132.4227460122515
 20
42.2687042135876
 30
0.0
 42
0.4142135623730951
  0
SEQEND
  5
C0E
  8
LAYER_1
  0
POLYLINE
  5
A2
  8
LAYER_1
 66
     1
 10
0.0
 20
0.0
 30
0.0
 70
     1
  0
VERTEX
  5
88A
  8
LAYER_1
 10
150.7040460122515
 20
43.8942042135876
 30
0.0
 42
0.4142135623730951
  0
VERTEX
  5
88B
  8
LAYER_1
 10
149.7665460122515
 20
44.8317042135876
 30
0.0
 42
0.4142135623730951
  0
VERTEX
  5
88C
  8
LAYER_1
 10
148.8290460122515
 20
43.8942042135876
 30
0.0
 42
0.4142135623730951
  0
VERTEX
  5
88D
  8
LAYER_1
 10
149.7665460122515
 20
42.9567042135876
 30
0.0
 42
0.4142135623730951
  0
SEQEND
  5
C0F
  8
LAYER_1
  0
POLYLINE
  5
A3
  8
LAYER_1
 66
     1
 10
0.0
 20
0.0
 30
0.0
 70
     1
  0
VERTEX
  5
88E
  8
LAYER_1
 10
141.1415460122515
 20
37.8942042135876
 30
0.0
 42
0.4142135623730951
  0
VERTEX
  5
88F
  8
LAYER_1
 10
136.6415460122515
 20
42.3942042135876
 30
0.0
 42
0.4142135623730951
  0
VERTEX
  5
890
  8
LAYER_1
 10
132.1415460122515
 20
37.8942042135876
 30
0.0
 42
0.4142135623730951
  0
VERTEX
  5
891
  8
LAYER_1
 10
136.6415460122515
 20
33.3942042135876
 30
0.0
 42
0.4142135623730951
  0
SEQEND
  5
C10
  8
LAYER_1
  0
POLYLINE
  5
A4
  8
LAYER_1
 66
     1
 10
0.0
 20
0.0
 30
0.0
 70
     1
  0
VERTEX
  5
892
  8
LAYER_1
 10
140.2665460122515
 20
37.8942042135876
 30
0.0
 42
0.4142135623730951
  0
VERTEX
  5
893
  8
LAYER_1
 10
136.6415460122515
 20
41.5192042135876
 30
0.0
 42
0.4142135623730951
  0
VERTEX
  5
894
  8
LAYER_1
 10
133.0165460122515
 20
37.8942042135876
 30
0.0
 42
0.4142135623730951
  0
VERTEX
  5
895
  8
LAYER_1
 10
136.6415460122515
 20
34.2692042135876
 30
0.0
 42
0.4142135623730951
  0
SEQEND
  5
C11
  8
LAYER_1
  0
POLYLINE
  5
A5
  8
LAYER_1
 66
     1
 10
0.0
 20
0.0
 30
0.0
 70
     1
  0
VERTEX
  5
896
  8
LAYER_1
 10
138.9540460122515
 20
28.1442042135876
 30
0.0
 42
0.4142135623730951
  0
VERTEX
  5
897
  8
LAYER_1
 10
136.6415460122515
 20
30.4567042135876
 30
0.0
 42
0.4142135623730951
  0
VERTEX
  5
898
  8
LAYER_1
 10
134.3290460122515
 20
28.1442042135876
 30
0.0
 42
0.4142135623730951
  0
VERTEX
  5
899
  8
LAYER_1
 10
136.6415460122515
 20
25.83170421358759
 30
0.0
 42
0.4142135623730951
  0
SEQEND
  5
C12
  8
LAYER_1
  0
POLYLINE
  5
A6
  8
LAYER_1
 66
     1
 10
0.0
 20
0.0
 30
0.0
 70
     1
  0
VERTEX
  5
89A
  8
LAYER_1
 10
131.2670460122515
 20
44.3942042135876
 30
0.0
 42
0.4142135623730951
  0
VERTEX
  5
89B
  8
LAYER_1
 10
131.1415460122515
 20
44.51970421358759
 30
0.0
 42
0.4142135623730951
  0
VERTEX
  5
89C
  8
LAYER_1
 10
131.0160460122515
 20
44.3942042135876
 30
0.0
 42
0.4142135623730951
  0
VERTEX
  5
89D
  8
LAYER_1
 10
131.1415460122515
 20
44.2687042135876
 30
0.0
 42
0.4142135623730951
  0
SEQEND
  5
C13
  8
LAYER_1
  0
POLYLINE
  5
A7
  8
LAYER_1
 66
     1
 10
0.0
 20
0.0
 30
0.0
 70
     1
  0
VERTEX
  5
89E
  8
LAYER_1
 10
131.2670460122515
 20
34.0192042135876
 30
0.0
 42
0.4142135623730951
  0
VERTEX
  5
89F
  8
LAYER_1
 10
131.1415460122515
 20
34.1447042135876
 30
0.0
 42
0.4142135623730951
  0
VERTEX
  5
8A0
  8
LAYER_1
 10
131.0160460122515
 20
34.0192042135876
 30
0.0
 42
0.4142135623730951
  0
VERTEX
  5
8A1
  8
LAYER_1
 10
131.1415460122515
 20
33.8937042135876
 30
0.0
 42
0.4142135623730951
  0
SEQEND
  5
C14
  8
LAYER_1
  0
POLYLINE
  5
A8
  8
LAYER_1
 66
     1
 10
0.0
 20
0.0
 30
0.0
 70
     1
  0
VERTEX
  5
8A2
  8
LAYER_1
 10
131.2670460122515
 20
23.6042042135876
 30
0.0
 42
0.4142135623730951
  0
VERTEX
  5
8A3
  8
LAYER_1
 10
131.1415460122515
 20
23.72970421358759
 30
0.0
 42
0.4142135623730951
  0
VERTEX
  5
8A4
  8
LAYER_1
 10
131.0160460122515
 20
23.6042042135876
 30
0.0
 42
0.4142135623730951
  0
VERTEX
  5
8A5
  8
LAYER_1
 10
131.1415460122515
 20
23.47870421358761
 30
0.0
 42
0.4142135623730951
  0
SEQEND
  5
C15
  8
LAYER_1
  0
POLYLINE
  5
A9
  8
LAYER_1
 66
     1
 10
0.0
 20
0.0
 30
0.0
 70
     1
  0
VERTEX
  5
8A6
  8
LAYER_1
 10
101.5365262368807
 20
37.28504847246629
 30
0.0
  0
VERTEX
  5
8A7
  8
LAYER_1
 10
125.3490262368807
 20
37.28504847246629
 30
0.0
  0
VERTEX
  5
8A8
  8
LAYER_1
 10
125.3490262368807
 20
49.28504847246629
 30
0.0
  0
VERTEX
  5
8A9
  8
LAYER_1
 10
101.5365262368807
 20
49.28504847246629
 30
0.0
  0
SEQEND
  5
C16
  8
LAYER_1
  0
POLYLINE
  5
AA
  8
LAYER_1
 66
     1
 10
0.0
 20
0.0
 30
0.0
 70
     1
  0
VERTEX
  5
8AA
  8
LAYER_1
 10
105.3490262368807
 20
42.09754847246629
 30
0.0
 42
0.4142135623730951
  0
VERTEX
  5
8AB
  8
LAYER_1
 10
104.5365262368807
 20
41.28504847246629
 30
0.0
 42
0.4142135623730951
  0
VERTEX
  5
8AC
  8
LAYER_1
 10
105.3490262368807
 20
40.47254847246629
 30
0.0
 42
0.4142135623730951
  0
VERTEX
  5
8AD
  8
LAYER_1
 10
106.1615262368807
 20
41.28504847246629
 30
0.0
 42
0.4142135623730951
  0
SEQEND
  5
C17
  8
LAYER_1
  0
POLYLINE
  5
AB
  8
LAYER_1
 66
     1
 10
0.0
 20
0.0
 30
0.0
 70
     1
  0
VERTEX
  5
8AE
  8
LAYER_1
 10
105.3490262368807
 20
46.09754847246629
 30
0.0
 42
0.4142135623730951
  0
VERTEX
  5
8AF
  8
LAYER_1
 10
104.9115262368807
 20
45.66004847246629
 30
0.0
 42
0.4142135623730951
  0
VERTEX
  5
8B0
  8
LAYER_1
 10
105.3490262368807
 20
45.22254847246629
 30
0.0
 42
0.4142135623730951
  0
VERTEX
  5
8B1
  8
LAYER_1
 10
105.7865262368807
 20
45.66004847246629
 30
0.0
 42
0.4142135623730951
  0
SEQEND
  5
C18
  8
LAYER_1
  0
POLYLINE
  5
AC
  8
LAYER_1
 66
     1
 10
0.0
 20
0.0
 30
0.0
 70
     1
  0
VERTEX
  5
8B2
  8
LAYER_1
 10
125.9324354871904
 20
0.9790040185510733
 30
0.0
  0
VERTEX
  5
8B3
  8
LAYER_1
 10
103.1824354871904
 20
0.9790040185510733
 30
0.0
  0
VERTEX
  5
8B4
  8
LAYER_1
 10
103.1824354871904
 20
-1.020995981448927
 30
0.0
  0
VERTEX
  5
8B5
  8
LAYER_1
 10
125.9324354871904
 20
-1.020995981448927
 30
0.0
  0
SEQEND
  5
C19
  8
LAYER_1
  0
POLYLINE
  5
AD
  8
LAYER_1
 66
     1
 10
0.0
 20
0.0
 30
0.0
 70
     1
  0
VERTEX
  5
8B6
  8
LAYER_1
 10
132.0448190330174
 20
14.9336320786723
 30
0.0
  0
VERTEX
  5
8B7
  8
LAYER_1
 10
148.0448190330174
 20
14.9336320786723
 30
0.0
  0
VERTEX
  5
8B8
  8
LAYER_1
 10
148.0448190330174
 20
19.3086320786723
 30
0.0
  0
VERTEX
  5
8B9
  8
LAYER_1
 10
132.0448190330174
 20
19.3086320786723
 30
0.0
  0
SEQEND
  5
C1A
  8
LAYER_1
  0
POLYLINE
  5
AE
  8
LAYER_1
 66
     1
 10
0.0
 20
0.0
 30
0.0
 70
     1
  0
VERTEX
  5
8BA
  8
LAYER_1
 10
152.1701190726956
 20
7.758697992148026
 30
0.0
 42
0.4142135623730951
  0
VERTEX
  5
8BB
  8
LAYER_1
 10
151.5451190726956
 20
7.133697992148026
 30
0.0
 42
0.4142135623730951
  0
VERTEX
  5
8BC
  8
LAYER_1
 10
152.1701190726956
 20
6.508697992148026
 30
0.0
 42
0.4142135623730951
  0
VERTEX
  5
8BD
  8
LAYER_1
 10
152.7951190726956
 20
7.133697992148026
 30
0.0
 42
0.4142135623730951
  0
SEQEND
  5
C1B
  8
LAYER_1
  0
POLYLINE
  5
AF
  8
LAYER_1
 66
     1
 10
0.0
 20
0.0
 30
0.0
 70
     1
  0
VERTEX
  5
8BE
  8
LAYER_1
 10
152.0320803878886
 20
5.633697992148026
 30
0.0
  0
VERTEX
  5
8BF
  8
LAYER_1
 10
154.2013190726956
 20
5.633697992148026
 30
0.0
  0
VERTEX
  5
8C0
  8
LAYER_1
 10
154.2013190726956
 20
13.38369799214803
 30
0.0
  0
VERTEX
  5
8C1
  8
LAYER_1
 10
132.0451190726956
 20
13.38369799214803
 30
0.0
  0
VERTEX
  5
8C2
  8
LAYER_1
 10
132.0451190726956
 20
5.633697992148026
 30
0.0
  0
VERTEX
  5
8C3
  8
LAYER_1
 10
134.3095940336057
 20
5.633697992148026
 30
0.0
  0
VERTEX
  5
8C4
  8
LAYER_1
 10
134.3109939621959
 20
5.633689501394308
 30
0.0
 42
-0.3420036105595055
  0
VERTEX
  5
8C5
  8
LAYER_1
 10
134.7951190726956
 20
6.008697992148026
 30
0.0
 42
-0.3419962187249509
  0
VERTEX
  5
8C6
  8
LAYER_1
 10
135.2792408743546
 20
5.633702316706817
 30
0.0
  0
VERTEX
  5
8C7
  8
LAYER_1
 10
135.2836819229481
 20
5.633697992148026
 30
0.0
  0
VERTEX
  5
8C8
  8
LAYER_1
 10
142.6853026133587
 20
5.633697992148026
 30
0.0
  0
VERTEX
  5
8C9
  8
LAYER_1
 10
142.686182036031
 20
5.634415709850636
 30
0.0
 42
-0.341584708558759
  0
VERTEX
  5
8CA
  8
LAYER_1
 10
143.1701190726956
 20
6.008697992148026
 30
0.0
 42
-0.3422130375834045
  0
VERTEX
  5
8CB
  8
LAYER_1
 10
143.6543377827942
 20
5.633326402995866
 30
0.0
  0
VERTEX
  5
8CC
  8
LAYER_1
 10
143.6574416492961
 20
5.633697992148026
 30
0.0
  0
VERTEX
  5
8CD
  8
LAYER_1
 10
151.0607808436584
 20
5.633697992148026
 30
0.0
  0
VERTEX
  5
8CE
  8
LAYER_1
 10
151.0610013156682
 20
5.633717979873289
 30
0.0
 42
-0.3419871842334638
  0
VERTEX
  5
8CF
  8
LAYER_1
 10
151.5451190726956
 20
6.008697992148026
 30
0.0
 42
-0.3420019679312833
  0
VERTEX
  5
8D0
  8
LAYER_1
 10
152.0292434479287
 20
5.633692349241105
 30
0.0
  0
SEQEND
  5
C1C
  8
LAYER_1
  0
POLYLINE
  5
B0
  8
LAYER_1
 66
     1
 10
0.0
 20
0.0
 30
0.0
  0
VERTEX
  5
8D1
  8
LAYER_1
 10
138.5255882109093
 20
17.23010644219524
 30
0.0
  0
VERTEX
  5
8D2
  8
LAYER_1
 10
138.5255882109093
 20
16.98651669405692
 30
0.0
  0
SEQEND
  5
C1D
  8
LAYER_1
  0
POLYLINE
  5
B1
  8
LAYER_1
 66
     1
 10
0.0
 20
0.0
 30
0.0
  0
VERTEX
  5
8D3
  8
LAYER_1
 10
138.5384087214555
 20
17.23010644219524
 30
0.0
  0
VERTEX
  5
8D4
  8
LAYER_1
 10
138.5384087214555
 20
16.99933720699114
 30
0.0
  0
SEQEND
  5
C1E
  8
LAYER_1
  0
POLYLINE
  5
B2
  8
LAYER_1
 66
     1
 10
0.0
 20
0.0
 30
0.0
  0
VERTEX
  5
8D5
  8
LAYER_1
 10
138.5512292320018
 20
17.25574746328769
 30
0.0
  0
VERTEX
  5
8D6
  8
LAYER_1
 10
138.5512292320018
 20
16.98651669405692
 30
0.0
  0
SEQEND
  5
C1F
  8
LAYER_1
  0
POLYLINE
  5
B3
  8
LAYER_1
 66
     1
 10
0.0
 20
0.0
 30
0.0
  0
VERTEX
  5
8D7
  8
LAYER_1
 10
138.5512292320018
 20
17.25574746328769
 30
0.0
  0
VERTEX
  5
8D8
  8
LAYER_1
 10
138.512767690811
 20
17.21728594120105
 30
0.0
  0
VERTEX
  5
8D9
  8
LAYER_1
 10
138.4871266649426
 20
17.2044654211028
 30
0.0
  0
SEQEND
  5
C20
  8
LAYER_1
  0
POLYLINE
  5
B4
  8
LAYER_1
 66
     1
 10
0.0
 20
0.0
 30
0.0
  0
VERTEX
  5
8DA
  8
LAYER_1
 10
138.4743061543964
 20
16.98651669405692
 30
0.0
  0
VERTEX
  5
8DB
  8
LAYER_1
 10
138.6025112932907
 20
16.98651669405692
 30
0.0
  0
SEQEND
  5
C21
  8
LAYER_1
  0
POLYLINE
  5
B5
  8
LAYER_1
 66
     1
 10
0.0
 20
0.0
 30
0.0
  0
VERTEX
  5
8DC
  8
LAYER_1
 10
138.5255882109093
 20
16.99933720699114
 30
0.0
  0
VERTEX
  5
8DD
  8
LAYER_1
 10
138.4999471802648
 20
16.98651669405692
 30
0.0
  0
SEQEND
  5
C22
  8
LAYER_1
  0
POLYLINE
  5
B6
  8
LAYER_1
 66
     1
 10
0.0
 20
0.0
 30
0.0
  0
VERTEX
  5
8DE
  8
LAYER_1
 10
138.5255882109093
 20
17.01215771992537
 30
0.0
  0
VERTEX
  5
8DF
  8
LAYER_1
 10
138.512767690811
 20
16.98651669405692
 30
0.0
  0
SEQEND
  5
C23
  8
LAYER_1
  0
POLYLINE
  5
B7
  8
LAYER_1
 66
     1
 10
0.0
 20
0.0
 30
0.0
  0
VERTEX
  5
8E0
  8
LAYER_1
 10
138.5512292320018
 20
17.01215771992537
 30
0.0
  0
VERTEX
  5
8E1
  8
LAYER_1
 10
138.564049742548
 20
16.98651669405692
 30
0.0
  0
SEQEND
  5
C24
  8
LAYER_1
  0
POLYLINE
  5
B8
  8
LAYER_1
 66
     1
 10
0.0
 20
0.0
 30
0.0
  0
VERTEX
  5
8E2
  8
LAYER_1
 10
138.5512292320018
 20
16.99933720699114
 30
0.0
  0
VERTEX
  5
8E3
  8
LAYER_1
 10
138.5768702530942
 20
16.98651669405692
 30
0.0
  0
SEQEND
  5
C25
  8
LAYER_1
  0
POLYLINE
  5
B9
  8
LAYER_1
 66
     1
 10
0.0
 20
0.0
 30
0.0
  0
VERTEX
  5
8E4
  8
LAYER_1
 10
138.9230241238104
 20
17.30702952457662
 30
0.0
  0
VERTEX
  5
8E5
  8
LAYER_1
 10
138.6922548814423
 20
16.89677310112932
 30
0.0
  0
VERTEX
  5
8E6
  8
LAYER_1
 10
138.7050753943765
 20
16.89677310112932
 30
0.0
  0
SEQEND
  5
C26
  8
LAYER_1
  0
POLYLINE
  5
BA
  8
LAYER_1
 66
     1
 10
0.0
 20
0.0
 30
0.0
  0
VERTEX
  5
8E7
  8
LAYER_1
 10
138.9230241238104
 20
17.30702952457662
 30
0.0
  0
VERTEX
  5
8E8
  8
LAYER_1
 10
138.9358446248046
 20
17.30702952457662
 30
0.0
  0
VERTEX
  5
8E9
  8
LAYER_1
 10
138.7050753943765
 20
16.89677310112932
 30
0.0
  0
SEQEND
  5
C27
  8
LAYER_1
  0
POLYLINE
  5
BB
  8
LAYER_1
 66
     1
 10
0.0
 20
0.0
 30
0.0
 70
     1
  0
VERTEX
  5
8EA
  8
LAYER_1
 10
139.012767716738
 20
17.2044654211028
 30
0.0
  0
VERTEX
  5
8EB
  8
LAYER_1
 10
139.012767716738
 20
17.19164490100455
 30
0.0
  0
VERTEX
  5
8EC
  8
LAYER_1
 10
139.0255882320602
 20
17.19164490100455
 30
0.0
  0
VERTEX
  5
8ED
  8
LAYER_1
 10
139.0255882320602
 20
17.2044654211028
 30
0.0
  0
SEQEND
  5
C28
  8
LAYER_1
  0
POLYLINE
  5
BC
  8
LAYER_1
 66
     1
 10
0.0
 20
0.0
 30
0.0
  0
VERTEX
  5
8EE
  8
LAYER_1
 10
139.012767716738
 20
17.21728594120105
 30
0.0
  0
VERTEX
  5
8EF
  8
LAYER_1
 10
139.0255882320602
 20
17.21728594120105
 30
0.0
  0
VERTEX
  5
8F0
  8
LAYER_1
 10
139.0384087426065
 20
17.2044654211028
 30
0.0
  0
VERTEX
  5
8F1
  8
LAYER_1
 10
139.0384087426065
 20
17.19164490100455
 30
0.0
  0
VERTEX
  5
8F2
  8
LAYER_1
 10
139.0255882320602
 20
17.17882440001036
 30
0.0
  0
VERTEX
  5
8F3
  8
LAYER_1
 10
139.012767716738
 20
17.17882440001036
 30
0.0
  0
VERTEX
  5
8F4
  8
LAYER_1
 10
138.9999472038038
 20
17.19164490100455
 30
0.0
  0
VERTEX
  5
8F5
  8
LAYER_1
 10
138.9999472038038
 20
17.2044654211028
 30
0.0
  0
VERTEX
  5
8F6
  8
LAYER_1
 10
139.012767716738
 20
17.23010644219524
 30
0.0
  0
VERTEX
  5
8F7
  8
LAYER_1
 10
139.0255882320602
 20
17.24292696229349
 30
0.0
  0
VERTEX
  5
8F8
  8
LAYER_1
 10
139.0640497684749
 20
17.25574746328769
 30
0.0
  0
VERTEX
  5
8F9
  8
LAYER_1
 10
139.1153318202118
 20
17.25574746328769
 30
0.0
  0
VERTEX
  5
8FA
  8
LAYER_1
 10
139.1537933709546
 20
17.24292696229349
 30
0.0
  0
VERTEX
  5
8FB
  8
LAYER_1
 10
139.1666138719487
 20
17.23010644219524
 30
0.0
  0
VERTEX
  5
8FC
  8
LAYER_1
 10
139.179434392047
 20
17.2044654211028
 30
0.0
  0
VERTEX
  5
8FD
  8
LAYER_1
 10
139.179434392047
 20
17.17882440001036
 30
0.0
  0
VERTEX
  5
8FE
  8
LAYER_1
 10
139.1666138719487
 20
17.15318335981387
 30
0.0
  0
VERTEX
  5
8FF
  8
LAYER_1
 10
139.128152330758
 20
17.12754233872143
 30
0.0
  0
VERTEX
  5
900
  8
LAYER_1
 10
139.0640497684749
 20
17.10190131762898
 30
0.0
  0
VERTEX
  5
901
  8
LAYER_1
 10
139.0384087426065
 20
17.08908079753074
 30
0.0
  0
VERTEX
  5
902
  8
LAYER_1
 10
139.012767716738
 20
17.06343977166228
 30
0.0
  0
VERTEX
  5
903
  8
LAYER_1
 10
138.9999472038038
 20
17.0249782328596
 30
0.0
  0
VERTEX
  5
904
  8
LAYER_1
 10
138.9999472038038
 20
16.98651669405692
 30
0.0
  0
SEQEND
  5
C29
  8
LAYER_1
  0
POLYLINE
  5
BD
  8
LAYER_1
 66
     1
 10
0.0
 20
0.0
 30
0.0
  0
VERTEX
  5
905
  8
LAYER_1
 10
139.1537933709546
 20
17.23010644219524
 30
0.0
  0
VERTEX
  5
906
  8
LAYER_1
 10
139.1666138719487
 20
17.2044654211028
 30
0.0
  0
VERTEX
  5
907
  8
LAYER_1
 10
139.1666138719487
 20
17.17882440001036
 30
0.0
  0
VERTEX
  5
908
  8
LAYER_1
 10
139.1537933709546
 20
17.15318335981387
 30
0.0
  0
SEQEND
  5
C2A
  8
LAYER_1
  0
POLYLINE
  5
BE
  8
LAYER_1
 66
     1
 10
0.0
 20
0.0
 30
0.0
  0
VERTEX
  5
909
  8
LAYER_1
 10
139.1153318202118
 20
17.25574746328769
 30
0.0
  0
VERTEX
  5
90A
  8
LAYER_1
 10
139.1409728508563
 20
17.24292696229349
 30
0.0
  0
VERTEX
  5
90B
  8
LAYER_1
 10
139.1537933709546
 20
17.2044654211028
 30
0.0
  0
VERTEX
  5
90C
  8
LAYER_1
 10
139.1537933709546
 20
17.17882440001036
 30
0.0
  0
VERTEX
  5
90D
  8
LAYER_1
 10
139.1409728508563
 20
17.15318335981387
 30
0.0
  0
VERTEX
  5
90E
  8
LAYER_1
 10
139.1153318202118
 20
17.12754233872143
 30
0.0
  0
VERTEX
  5
90F
  8
LAYER_1
 10
139.0640497684749
 20
17.10190131762898
 30
0.0
  0
SEQEND
  5
C2B
  8
LAYER_1
  0
POLYLINE
  5
BF
  8
LAYER_1
 66
     1
 10
0.0
 20
0.0
 30
0.0
  0
VERTEX
  5
910
  8
LAYER_1
 10
138.9999472038038
 20
17.01215771992537
 30
0.0
  0
VERTEX
  5
911
  8
LAYER_1
 10
139.012767716738
 20
17.0249782328596
 30
0.0
  0
VERTEX
  5
912
  8
LAYER_1
 10
139.0384087426065
 20
17.0249782328596
 30
0.0
  0
VERTEX
  5
913
  8
LAYER_1
 10
139.1025113096656
 20
17.01215771992537
 30
0.0
  0
VERTEX
  5
914
  8
LAYER_1
 10
139.1537933709546
 20
17.01215771992537
 30
0.0
  0
VERTEX
  5
915
  8
LAYER_1
 10
139.179434392047
 20
17.0249782328596
 30
0.0
  0
SEQEND
  5
C2C
  8
LAYER_1
  0
POLYLINE
  5
C0
  8
LAYER_1
 66
     1
 10
0.0
 20
0.0
 30
0.0
  0
VERTEX
  5
916
  8
LAYER_1
 10
139.0384087426065
 20
17.0249782328596
 30
0.0
  0
VERTEX
  5
917
  8
LAYER_1
 10
139.1025113096656
 20
16.99933720699114
 30
0.0
  0
VERTEX
  5
918
  8
LAYER_1
 10
139.1537933709546
 20
16.99933720699114
 30
0.0
  0
VERTEX
  5
919
  8
LAYER_1
 10
139.1666138719487
 20
17.01215771992537
 30
0.0
  0
SEQEND
  5
C2D
  8
LAYER_1
  0
POLYLINE
  5
C1
  8
LAYER_1
 66
     1
 10
0.0
 20
0.0
 30
0.0
  0
VERTEX
  5
91A
  8
LAYER_1
 10
139.0384087426065
 20
17.0249782328596
 30
0.0
  0
VERTEX
  5
91B
  8
LAYER_1
 10
139.1025113096656
 20
16.98651669405692
 30
0.0
  0
VERTEX
  5
91C
  8
LAYER_1
 10
139.1537933709546
 20
16.98651669405692
 30
0.0
  0
VERTEX
  5
91D
  8
LAYER_1
 10
139.1666138719487
 20
16.99933720699114
 30
0.0
  0
VERTEX
  5
91E
  8
LAYER_1
 10
139.179434392047
 20
17.0249782328596
 30
0.0
  0
VERTEX
  5
91F
  8
LAYER_1
 10
139.179434392047
 20
17.05061926111606
 30
0.0
  0
SEQEND
  5
C2E
  8
LAYER_1
  0
POLYLINE
  5
C2
  8
LAYER_1
 66
     1
 10
0.0
 20
0.0
 30
0.0
  0
VERTEX
  5
920
  8
LAYER_1
 10
139.2819985002968
 20
17.25574746328769
 30
0.0
  0
VERTEX
  5
921
  8
LAYER_1
 10
139.2691779849746
 20
17.24292696229349
 30
0.0
  0
VERTEX
  5
922
  8
LAYER_1
 10
139.2691779849746
 20
17.16600387991211
 30
0.0
  0
SEQEND
  5
C2F
  8
LAYER_1
  0
POLYLINE
  5
C3
  8
LAYER_1
 66
     1
 10
0.0
 20
0.0
 30
0.0
  0
VERTEX
  5
923
  8
LAYER_1
 10
139.2819985002968
 20
17.24292696229349
 30
0.0
  0
VERTEX
  5
924
  8
LAYER_1
 10
139.2691779849746
 20
17.16600387991211
 30
0.0
  0
SEQEND
  5
C30
  8
LAYER_1
  0
POLYLINE
  5
C4
  8
LAYER_1
 66
     1
 10
0.0
 20
0.0
 30
0.0
  0
VERTEX
  5
925
  8
LAYER_1
 10
139.2819985002968
 20
17.25574746328769
 30
0.0
  0
VERTEX
  5
926
  8
LAYER_1
 10
139.294819010843
 20
17.24292696229349
 30
0.0
  0
VERTEX
  5
927
  8
LAYER_1
 10
139.2691779849746
 20
17.16600387991211
 30
0.0
  0
SEQEND
  5
C31
  8
LAYER_1
  0
POLYLINE
  5
C5
  8
LAYER_1
 66
     1
 10
0.0
 20
0.0
 30
0.0
  0
VERTEX
  5
928
  8
LAYER_1
 10
139.3973831190929
 20
17.25574746328769
 30
0.0
  0
VERTEX
  5
929
  8
LAYER_1
 10
139.3845625989946
 20
17.24292696229349
 30
0.0
  0
VERTEX
  5
92A
  8
LAYER_1
 10
139.3845625989946
 20
17.16600387991211
 30
0.0
  0
SEQEND
  5
C32
  8
LAYER_1
  0
POLYLINE
  5
C6
  8
LAYER_1
 66
     1
 10
0.0
 20
0.0
 30
0.0
  0
VERTEX
  5
92B
  8
LAYER_1
 10
139.3973831190929
 20
17.24292696229349
 30
0.0
  0
VERTEX
  5
92C
  8
LAYER_1
 10
139.3845625989946
 20
17.16600387991211
 30
0.0
  0
SEQEND
  5
C33
  8
LAYER_1
  0
POLYLINE
  5
C7
  8
LAYER_1
 66
     1
 10
0.0
 20
0.0
 30
0.0
  0
VERTEX
  5
92D
  8
LAYER_1
 10
139.3973831190929
 20
17.25574746328769
 30
0.0
  0
VERTEX
  5
92E
  8
LAYER_1
 10
139.4102036391911
 20
17.24292696229349
 30
0.0
  0
VERTEX
  5
92F
  8
LAYER_1
 10
139.3845625989946
 20
17.16600387991211
 30
0.0
  0
SEQEND
  5
C34
  8
LAYER_1
  0
POLYLINE
  5
C8
  8
LAYER_1
 66
     1
 10
0.0
 20
0.0
 30
0.0
  0
VERTEX
  5
930
  8
LAYER_1
 10
139.7691780156775
 20
17.25574746328769
 30
0.0
  0
VERTEX
  5
931
  8
LAYER_1
 10
139.7691780156775
 20
16.98651669405692
 30
0.0
  0
SEQEND
  5
C35
  8
LAYER_1
  0
POLYLINE
  5
C9
  8
LAYER_1
 66
     1
 10
0.0
 20
0.0
 30
0.0
  0
VERTEX
  5
932
  8
LAYER_1
 10
139.7819985262237
 20
17.24292696229349
 30
0.0
  0
VERTEX
  5
933
  8
LAYER_1
 10
139.7819985262237
 20
16.99933720699114
 30
0.0
  0
SEQEND
  5
C36
  8
LAYER_1
  0
POLYLINE
  5
CA
  8
LAYER_1
 66
     1
 10
0.0
 20
0.0
 30
0.0
  0
VERTEX
  5
934
  8
LAYER_1
 10
139.794819041546
 20
17.25574746328769
 30
0.0
  0
VERTEX
  5
935
  8
LAYER_1
 10
139.794819041546
 20
16.98651669405692
 30
0.0
  0
SEQEND
  5
C37
  8
LAYER_1
  0
POLYLINE
  5
CB
  8
LAYER_1
 66
     1
 10
0.0
 20
0.0
 30
0.0
  0
VERTEX
  5
936
  8
LAYER_1
 10
139.7307164744868
 20
17.25574746328769
 30
0.0
  0
VERTEX
  5
937
  8
LAYER_1
 10
139.8845626344736
 20
17.25574746328769
 30
0.0
  0
VERTEX
  5
938
  8
LAYER_1
 10
139.9230241756642
 20
17.24292696229349
 30
0.0
  0
VERTEX
  5
939
  8
LAYER_1
 10
139.9358446957625
 20
17.23010644219524
 30
0.0
  0
VERTEX
  5
93A
  8
LAYER_1
 10
139.9486651967567
 20
17.2044654211028
 30
0.0
  0
VERTEX
  5
93B
  8
LAYER_1
 10
139.9486651967567
 20
17.16600387991211
 30
0.0
  0
VERTEX
  5
93C
  8
LAYER_1
 10
139.9358446957625
 20
17.14036284926765
 30
0.0
  0
VERTEX
  5
93D
  8
LAYER_1
 10
139.9230241756642
 20
17.12754233872143
 30
0.0
  0
VERTEX
  5
93E
  8
LAYER_1
 10
139.8845626344736
 20
17.11472182817521
 30
0.0
  0
VERTEX
  5
93F
  8
LAYER_1
 10
139.794819041546
 20
17.11472182817521
 30
0.0
  0
SEQEND
  5
C38
  8
LAYER_1
  0
POLYLINE
  5
CC
  8
LAYER_1
 66
     1
 10
0.0
 20
0.0
 30
0.0
  0
VERTEX
  5
940
  8
LAYER_1
 10
139.9230241756642
 20
17.23010644219524
 30
0.0
  0
VERTEX
  5
941
  8
LAYER_1
 10
139.9358446957625
 20
17.2044654211028
 30
0.0
  0
VERTEX
  5
942
  8
LAYER_1
 10
139.9358446957625
 20
17.16600387991211
 30
0.0
  0
VERTEX
  5
943
  8
LAYER_1
 10
139.9230241756642
 20
17.14036284926765
 30
0.0
  0
SEQEND
  5
C39
  8
LAYER_1
  0
POLYLINE
  5
CD
  8
LAYER_1
 66
     1
 10
0.0
 20
0.0
 30
0.0
  0
VERTEX
  5
944
  8
LAYER_1
 10
139.8845626344736
 20
17.25574746328769
 30
0.0
  0
VERTEX
  5
945
  8
LAYER_1
 10
139.910203655566
 20
17.24292696229349
 30
0.0
  0
VERTEX
  5
946
  8
LAYER_1
 10
139.9230241756642
 20
17.21728594120105
 30
0.0
  0
VERTEX
  5
947
  8
LAYER_1
 10
139.9230241756642
 20
17.15318335981387
 30
0.0
  0
VERTEX
  5
948
  8
LAYER_1
 10
139.910203655566
 20
17.12754233872143
 30
0.0
  0
VERTEX
  5
949
  8
LAYER_1
 10
139.8845626344736
 20
17.11472182817521
 30
0.0
  0
SEQEND
  5
C3A
  8
LAYER_1
  0
POLYLINE
  5
CE
  8
LAYER_1
 66
     1
 10
0.0
 20
0.0
 30
0.0
  0
VERTEX
  5
94A
  8
LAYER_1
 10
139.7307164744868
 20
16.98651669405692
 30
0.0
  0
VERTEX
  5
94B
  8
LAYER_1
 10
139.8332805827366
 20
16.98651669405692
 30
0.0
  0
SEQEND
  5
C3B
  8
LAYER_1
  0
POLYLINE
  5
CF
  8
LAYER_1
 66
     1
 10
0.0
 20
0.0
 30
0.0
  0
VERTEX
  5
94C
  8
LAYER_1
 10
139.743536987421
 20
17.25574746328769
 30
0.0
  0
VERTEX
  5
94D
  8
LAYER_1
 10
139.7691780156775
 20
17.24292696229349
 30
0.0
  0
SEQEND
  5
C3C
  8
LAYER_1
  0
POLYLINE
  5
D0
  8
LAYER_1
 66
     1
 10
0.0
 20
0.0
 30
0.0
  0
VERTEX
  5
94E
  8
LAYER_1
 10
139.7563575003553
 20
17.25574746328769
 30
0.0
  0
VERTEX
  5
94F
  8
LAYER_1
 10
139.7691780156775
 20
17.23010644219524
 30
0.0
  0
SEQEND
  5
C3D
  8
LAYER_1
  0
POLYLINE
  5
D1
  8
LAYER_1
 66
     1
 10
0.0
 20
0.0
 30
0.0
  0
VERTEX
  5
950
  8
LAYER_1
 10
139.8076395520922
 20
17.25574746328769
 30
0.0
  0
VERTEX
  5
951
  8
LAYER_1
 10
139.794819041546
 20
17.23010644219524
 30
0.0
  0
SEQEND
  5
C3E
  8
LAYER_1
  0
POLYLINE
  5
D2
  8
LAYER_1
 66
     1
 10
0.0
 20
0.0
 30
0.0
  0
VERTEX
  5
952
  8
LAYER_1
 10
139.8204600721904
 20
17.25574746328769
 30
0.0
  0
VERTEX
  5
953
  8
LAYER_1
 10
139.794819041546
 20
17.24292696229349
 30
0.0
  0
SEQEND
  5
C3F
  8
LAYER_1
  0
POLYLINE
  5
D3
  8
LAYER_1
 66
     1
 10
0.0
 20
0.0
 30
0.0
  0
VERTEX
  5
954
  8
LAYER_1
 10
139.7691780156775
 20
16.99933720699114
 30
0.0
  0
VERTEX
  5
955
  8
LAYER_1
 10
139.743536987421
 20
16.98651669405692
 30
0.0
  0
SEQEND
  5
C40
  8
LAYER_1
  0
POLYLINE
  5
D4
  8
LAYER_1
 66
     1
 10
0.0
 20
0.0
 30
0.0
  0
VERTEX
  5
956
  8
LAYER_1
 10
139.7691780156775
 20
17.01215771992537
 30
0.0
  0
VERTEX
  5
957
  8
LAYER_1
 10
139.7563575003553
 20
16.98651669405692
 30
0.0
  0
SEQEND
  5
C41
  8
LAYER_1
  0
POLYLINE
  5
D5
  8
LAYER_1
 66
     1
 10
0.0
 20
0.0
 30
0.0
  0
VERTEX
  5
958
  8
LAYER_1
 10
139.794819041546
 20
17.01215771992537
 30
0.0
  0
VERTEX
  5
959
  8
LAYER_1
 10
139.8076395520922
 20
16.98651669405692
 30
0.0
  0
SEQEND
  5
C42
  8
LAYER_1
  0
POLYLINE
  5
D6
  8
LAYER_1
 66
     1
 10
0.0
 20
0.0
 30
0.0
  0
VERTEX
  5
95A
  8
LAYER_1
 10
139.794819041546
 20
16.99933720699114
 30
0.0
  0
VERTEX
  5
95B
  8
LAYER_1
 10
139.8204600721904
 20
16.98651669405692
 30
0.0
  0
SEQEND
  5
C43
  8
LAYER_1
  0
POLYLINE
  5
D7
  8
LAYER_1
 66
     1
 10
0.0
 20
0.0
 30
0.0
  0
VERTEX
  5
95C
  8
LAYER_1
 10
140.0512293050065
 20
17.25574746328769
 30
0.0
  0
VERTEX
  5
95D
  8
LAYER_1
 10
140.0512293050065
 20
16.98651669405692
 30
0.0
  0
SEQEND
  5
C44
  8
LAYER_1
  0
POLYLINE
  5
D8
  8
LAYER_1
 66
     1
 10
0.0
 20
0.0
 30
0.0
  0
VERTEX
  5
95E
  8
LAYER_1
 10
140.0640498155527
 20
17.24292696229349
 30
0.0
  0
VERTEX
  5
95F
  8
LAYER_1
 10
140.0640498155527
 20
16.99933720699114
 30
0.0
  0
SEQEND
  5
C45
  8
LAYER_1
  0
POLYLINE
  5
D9
  8
LAYER_1
 66
     1
 10
0.0
 20
0.0
 30
0.0
  0
VERTEX
  5
960
  8
LAYER_1
 10
140.076870330875
 20
17.25574746328769
 30
0.0
  0
VERTEX
  5
961
  8
LAYER_1
 10
140.076870330875
 20
16.98651669405692
 30
0.0
  0
SEQEND
  5
C46
  8
LAYER_1
  0
POLYLINE
  5
DA
  8
LAYER_1
 66
     1
 10
0.0
 20
0.0
 30
0.0
  0
VERTEX
  5
962
  8
LAYER_1
 10
140.0127677638158
 20
17.25574746328769
 30
0.0
  0
VERTEX
  5
963
  8
LAYER_1
 10
140.1153318720657
 20
17.25574746328769
 30
0.0
  0
SEQEND
  5
C47
  8
LAYER_1
  0
POLYLINE
  5
DB
  8
LAYER_1
 66
     1
 10
0.0
 20
0.0
 30
0.0
  0
VERTEX
  5
964
  8
LAYER_1
 10
140.0127677638158
 20
16.98651669405692
 30
0.0
  0
VERTEX
  5
965
  8
LAYER_1
 10
140.2050754649933
 20
16.98651669405692
 30
0.0
  0
VERTEX
  5
966
  8
LAYER_1
 10
140.2050754649933
 20
17.06343977166228
 30
0.0
  0
SEQEND
  5
C48
  8
LAYER_1
  0
POLYLINE
  5
DC
  8
LAYER_1
 66
     1
 10
0.0
 20
0.0
 30
0.0
  0
VERTEX
  5
967
  8
LAYER_1
 10
140.0255882767501
 20
17.25574746328769
 30
0.0
  0
VERTEX
  5
968
  8
LAYER_1
 10
140.0512293050065
 20
17.24292696229349
 30
0.0
  0
SEQEND
  5
C49
  8
LAYER_1
  0
POLYLINE
  5
DD
  8
LAYER_1
 66
     1
 10
0.0
 20
0.0
 30
0.0
  0
VERTEX
  5
969
  8
LAYER_1
 10
140.0384087896843
 20
17.25574746328769
 30
0.0
  0
VERTEX
  5
96A
  8
LAYER_1
 10
140.0512293050065
 20
17.23010644219524
 30
0.0
  0
SEQEND
  5
C4A
  8
LAYER_1
  0
POLYLINE
  5
DE
  8
LAYER_1
 66
     1
 10
0.0
 20
0.0
 30
0.0
  0
VERTEX
  5
96B
  8
LAYER_1
 10
140.0896908414212
 20
17.25574746328769
 30
0.0
  0
VERTEX
  5
96C
  8
LAYER_1
 10
140.076870330875
 20
17.23010644219524
 30
0.0
  0
SEQEND
  5
C4B
  8
LAYER_1
  0
POLYLINE
  5
DF
  8
LAYER_1
 66
     1
 10
0.0
 20
0.0
 30
0.0
  0
VERTEX
  5
96D
  8
LAYER_1
 10
140.1025113615194
 20
17.25574746328769
 30
0.0
  0
VERTEX
  5
96E
  8
LAYER_1
 10
140.076870330875
 20
17.24292696229349
 30
0.0
  0
SEQEND
  5
C4C
  8
LAYER_1
  0
POLYLINE
  5
E0
  8
LAYER_1
 66
     1
 10
0.0
 20
0.0
 30
0.0
  0
VERTEX
  5
96F
  8
LAYER_1
 10
140.0512293050065
 20
16.99933720699114
 30
0.0
  0
VERTEX
  5
970
  8
LAYER_1
 10
140.0255882767501
 20
16.98651669405692
 30
0.0
  0
SEQEND
  5
C4D
  8
LAYER_1
  0
POLYLINE
  5
E1
  8
LAYER_1
 66
     1
 10
0.0
 20
0.0
 30
0.0
  0
VERTEX
  5
971
  8
LAYER_1
 10
140.0512293050065
 20
17.01215771992537
 30
0.0
  0
VERTEX
  5
972
  8
LAYER_1
 10
140.0384087896843
 20
16.98651669405692
 30
0.0
  0
SEQEND
  5
C4E
  8
LAYER_1
  0
POLYLINE
  5
E2
  8
LAYER_1
 66
     1
 10
0.0
 20
0.0
 30
0.0
  0
VERTEX
  5
973
  8
LAYER_1
 10
140.076870330875
 20
17.01215771992537
 30
0.0
  0
VERTEX
  5
974
  8
LAYER_1
 10
140.0896908414212
 20
16.98651669405692
 30
0.0
  0
SEQEND
  5
C4F
  8
LAYER_1
  0
POLYLINE
  5
E3
  8
LAYER_1
 66
     1
 10
0.0
 20
0.0
 30
0.0
  0
VERTEX
  5
975
  8
LAYER_1
 10
140.076870330875
 20
16.99933720699114
 30
0.0
  0
VERTEX
  5
976
  8
LAYER_1
 10
140.1025113615194
 20
16.98651669405692
 30
0.0
  0
SEQEND
  5
C50
  8
LAYER_1
  0
POLYLINE
  5
E4
  8
LAYER_1
 66
     1
 10
0.0
 20
0.0
 30
0.0
  0
VERTEX
  5
977
  8
LAYER_1
 10
140.1409728931581
 20
16.98651669405692
 30
0.0
  0
VERTEX
  5
978
  8
LAYER_1
 10
140.2050754649933
 20
16.99933720699114
 30
0.0
  0
SEQEND
  5
C51
  8
LAYER_1
  0
POLYLINE
  5
E5
  8
LAYER_1
 66
     1
 10
0.0
 20
0.0
 30
0.0
  0
VERTEX
  5
979
  8
LAYER_1
 10
140.1666139238026
 20
16.98651669405692
 30
0.0
  0
VERTEX
  5
97A
  8
LAYER_1
 10
140.2050754649933
 20
17.01215771992537
 30
0.0
  0
SEQEND
  5
C52
  8
LAYER_1
  0
POLYLINE
  5
E6
  8
LAYER_1
 66
     1
 10
0.0
 20
0.0
 30
0.0
  0
VERTEX
  5
97B
  8
LAYER_1
 10
140.1794344439008
 20
16.98651669405692
 30
0.0
  0
VERTEX
  5
97C
  8
LAYER_1
 10
140.2050754649933
 20
17.0249782328596
 30
0.0
  0
SEQEND
  5
C53
  8
LAYER_1
  0
POLYLINE
  5
E7
  8
LAYER_1
 66
     1
 10
0.0
 20
0.0
 30
0.0
  0
VERTEX
  5
97D
  8
LAYER_1
 10
140.192254944895
 20
16.98651669405692
 30
0.0
  0
VERTEX
  5
97E
  8
LAYER_1
 10
140.2050754649933
 20
17.06343977166228
 30
0.0
  0
SEQEND
  5
C54
  8
LAYER_1
  0
POLYLINE
  5
E8
  8
LAYER_1
 66
     1
 10
0.0
 20
0.0
 30
0.0
  0
VERTEX
  5
97F
  8
LAYER_1
 10
140.2563575238942
 20
17.25574746328769
 30
0.0
  0
VERTEX
  5
980
  8
LAYER_1
 10
140.3461011192098
 20
17.11472182817521
 30
0.0
  0
VERTEX
  5
981
  8
LAYER_1
 10
140.3461011192098
 20
16.98651669405692
 30
0.0
  0
SEQEND
  5
C55
  8
LAYER_1
  0
POLYLINE
  5
E9
  8
LAYER_1
 66
     1
 10
0.0
 20
0.0
 30
0.0
  0
VERTEX
  5
982
  8
LAYER_1
 10
140.2691780368284
 20
17.25574746328769
 30
0.0
  0
VERTEX
  5
983
  8
LAYER_1
 10
140.358921629756
 20
17.11472182817521
 30
0.0
  0
VERTEX
  5
984
  8
LAYER_1
 10
140.358921629756
 20
16.99933720699114
 30
0.0
  0
SEQEND
  5
C56
  8
LAYER_1
  0
POLYLINE
  5
EA
  8
LAYER_1
 66
     1
 10
0.0
 20
0.0
 30
0.0
  0
VERTEX
  5
985
  8
LAYER_1
 10
140.2819985521507
 20
17.25574746328769
 30
0.0
  0
VERTEX
  5
986
  8
LAYER_1
 10
140.3717421403022
 20
17.11472182817521
 30
0.0
  0
VERTEX
  5
987
  8
LAYER_1
 10
140.3717421403022
 20
16.98651669405692
 30
0.0
  0
SEQEND
  5
C57
  8
LAYER_1
  0
POLYLINE
  5
EB
  8
LAYER_1
 66
     1
 10
0.0
 20
0.0
 30
0.0
  0
VERTEX
  5
988
  8
LAYER_1
 10
140.4486652322356
 20
17.24292696229349
 30
0.0
  0
VERTEX
  5
989
  8
LAYER_1
 10
140.3717421403022
 20
17.11472182817521
 30
0.0
  0
SEQEND
  5
C58
  8
LAYER_1
  0
POLYLINE
  5
EC
  8
LAYER_1
 66
     1
 10
0.0
 20
0.0
 30
0.0
  0
VERTEX
  5
98A
  8
LAYER_1
 10
140.2307164980257
 20
17.25574746328769
 30
0.0
  0
VERTEX
  5
98B
  8
LAYER_1
 10
140.3204600885653
 20
17.25574746328769
 30
0.0
  0
SEQEND
  5
C59
  8
LAYER_1
  0
POLYLINE
  5
ED
  8
LAYER_1
 66
     1
 10
0.0
 20
0.0
 30
0.0
  0
VERTEX
  5
98C
  8
LAYER_1
 10
140.410203691045
 20
17.25574746328769
 30
0.0
  0
VERTEX
  5
98D
  8
LAYER_1
 10
140.4871267543223
 20
17.25574746328769
 30
0.0
  0
SEQEND
  5
C5A
  8
LAYER_1
  0
POLYLINE
  5
EE
  8
LAYER_1
 66
     1
 10
0.0
 20
0.0
 30
0.0
  0
VERTEX
  5
98E
  8
LAYER_1
 10
140.3076395780191
 20
16.98651669405692
 30
0.0
  0
VERTEX
  5
98F
  8
LAYER_1
 10
140.410203691045
 20
16.98651669405692
 30
0.0
  0
SEQEND
  5
C5B
  8
LAYER_1
  0
POLYLINE
  5
EF
  8
LAYER_1
 66
     1
 10
0.0
 20
0.0
 30
0.0
  0
VERTEX
  5
990
  8
LAYER_1
 10
140.24353701096
 20
17.25574746328769
 30
0.0
  0
VERTEX
  5
991
  8
LAYER_1
 10
140.2691780368284
 20
17.24292696229349
 30
0.0
  0
SEQEND
  5
C5C
  8
LAYER_1
  0
POLYLINE
  5
F0
  8
LAYER_1
 66
     1
 10
0.0
 20
0.0
 30
0.0
  0
VERTEX
  5
992
  8
LAYER_1
 10
140.3076395780191
 20
17.25574746328769
 30
0.0
  0
VERTEX
  5
993
  8
LAYER_1
 10
140.2819985521507
 20
17.24292696229349
 30
0.0
  0
SEQEND
  5
C5D
  8
LAYER_1
  0
POLYLINE
  5
F1
  8
LAYER_1
 66
     1
 10
0.0
 20
0.0
 30
0.0
  0
VERTEX
  5
994
  8
LAYER_1
 10
140.4230241920392
 20
17.25574746328769
 30
0.0
  0
VERTEX
  5
995
  8
LAYER_1
 10
140.4486652322356
 20
17.24292696229349
 30
0.0
  0
SEQEND
  5
C5E
  8
LAYER_1
  0
POLYLINE
  5
F2
  8
LAYER_1
 66
     1
 10
0.0
 20
0.0
 30
0.0
  0
VERTEX
  5
996
  8
LAYER_1
 10
140.4743062533281
 20
17.25574746328769
 30
0.0
  0
VERTEX
  5
997
  8
LAYER_1
 10
140.4486652322356
 20
17.24292696229349
 30
0.0
  0
SEQEND
  5
C5F
  8
LAYER_1
  0
POLYLINE
  5
F3
  8
LAYER_1
 66
     1
 10
0.0
 20
0.0
 30
0.0
  0
VERTEX
  5
998
  8
LAYER_1
 10
140.3461011192098
 20
16.99933720699114
 30
0.0
  0
VERTEX
  5
999
  8
LAYER_1
 10
140.3204600885653
 20
16.98651669405692
 30
0.0
  0
SEQEND
  5
C60
  8
LAYER_1
  0
POLYLINE
  5
F4
  8
LAYER_1
 66
     1
 10
0.0
 20
0.0
 30
0.0
  0
VERTEX
  5
99A
  8
LAYER_1
 10
140.3461011192098
 20
17.01215771992537
 30
0.0
  0
VERTEX
  5
99B
  8
LAYER_1
 10
140.3332806086636
 20
16.98651669405692
 30
0.0
  0
SEQEND
  5
C61
  8
LAYER_1
  0
POLYLINE
  5
F5
  8
LAYER_1
 66
     1
 10
0.0
 20
0.0
 30
0.0
  0
VERTEX
  5
99C
  8
LAYER_1
 10
140.3717421403022
 20
17.01215771992537
 30
0.0
  0
VERTEX
  5
99D
  8
LAYER_1
 10
140.3845626508485
 20
16.98651669405692
 30
0.0
  0
SEQEND
  5
C62
  8
LAYER_1
  0
POLYLINE
  5
F6
  8
LAYER_1
 66
     1
 10
0.0
 20
0.0
 30
0.0
  0
VERTEX
  5
99E
  8
LAYER_1
 10
140.3717421403022
 20
16.99933720699114
 30
0.0
  0
VERTEX
  5
99F
  8
LAYER_1
 10
140.3973831709467
 20
16.98651669405692
 30
0.0
  0
SEQEND
  5
C63
  8
LAYER_1
  0
POLYLINE
  5
F7
  8
LAYER_1
 66
     1
 10
0.0
 20
0.0
 30
0.0
  0
VERTEX
  5
9A0
  8
LAYER_1
 10
140.5512293261575
 20
17.25574746328769
 30
0.0
  0
VERTEX
  5
9A1
  8
LAYER_1
 10
140.6025113778944
 20
16.98651669405692
 30
0.0
  0
SEQEND
  5
C64
  8
LAYER_1
  0
POLYLINE
  5
F8
  8
LAYER_1
 66
     1
 10
0.0
 20
0.0
 30
0.0
  0
VERTEX
  5
9A2
  8
LAYER_1
 10
140.5640498414797
 20
17.25574746328769
 30
0.0
  0
VERTEX
  5
9A3
  8
LAYER_1
 10
140.6025113778944
 20
17.05061926111606
 30
0.0
  0
VERTEX
  5
9A4
  8
LAYER_1
 10
140.6025113778944
 20
16.98651669405692
 30
0.0
  0
SEQEND
  5
C65
  8
LAYER_1
  0
POLYLINE
  5
F9
  8
LAYER_1
 66
     1
 10
0.0
 20
0.0
 30
0.0
  0
VERTEX
  5
9A5
  8
LAYER_1
 10
140.5768703520259
 20
17.25574746328769
 30
0.0
  0
VERTEX
  5
9A6
  8
LAYER_1
 10
140.6153318979926
 20
17.05061926111606
 30
0.0
  0
SEQEND
  5
C66
  8
LAYER_1
  0
POLYLINE
  5
FA
  8
LAYER_1
 66
     1
 10
0.0
 20
0.0
 30
0.0
  0
VERTEX
  5
9A7
  8
LAYER_1
 10
140.6537934296313
 20
17.25574746328769
 30
0.0
  0
VERTEX
  5
9A8
  8
LAYER_1
 10
140.6153318979926
 20
17.05061926111606
 30
0.0
  0
VERTEX
  5
9A9
  8
LAYER_1
 10
140.6025113778944
 20
16.98651669405692
 30
0.0
  0
SEQEND
  5
C67
  8
LAYER_1
  0
POLYLINE
  5
FB
  8
LAYER_1
 66
     1
 10
0.0
 20
0.0
 30
0.0
  0
VERTEX
  5
9AA
  8
LAYER_1
 10
140.6537934296313
 20
17.25574746328769
 30
0.0
  0
VERTEX
  5
9AB
  8
LAYER_1
 10
140.7050754813682
 20
16.98651669405692
 30
0.0
  0
SEQEND
  5
C68
  8
LAYER_1
  0
POLYLINE
  5
FC
  8
LAYER_1
 66
     1
 10
0.0
 20
0.0
 30
0.0
  0
VERTEX
  5
9AC
  8
LAYER_1
 10
140.6666139401775
 20
17.25574746328769
 30
0.0
  0
VERTEX
  5
9AD
  8
LAYER_1
 10
140.7050754813682
 20
17.05061926111606
 30
0.0
  0
VERTEX
  5
9AE
  8
LAYER_1
 10
140.7050754813682
 20
16.98651669405692
 30
0.0
  0
SEQEND
  5
C69
  8
LAYER_1
  0
POLYLINE
  5
FD
  8
LAYER_1
 66
     1
 10
0.0
 20
0.0
 30
0.0
  0
VERTEX
  5
9AF
  8
LAYER_1
 10
140.6794344602758
 20
17.25574746328769
 30
0.0
  0
VERTEX
  5
9B0
  8
LAYER_1
 10
140.7178960014664
 20
17.05061926111606
 30
0.0
  0
SEQEND
  5
C6A
  8
LAYER_1
  0
POLYLINE
  5
FE
  8
LAYER_1
 66
     1
 10
0.0
 20
0.0
 30
0.0
  0
VERTEX
  5
9B1
  8
LAYER_1
 10
140.7563575426571
 20
17.24292696229349
 30
0.0
  0
VERTEX
  5
9B2
  8
LAYER_1
 10
140.7178960014664
 20
17.05061926111606
 30
0.0
  0
VERTEX
  5
9B3
  8
LAYER_1
 10
140.7050754813682
 20
16.98651669405692
 30
0.0
  0
SEQEND
  5
C6B
  8
LAYER_1
  0
POLYLINE
  5
FF
  8
LAYER_1
 66
     1
 10
0.0
 20
0.0
 30
0.0
  0
VERTEX
  5
9B4
  8
LAYER_1
 10
140.5127677873548
 20
17.25574746328769
 30
0.0
  0
VERTEX
  5
9B5
  8
LAYER_1
 10
140.6153318979926
 20
17.25574746328769
 30
0.0
  0
SEQEND
  5
C6C
  8
LAYER_1
  0
POLYLINE
  5
100
  8
LAYER_1
 66
     1
 10
0.0
 20
0.0
 30
0.0
  0
VERTEX
  5
9B6
  8
LAYER_1
 10
140.6537934296313
 20
17.25574746328769
 30
0.0
  0
VERTEX
  5
9B7
  8
LAYER_1
 10
140.6794344602758
 20
17.25574746328769
 30
0.0
  0
SEQEND
  5
C6D
  8
LAYER_1
  0
POLYLINE
  5
101
  8
LAYER_1
 66
     1
 10
0.0
 20
0.0
 30
0.0
  0
VERTEX
  5
9B8
  8
LAYER_1
 10
140.7178960014664
 20
17.25574746328769
 30
0.0
  0
VERTEX
  5
9B9
  8
LAYER_1
 10
140.7948190838478
 20
17.25574746328769
 30
0.0
  0
SEQEND
  5
C6E
  8
LAYER_1
  0
POLYLINE
  5
102
  8
LAYER_1
 66
     1
 10
0.0
 20
0.0
 30
0.0
  0
VERTEX
  5
9BA
  8
LAYER_1
 10
140.525588300289
 20
17.25574746328769
 30
0.0
  0
VERTEX
  5
9BB
  8
LAYER_1
 10
140.5640498414797
 20
17.24292696229349
 30
0.0
  0
SEQEND
  5
C6F
  8
LAYER_1
  0
POLYLINE
  5
103
  8
LAYER_1
 66
     1
 10
0.0
 20
0.0
 30
0.0
  0
VERTEX
  5
9BC
  8
LAYER_1
 10
140.5384088132232
 20
17.25574746328769
 30
0.0
  0
VERTEX
  5
9BD
  8
LAYER_1
 10
140.5640498414797
 20
17.23010644219524
 30
0.0
  0
SEQEND
  5
C70
  8
LAYER_1
  0
POLYLINE
  5
104
  8
LAYER_1
 66
     1
 10
0.0
 20
0.0
 30
0.0
  0
VERTEX
  5
9BE
  8
LAYER_1
 10
140.5896908673482
 20
17.25574746328769
 30
0.0
  0
VERTEX
  5
9BF
  8
LAYER_1
 10
140.5768703520259
 20
17.23010644219524
 30
0.0
  0
SEQEND
  5
C71
  8
LAYER_1
  0
POLYLINE
  5
105
  8
LAYER_1
 66
     1
 10
0.0
 20
0.0
 30
0.0
  0
VERTEX
  5
9C0
  8
LAYER_1
 10
140.6025113778944
 20
17.25574746328769
 30
0.0
  0
VERTEX
  5
9C1
  8
LAYER_1
 10
140.5768703520259
 20
17.24292696229349
 30
0.0
  0
SEQEND
  5
C72
  8
LAYER_1
  0
POLYLINE
  5
106
  8
LAYER_1
 66
     1
 10
0.0
 20
0.0
 30
0.0
  0
VERTEX
  5
9C2
  8
LAYER_1
 10
140.7307165215647
 20
17.25574746328769
 30
0.0
  0
VERTEX
  5
9C3
  8
LAYER_1
 10
140.7563575426571
 20
17.24292696229349
 30
0.0
  0
SEQEND
  5
C73
  8
LAYER_1
  0
POLYLINE
  5
107
  8
LAYER_1
 66
     1
 10
0.0
 20
0.0
 30
0.0
  0
VERTEX
  5
9C4
  8
LAYER_1
 10
140.7819985637496
 20
17.25574746328769
 30
0.0
  0
VERTEX
  5
9C5
  8
LAYER_1
 10
140.7563575426571
 20
17.24292696229349
 30
0.0
  0
SEQEND
  5
C74
  8
LAYER_1
  0
POLYLINE
  5
108
  8
LAYER_1
 66
     1
 10
0.0
 20
0.0
 30
0.0
 70
     1
  0
VERTEX
  5
9C6
  8
LAYER_1
 10
140.9358447189603
 20
17.25574746328769
 30
0.0
  0
VERTEX
  5
9C7
  8
LAYER_1
 10
140.8973831777696
 20
17.24292696229349
 30
0.0
  0
VERTEX
  5
9C8
  8
LAYER_1
 10
140.8717421519011
 20
17.21728594120105
 30
0.0
  0
VERTEX
  5
9C9
  8
LAYER_1
 10
140.8589216365789
 20
17.19164490100455
 30
0.0
  0
VERTEX
  5
9CA
  8
LAYER_1
 10
140.8461011236447
 20
17.14036284926765
 30
0.0
  0
VERTEX
  5
9CB
  8
LAYER_1
 10
140.8461011236447
 20
17.10190131762898
 30
0.0
  0
VERTEX
  5
9CC
  8
LAYER_1
 10
140.8589216365789
 20
17.05061926111606
 30
0.0
  0
VERTEX
  5
9CD
  8
LAYER_1
 10
140.8717421519011
 20
17.0249782328596
 30
0.0
  0
VERTEX
  5
9CE
  8
LAYER_1
 10
140.8973831777696
 20
16.99933720699114
 30
0.0
  0
VERTEX
  5
9CF
  8
LAYER_1
 10
140.9358447189603
 20
16.98651669405692
 30
0.0
  0
VERTEX
  5
9D0
  8
LAYER_1
 10
140.9614857400527
 20
16.98651669405692
 30
0.0
  0
VERTEX
  5
9D1
  8
LAYER_1
 10
140.9999472907954
 20
16.99933720699114
 30
0.0
  0
VERTEX
  5
9D2
  8
LAYER_1
 10
141.0255883118879
 20
17.0249782328596
 30
0.0
  0
VERTEX
  5
9D3
  8
LAYER_1
 10
141.0384088319861
 20
17.05061926111606
 30
0.0
  0
VERTEX
  5
9D4
  8
LAYER_1
 10
141.0512293329803
 20
17.10190131762898
 30
0.0
  0
VERTEX
  5
9D5
  8
LAYER_1
 10
141.0512293329803
 20
17.14036284926765
 30
0.0
  0
VERTEX
  5
9D6
  8
LAYER_1
 10
141.0384088319861
 20
17.19164490100455
 30
0.0
  0
VERTEX
  5
9D7
  8
LAYER_1
 10
141.0255883118879
 20
17.21728594120105
 30
0.0
  0
VERTEX
  5
9D8
  8
LAYER_1
 10
140.9999472907954
 20
17.24292696229349
 30
0.0
  0
VERTEX
  5
9D9
  8
LAYER_1
 10
140.9614857400527
 20
17.25574746328769
 30
0.0
  0
SEQEND
  5
C75
  8
LAYER_1
  0
POLYLINE
  5
109
  8
LAYER_1
 66
     1
 10
0.0
 20
0.0
 30
0.0
  0
VERTEX
  5
9DA
  8
LAYER_1
 10
140.8845626624474
 20
17.21728594120105
 30
0.0
  0
VERTEX
  5
9DB
  8
LAYER_1
 10
140.8717421519011
 20
17.19164490100455
 30
0.0
  0
VERTEX
  5
9DC
  8
LAYER_1
 10
140.8589216365789
 20
17.15318335981387
 30
0.0
  0
VERTEX
  5
9DD
  8
LAYER_1
 10
140.8589216365789
 20
17.08908079753074
 30
0.0
  0
VERTEX
  5
9DE
  8
LAYER_1
 10
140.8717421519011
 20
17.05061926111606
 30
0.0
  0
VERTEX
  5
9DF
  8
LAYER_1
 10
140.8845626624474
 20
17.0249782328596
 30
0.0
  0
SEQEND
  5
C76
  8
LAYER_1
  0
POLYLINE
  5
10A
  8
LAYER_1
 66
     1
 10
0.0
 20
0.0
 30
0.0
  0
VERTEX
  5
9E0
  8
LAYER_1
 10
141.0127677917896
 20
17.0249782328596
 30
0.0
  0
VERTEX
  5
9E1
  8
LAYER_1
 10
141.0255883118879
 20
17.05061926111606
 30
0.0
  0
VERTEX
  5
9E2
  8
LAYER_1
 10
141.0384088319861
 20
17.08908079753074
 30
0.0
  0
VERTEX
  5
9E3
  8
LAYER_1
 10
141.0384088319861
 20
17.15318335981387
 30
0.0
  0
VERTEX
  5
9E4
  8
LAYER_1
 10
141.0255883118879
 20
17.19164490100455
 30
0.0
  0
VERTEX
  5
9E5
  8
LAYER_1
 10
141.0127677917896
 20
17.21728594120105
 30
0.0
  0
SEQEND
  5
C77
  8
LAYER_1
  0
POLYLINE
  5
10B
  8
LAYER_1
 66
     1
 10
0.0
 20
0.0
 30
0.0
  0
VERTEX
  5
9E6
  8
LAYER_1
 10
140.9358447189603
 20
17.25574746328769
 30
0.0
  0
VERTEX
  5
9E7
  8
LAYER_1
 10
140.9102036883158
 20
17.24292696229349
 30
0.0
  0
VERTEX
  5
9E8
  8
LAYER_1
 10
140.8845626624474
 20
17.2044654211028
 30
0.0
  0
VERTEX
  5
9E9
  8
LAYER_1
 10
140.8717421519011
 20
17.15318335981387
 30
0.0
  0
VERTEX
  5
9EA
  8
LAYER_1
 10
140.8717421519011
 20
17.08908079753074
 30
0.0
  0
VERTEX
  5
9EB
  8
LAYER_1
 10
140.8845626624474
 20
17.03779874579383
 30
0.0
  0
VERTEX
  5
9EC
  8
LAYER_1
 10
140.9102036883158
 20
16.99933720699114
 30
0.0
  0
VERTEX
  5
9ED
  8
LAYER_1
 10
140.9358447189603
 20
16.98651669405692
 30
0.0
  0
SEQEND
  5
C78
  8
LAYER_1
  0
POLYLINE
  5
10C
  8
LAYER_1
 66
     1
 10
0.0
 20
0.0
 30
0.0
  0
VERTEX
  5
9EE
  8
LAYER_1
 10
140.9614857400527
 20
16.98651669405692
 30
0.0
  0
VERTEX
  5
9EF
  8
LAYER_1
 10
140.9871267706972
 20
16.99933720699114
 30
0.0
  0
VERTEX
  5
9F0
  8
LAYER_1
 10
141.0127677917896
 20
17.03779874579383
 30
0.0
  0
VERTEX
  5
9F1
  8
LAYER_1
 10
141.0255883118879
 20
17.08908079753074
 30
0.0
  0
VERTEX
  5
9F2
  8
LAYER_1
 10
141.0255883118879
 20
17.15318335981387
 30
0.0
  0
VERTEX
  5
9F3
  8
LAYER_1
 10
141.0127677917896
 20
17.2044654211028
 30
0.0
  0
VERTEX
  5
9F4
  8
LAYER_1
 10
140.9871267706972
 20
17.24292696229349
 30
0.0
  0
VERTEX
  5
9F5
  8
LAYER_1
 10
140.9614857400527
 20
17.25574746328769
 30
0.0
  0
SEQEND
  5
C79
  8
LAYER_1
  0
POLYLINE
  5
10D
  8
LAYER_1
 66
     1
 10
0.0
 20
0.0
 30
0.0
 70
     1
  0
VERTEX
  5
9F6
  8
LAYER_1
 10
141.2178960082893
 20
17.25574746328769
 30
0.0
  0
VERTEX
  5
9F7
  8
LAYER_1
 10
141.1794344670986
 20
17.24292696229349
 30
0.0
  0
VERTEX
  5
9F8
  8
LAYER_1
 10
141.1537934412302
 20
17.21728594120105
 30
0.0
  0
VERTEX
  5
9F9
  8
LAYER_1
 10
141.1409729259079
 20
17.19164490100455
 30
0.0
  0
VERTEX
  5
9FA
  8
LAYER_1
 10
141.1281524129737
 20
17.14036284926765
 30
0.0
  0
VERTEX
  5
9FB
  8
LAYER_1
 10
141.1281524129737
 20
17.10190131762898
 30
0.0
  0
VERTEX
  5
9FC
  8
LAYER_1
 10
141.1409729259079
 20
17.05061926111606
 30
0.0
  0
VERTEX
  5
9FD
  8
LAYER_1
 10
141.1537934412302
 20
17.0249782328596
 30
0.0
  0
VERTEX
  5
9FE
  8
LAYER_1
 10
141.1794344670986
 20
16.99933720699114
 30
0.0
  0
VERTEX
  5
9FF
  8
LAYER_1
 10
141.2178960082893
 20
16.98651669405692
 30
0.0
  0
VERTEX
  5
A00
  8
LAYER_1
 10
141.2435370293817
 20
16.98651669405692
 30
0.0
  0
VERTEX
  5
A01
  8
LAYER_1
 10
141.2819985801245
 20
16.99933720699114
 30
0.0
  0
VERTEX
  5
A02
  8
LAYER_1
 10
141.3076396012169
 20
17.0249782328596
 30
0.0
  0
VERTEX
  5
A03
  8
LAYER_1
 10
141.3204601213152
 20
17.05061926111606
 30
0.0
  0
VERTEX
  5
A04
  8
LAYER_1
 10
141.3332806223094
 20
17.10190131762898
 30
0.0
  0
VERTEX
  5
A05
  8
LAYER_1
 10
141.3332806223094
 20
17.14036284926765
 30
0.0
  0
VERTEX
  5
A06
  8
LAYER_1
 10
141.3204601213152
 20
17.19164490100455
 30
0.0
  0
VERTEX
  5
A07
  8
LAYER_1
 10
141.3076396012169
 20
17.21728594120105
 30
0.0
  0
VERTEX
  5
A08
  8
LAYER_1
 10
141.2819985801245
 20
17.24292696229349
 30
0.0
  0
VERTEX
  5
A09
  8
LAYER_1
 10
141.2435370293817
 20
17.25574746328769
 30
0.0
  0
SEQEND
  5
C7A
  8
LAYER_1
  0
POLYLINE
  5
10E
  8
LAYER_1
 66
     1
 10
0.0
 20
0.0
 30
0.0
  0
VERTEX
  5
A0A
  8
LAYER_1
 10
141.1666139517764
 20
17.21728594120105
 30
0.0
  0
VERTEX
  5
A0B
  8
LAYER_1
 10
141.1537934412302
 20
17.19164490100455
 30
0.0
  0
VERTEX
  5
A0C
  8
LAYER_1
 10
141.1409729259079
 20
17.15318335981387
 30
0.0
  0
VERTEX
  5
A0D
  8
LAYER_1
 10
141.1409729259079
 20
17.08908079753074
 30
0.0
  0
VERTEX
  5
A0E
  8
LAYER_1
 10
141.1537934412302
 20
17.05061926111606
 30
0.0
  0
VERTEX
  5
A0F
  8
LAYER_1
 10
141.1666139517764
 20
17.0249782328596
 30
0.0
  0
SEQEND
  5
C7B
  8
LAYER_1
  0
POLYLINE
  5
10F
  8
LAYER_1
 66
     1
 10
0.0
 20
0.0
 30
0.0
  0
VERTEX
  5
A10
  8
LAYER_1
 10
141.2948190811186
 20
17.0249782328596
 30
0.0
  0
VERTEX
  5
A11
  8
LAYER_1
 10
141.3076396012169
 20
17.05061926111606
 30
0.0
  0
VERTEX
  5
A12
  8
LAYER_1
 10
141.3204601213152
 20
17.08908079753074
 30
0.0
  0
VERTEX
  5
A13
  8
LAYER_1
 10
141.3204601213152
 20
17.15318335981387
 30
0.0
  0
VERTEX
  5
A14
  8
LAYER_1
 10
141.3076396012169
 20
17.19164490100455
 30
0.0
  0
VERTEX
  5
A15
  8
LAYER_1
 10
141.2948190811186
 20
17.21728594120105
 30
0.0
  0
SEQEND
  5
C7C
  8
LAYER_1
  0
POLYLINE
  5
110
  8
LAYER_1
 66
     1
 10
0.0
 20
0.0
 30
0.0
  0
VERTEX
  5
A16
  8
LAYER_1
 10
141.2178960082893
 20
17.25574746328769
 30
0.0
  0
VERTEX
  5
A17
  8
LAYER_1
 10
141.1922549776448
 20
17.24292696229349
 30
0.0
  0
VERTEX
  5
A18
  8
LAYER_1
 10
141.1666139517764
 20
17.2044654211028
 30
0.0
  0
VERTEX
  5
A19
  8
LAYER_1
 10
141.1537934412302
 20
17.15318335981387
 30
0.0
  0
VERTEX
  5
A1A
  8
LAYER_1
 10
141.1537934412302
 20
17.08908079753074
 30
0.0
  0
VERTEX
  5
A1B
  8
LAYER_1
 10
141.1666139517764
 20
17.03779874579383
 30
0.0
  0
VERTEX
  5
A1C
  8
LAYER_1
 10
141.1922549776448
 20
16.99933720699114
 30
0.0
  0
VERTEX
  5
A1D
  8
LAYER_1
 10
141.2178960082893
 20
16.98651669405692
 30
0.0
  0
SEQEND
  5
C7D
  8
LAYER_1
  0
POLYLINE
  5
111
  8
LAYER_1
 66
     1
 10
0.0
 20
0.0
 30
0.0
  0
VERTEX
  5
A1E
  8
LAYER_1
 10
141.2435370293817
 20
16.98651669405692
 30
0.0
  0
VERTEX
  5
A1F
  8
LAYER_1
 10
141.2691780600262
 20
16.99933720699114
 30
0.0
  0
VERTEX
  5
A20
  8
LAYER_1
 10
141.2948190811186
 20
17.03779874579383
 30
0.0
  0
VERTEX
  5
A21
  8
LAYER_1
 10
141.3076396012169
 20
17.08908079753074
 30
0.0
  0
VERTEX
  5
A22
  8
LAYER_1
 10
141.3076396012169
 20
17.15318335981387
 30
0.0
  0
VERTEX
  5
A23
  8
LAYER_1
 10
141.2948190811186
 20
17.2044654211028
 30
0.0
  0
VERTEX
  5
A24
  8
LAYER_1
 10
141.2691780600262
 20
17.24292696229349
 30
0.0
  0
VERTEX
  5
A25
  8
LAYER_1
 10
141.2435370293817
 20
17.25574746328769
 30
0.0
  0
SEQEND
  5
C7E
  8
LAYER_1
  0
POLYLINE
  5
112
  8
LAYER_1
 66
     1
 10
0.0
 20
0.0
 30
0.0
  0
VERTEX
  5
A26
  8
LAYER_1
 10
141.4358447305592
 20
17.25574746328769
 30
0.0
  0
VERTEX
  5
A27
  8
LAYER_1
 10
141.4358447305592
 20
16.98651669405692
 30
0.0
  0
SEQEND
  5
C7F
  8
LAYER_1
  0
POLYLINE
  5
113
  8
LAYER_1
 66
     1
 10
0.0
 20
0.0
 30
0.0
  0
VERTEX
  5
A28
  8
LAYER_1
 10
141.4486652411054
 20
17.24292696229349
 30
0.0
  0
VERTEX
  5
A29
  8
LAYER_1
 10
141.4486652411054
 20
16.99933720699114
 30
0.0
  0
SEQEND
  5
C80
  8
LAYER_1
  0
POLYLINE
  5
114
  8
LAYER_1
 66
     1
 10
0.0
 20
0.0
 30
0.0
  0
VERTEX
  5
A2A
  8
LAYER_1
 10
141.4614857564276
 20
17.25574746328769
 30
0.0
  0
VERTEX
  5
A2B
  8
LAYER_1
 10
141.4614857564276
 20
16.98651669405692
 30
0.0
  0
SEQEND
  5
C81
  8
LAYER_1
  0
POLYLINE
  5
115
  8
LAYER_1
 66
     1
 10
0.0
 20
0.0
 30
0.0
  0
VERTEX
  5
A2C
  8
LAYER_1
 10
141.3973831893685
 20
17.25574746328769
 30
0.0
  0
VERTEX
  5
A2D
  8
LAYER_1
 10
141.5255883187108
 20
17.25574746328769
 30
0.0
  0
VERTEX
  5
A2E
  8
LAYER_1
 10
141.5640498694535
 20
17.24292696229349
 30
0.0
  0
VERTEX
  5
A2F
  8
LAYER_1
 10
141.5896908905459
 20
17.21728594120105
 30
0.0
  0
VERTEX
  5
A30
  8
LAYER_1
 10
141.6025114106442
 20
17.19164490100455
 30
0.0
  0
VERTEX
  5
A31
  8
LAYER_1
 10
141.6153319116383
 20
17.15318335981387
 30
0.0
  0
VERTEX
  5
A32
  8
LAYER_1
 10
141.6153319116383
 20
17.08908079753074
 30
0.0
  0
VERTEX
  5
A33
  8
LAYER_1
 10
141.6025114106442
 20
17.05061926111606
 30
0.0
  0
VERTEX
  5
A34
  8
LAYER_1
 10
141.5896908905459
 20
17.0249782328596
 30
0.0
  0
VERTEX
  5
A35
  8
LAYER_1
 10
141.5640498694535
 20
16.99933720699114
 30
0.0
  0
VERTEX
  5
A36
  8
LAYER_1
 10
141.5255883187108
 20
16.98651669405692
 30
0.0
  0
VERTEX
  5
A37
  8
LAYER_1
 10
141.3973831893685
 20
16.98651669405692
 30
0.0
  0
SEQEND
  5
C82
  8
LAYER_1
  0
POLYLINE
  5
116
  8
LAYER_1
 66
     1
 10
0.0
 20
0.0
 30
0.0
  0
VERTEX
  5
A38
  8
LAYER_1
 10
141.5768703704477
 20
17.21728594120105
 30
0.0
  0
VERTEX
  5
A39
  8
LAYER_1
 10
141.5896908905459
 20
17.19164490100455
 30
0.0
  0
VERTEX
  5
A3A
  8
LAYER_1
 10
141.6025114106442
 20
17.15318335981387
 30
0.0
  0
VERTEX
  5
A3B
  8
LAYER_1
 10
141.6025114106442
 20
17.08908079753074
 30
0.0
  0
VERTEX
  5
A3C
  8
LAYER_1
 10
141.5896908905459
 20
17.05061926111606
 30
0.0
  0
VERTEX
  5
A3D
  8
LAYER_1
 10
141.5768703704477
 20
17.0249782328596
 30
0.0
  0
SEQEND
  5
C83
  8
LAYER_1
  0
POLYLINE
  5
117
  8
LAYER_1
 66
     1
 10
0.0
 20
0.0
 30
0.0
  0
VERTEX
  5
A3E
  8
LAYER_1
 10
141.5255883187108
 20
17.25574746328769
 30
0.0
  0
VERTEX
  5
A3F
  8
LAYER_1
 10
141.5512293493552
 20
17.24292696229349
 30
0.0
  0
VERTEX
  5
A40
  8
LAYER_1
 10
141.5768703704477
 20
17.2044654211028
 30
0.0
  0
VERTEX
  5
A41
  8
LAYER_1
 10
141.5896908905459
 20
17.15318335981387
 30
0.0
  0
VERTEX
  5
A42
  8
LAYER_1
 10
141.5896908905459
 20
17.08908079753074
 30
0.0
  0
VERTEX
  5
A43
  8
LAYER_1
 10
141.5768703704477
 20
17.03779874579383
 30
0.0
  0
VERTEX
  5
A44
  8
LAYER_1
 10
141.5512293493552
 20
16.99933720699114
 30
0.0
  0
VERTEX
  5
A45
  8
LAYER_1
 10
141.5255883187108
 20
16.98651669405692
 30
0.0
  0
SEQEND
  5
C84
  8
LAYER_1
  0
POLYLINE
  5
118
  8
LAYER_1
 66
     1
 10
0.0
 20
0.0
 30
0.0
  0
VERTEX
  5
A46
  8
LAYER_1
 10
141.4102037023027
 20
17.25574746328769
 30
0.0
  0
VERTEX
  5
A47
  8
LAYER_1
 10
141.4358447305592
 20
17.24292696229349
 30
0.0
  0
SEQEND
  5
C85
  8
LAYER_1
  0
POLYLINE
  5
119
  8
LAYER_1
 66
     1
 10
0.0
 20
0.0
 30
0.0
  0
VERTEX
  5
A48
  8
LAYER_1
 10
141.4230242152369
 20
17.25574746328769
 30
0.0
  0
VERTEX
  5
A49
  8
LAYER_1
 10
141.4358447305592
 20
17.23010644219524
 30
0.0
  0
SEQEND
  5
C86
  8
LAYER_1
  0
POLYLINE
  5
11A
  8
LAYER_1
 66
     1
 10
0.0
 20
0.0
 30
0.0
  0
VERTEX
  5
A4A
  8
LAYER_1
 10
141.4743062669739
 20
17.25574746328769
 30
0.0
  0
VERTEX
  5
A4B
  8
LAYER_1
 10
141.4614857564276
 20
17.23010644219524
 30
0.0
  0
SEQEND
  5
C87
  8
LAYER_1
  0
POLYLINE
  5
11B
  8
LAYER_1
 66
     1
 10
0.0
 20
0.0
 30
0.0
  0
VERTEX
  5
A4C
  8
LAYER_1
 10
141.4871267870721
 20
17.25574746328769
 30
0.0
  0
VERTEX
  5
A4D
  8
LAYER_1
 10
141.4614857564276
 20
17.24292696229349
 30
0.0
  0
SEQEND
  5
C88
  8
LAYER_1
  0
POLYLINE
  5
11C
  8
LAYER_1
 66
     1
 10
0.0
 20
0.0
 30
0.0
  0
VERTEX
  5
A4E
  8
LAYER_1
 10
141.4358447305592
 20
16.99933720699114
 30
0.0
  0
VERTEX
  5
A4F
  8
LAYER_1
 10
141.4102037023027
 20
16.98651669405692
 30
0.0
  0
SEQEND
  5
C89
  8
LAYER_1
  0
POLYLINE
  5
11D
  8
LAYER_1
 66
     1
 10
0.0
 20
0.0
 30
0.0
  0
VERTEX
  5
A50
  8
LAYER_1
 10
141.4358447305592
 20
17.01215771992537
 30
0.0
  0
VERTEX
  5
A51
  8
LAYER_1
 10
141.4230242152369
 20
16.98651669405692
 30
0.0
  0
SEQEND
  5
C8A
  8
LAYER_1
  0
POLYLINE
  5
11E
  8
LAYER_1
 66
     1
 10
0.0
 20
0.0
 30
0.0
  0
VERTEX
  5
A52
  8
LAYER_1
 10
141.4614857564276
 20
17.01215771992537
 30
0.0
  0
VERTEX
  5
A53
  8
LAYER_1
 10
141.4743062669739
 20
16.98651669405692
 30
0.0
  0
SEQEND
  5
C8B
  8
LAYER_1
  0
POLYLINE
  5
11F
  8
LAYER_1
 66
     1
 10
0.0
 20
0.0
 30
0.0
  0
VERTEX
  5
A54
  8
LAYER_1
 10
141.4614857564276
 20
16.99933720699114
 30
0.0
  0
VERTEX
  5
A55
  8
LAYER_1
 10
141.4871267870721
 20
16.98651669405692
 30
0.0
  0
SEQEND
  5
C8C
  8
LAYER_1
  0
POLYLINE
  5
120
  8
LAYER_1
 66
     1
 10
0.0
 20
0.0
 30
0.0
  0
VERTEX
  5
A56
  8
LAYER_1
 10
141.3387696358213
 20
9.621700350015328
 30
0.0
  0
VERTEX
  5
A57
  8
LAYER_1
 10
141.3387696358213
 20
9.378110601877
 30
0.0
  0
SEQEND
  5
C8D
  8
LAYER_1
  0
POLYLINE
  5
121
  8
LAYER_1
 66
     1
 10
0.0
 20
0.0
 30
0.0
  0
VERTEX
  5
A58
  8
LAYER_1
 10
141.3515901463675
 20
9.621700350015328
 30
0.0
  0
VERTEX
  5
A59
  8
LAYER_1
 10
141.3515901463675
 20
9.390931114811227
 30
0.0
  0
SEQEND
  5
C8E
  8
LAYER_1
  0
POLYLINE
  5
122
  8
LAYER_1
 66
     1
 10
0.0
 20
0.0
 30
0.0
  0
VERTEX
  5
A5A
  8
LAYER_1
 10
141.3644106569137
 20
9.64734137110777
 30
0.0
  0
VERTEX
  5
A5B
  8
LAYER_1
 10
141.3644106569137
 20
9.378110601877
 30
0.0
  0
SEQEND
  5
C8F
  8
LAYER_1
  0
POLYLINE
  5
123
  8
LAYER_1
 66
     1
 10
0.0
 20
0.0
 30
0.0
  0
VERTEX
  5
A5C
  8
LAYER_1
 10
141.3644106569137
 20
9.64734137110777
 30
0.0
  0
VERTEX
  5
A5D
  8
LAYER_1
 10
141.325949115723
 20
9.608879849021132
 30
0.0
  0
VERTEX
  5
A5E
  8
LAYER_1
 10
141.3003080898546
 20
9.596059328922886
 30
0.0
  0
SEQEND
  5
C90
  8
LAYER_1
  0
POLYLINE
  5
124
  8
LAYER_1
 66
     1
 10
0.0
 20
0.0
 30
0.0
  0
VERTEX
  5
A5F
  8
LAYER_1
 10
141.2874875793083
 20
9.378110601877
 30
0.0
  0
VERTEX
  5
A60
  8
LAYER_1
 10
141.4156927182026
 20
9.378110601877
 30
0.0
  0
SEQEND
  5
C91
  8
LAYER_1
  0
POLYLINE
  5
125
  8
LAYER_1
 66
     1
 10
0.0
 20
0.0
 30
0.0
  0
VERTEX
  5
A61
  8
LAYER_1
 10
141.3387696358213
 20
9.390931114811227
 30
0.0
  0
VERTEX
  5
A62
  8
LAYER_1
 10
141.3131286051768
 20
9.378110601877
 30
0.0
  0
SEQEND
  5
C92
  8
LAYER_1
  0
POLYLINE
  5
126
  8
LAYER_1
 66
     1
 10
0.0
 20
0.0
 30
0.0
  0
VERTEX
  5
A63
  8
LAYER_1
 10
141.3387696358213
 20
9.403751627745454
 30
0.0
  0
VERTEX
  5
A64
  8
LAYER_1
 10
141.325949115723
 20
9.378110601877
 30
0.0
  0
SEQEND
  5
C93
  8
LAYER_1
  0
POLYLINE
  5
127
  8
LAYER_1
 66
     1
 10
0.0
 20
0.0
 30
0.0
  0
VERTEX
  5
A65
  8
LAYER_1
 10
141.3644106569137
 20
9.403751627745454
 30
0.0
  0
VERTEX
  5
A66
  8
LAYER_1
 10
141.3772311674599
 20
9.378110601877
 30
0.0
  0
SEQEND
  5
C94
  8
LAYER_1
  0
POLYLINE
  5
128
  8
LAYER_1
 66
     1
 10
0.0
 20
0.0
 30
0.0
  0
VERTEX
  5
A67
  8
LAYER_1
 10
141.3644106569137
 20
9.390931114811227
 30
0.0
  0
VERTEX
  5
A68
  8
LAYER_1
 10
141.3900516780062
 20
9.378110601877
 30
0.0
  0
SEQEND
  5
C95
  8
LAYER_1
  0
POLYLINE
  5
129
  8
LAYER_1
 66
     1
 10
0.0
 20
0.0
 30
0.0
  0
VERTEX
  5
A69
  8
LAYER_1
 10
141.7362055487224
 20
9.698623432396705
 30
0.0
  0
VERTEX
  5
A6A
  8
LAYER_1
 10
141.5054363063543
 20
9.2883670089494
 30
0.0
  0
VERTEX
  5
A6B
  8
LAYER_1
 10
141.5182568192885
 20
9.2883670089494
 30
0.0
  0
SEQEND
  5
C96
  8
LAYER_1
  0
POLYLINE
  5
12A
  8
LAYER_1
 66
     1
 10
0.0
 20
0.0
 30
0.0
  0
VERTEX
  5
A6C
  8
LAYER_1
 10
141.7362055487224
 20
9.698623432396705
 30
0.0
  0
VERTEX
  5
A6D
  8
LAYER_1
 10
141.7490260497165
 20
9.698623432396705
 30
0.0
  0
VERTEX
  5
A6E
  8
LAYER_1
 10
141.5182568192885
 20
9.2883670089494
 30
0.0
  0
SEQEND
  5
C97
  8
LAYER_1
  0
POLYLINE
  5
12B
  8
LAYER_1
 66
     1
 10
0.0
 20
0.0
 30
0.0
 70
     1
  0
VERTEX
  5
A6F
  8
LAYER_1
 10
141.82594914165
 20
9.596059328922886
 30
0.0
  0
VERTEX
  5
A70
  8
LAYER_1
 10
141.82594914165
 20
9.583238808824639
 30
0.0
  0
VERTEX
  5
A71
  8
LAYER_1
 10
141.8387696569722
 20
9.583238808824639
 30
0.0
  0
VERTEX
  5
A72
  8
LAYER_1
 10
141.8387696569722
 20
9.596059328922886
 30
0.0
  0
SEQEND
  5
C98
  8
LAYER_1
  0
POLYLINE
  5
12C
  8
LAYER_1
 66
     1
 10
0.0
 20
0.0
 30
0.0
  0
VERTEX
  5
A73
  8
LAYER_1
 10
141.82594914165
 20
9.608879849021132
 30
0.0
  0
VERTEX
  5
A74
  8
LAYER_1
 10
141.8387696569722
 20
9.608879849021132
 30
0.0
  0
VERTEX
  5
A75
  8
LAYER_1
 10
141.8515901675184
 20
9.596059328922886
 30
0.0
  0
VERTEX
  5
A76
  8
LAYER_1
 10
141.8515901675184
 20
9.583238808824639
 30
0.0
  0
VERTEX
  5
A77
  8
LAYER_1
 10
141.8387696569722
 20
9.570418307830444
 30
0.0
  0
VERTEX
  5
A78
  8
LAYER_1
 10
141.82594914165
 20
9.570418307830444
 30
0.0
  0
VERTEX
  5
A79
  8
LAYER_1
 10
141.8131286287157
 20
9.583238808824639
 30
0.0
  0
VERTEX
  5
A7A
  8
LAYER_1
 10
141.8131286287157
 20
9.596059328922886
 30
0.0
  0
VERTEX
  5
A7B
  8
LAYER_1
 10
141.82594914165
 20
9.621700350015328
 30
0.0
  0
VERTEX
  5
A7C
  8
LAYER_1
 10
141.8387696569722
 20
9.634520870113574
 30
0.0
  0
VERTEX
  5
A7D
  8
LAYER_1
 10
141.8772311933869
 20
9.64734137110777
 30
0.0
  0
VERTEX
  5
A7E
  8
LAYER_1
 10
141.9285132451238
 20
9.64734137110777
 30
0.0
  0
VERTEX
  5
A7F
  8
LAYER_1
 10
141.9669747958665
 20
9.634520870113574
 30
0.0
  0
VERTEX
  5
A80
  8
LAYER_1
 10
141.9797952968607
 20
9.621700350015328
 30
0.0
  0
VERTEX
  5
A81
  8
LAYER_1
 10
141.992615816959
 20
9.596059328922886
 30
0.0
  0
VERTEX
  5
A82
  8
LAYER_1
 10
141.992615816959
 20
9.570418307830444
 30
0.0
  0
VERTEX
  5
A83
  8
LAYER_1
 10
141.9797952968607
 20
9.544777267633949
 30
0.0
  0
VERTEX
  5
A84
  8
LAYER_1
 10
141.94133375567
 20
9.519136246541507
 30
0.0
  0
VERTEX
  5
A85
  8
LAYER_1
 10
141.8772311933869
 20
9.493495225449067
 30
0.0
  0
VERTEX
  5
A86
  8
LAYER_1
 10
141.8515901675184
 20
9.480674705350818
 30
0.0
  0
VERTEX
  5
A87
  8
LAYER_1
 10
141.82594914165
 20
9.455033679482364
 30
0.0
  0
VERTEX
  5
A88
  8
LAYER_1
 10
141.8131286287157
 20
9.416572140679682
 30
0.0
  0
VERTEX
  5
A89
  8
LAYER_1
 10
141.8131286287157
 20
9.378110601877
 30
0.0
  0
SEQEND
  5
C99
  8
LAYER_1
  0
POLYLINE
  5
12D
  8
LAYER_1
 66
     1
 10
0.0
 20
0.0
 30
0.0
  0
VERTEX
  5
A8A
  8
LAYER_1
 10
141.9669747958665
 20
9.621700350015328
 30
0.0
  0
VERTEX
  5
A8B
  8
LAYER_1
 10
141.9797952968607
 20
9.596059328922886
 30
0.0
  0
VERTEX
  5
A8C
  8
LAYER_1
 10
141.9797952968607
 20
9.570418307830444
 30
0.0
  0
VERTEX
  5
A8D
  8
LAYER_1
 10
141.9669747958665
 20
9.544777267633949
 30
0.0
  0
SEQEND
  5
C9A
  8
LAYER_1
  0
POLYLINE
  5
12E
  8
LAYER_1
 66
     1
 10
0.0
 20
0.0
 30
0.0
  0
VERTEX
  5
A8E
  8
LAYER_1
 10
141.9285132451238
 20
9.64734137110777
 30
0.0
  0
VERTEX
  5
A8F
  8
LAYER_1
 10
141.9541542757682
 20
9.634520870113574
 30
0.0
  0
VERTEX
  5
A90
  8
LAYER_1
 10
141.9669747958665
 20
9.596059328922886
 30
0.0
  0
VERTEX
  5
A91
  8
LAYER_1
 10
141.9669747958665
 20
9.570418307830444
 30
0.0
  0
VERTEX
  5
A92
  8
LAYER_1
 10
141.9541542757682
 20
9.544777267633949
 30
0.0
  0
VERTEX
  5
A93
  8
LAYER_1
 10
141.9285132451238
 20
9.519136246541507
 30
0.0
  0
VERTEX
  5
A94
  8
LAYER_1
 10
141.8772311933869
 20
9.493495225449067
 30
0.0
  0
SEQEND
  5
C9B
  8
LAYER_1
  0
POLYLINE
  5
12F
  8
LAYER_1
 66
     1
 10
0.0
 20
0.0
 30
0.0
  0
VERTEX
  5
A95
  8
LAYER_1
 10
141.8131286287157
 20
9.403751627745454
 30
0.0
  0
VERTEX
  5
A96
  8
LAYER_1
 10
141.82594914165
 20
9.416572140679682
 30
0.0
  0
VERTEX
  5
A97
  8
LAYER_1
 10
141.8515901675184
 20
9.416572140679682
 30
0.0
  0
VERTEX
  5
A98
  8
LAYER_1
 10
141.9156927345776
 20
9.403751627745454
 30
0.0
  0
VERTEX
  5
A99
  8
LAYER_1
 10
141.9669747958665
 20
9.403751627745454
 30
0.0
  0
VERTEX
  5
A9A
  8
LAYER_1
 10
141.992615816959
 20
9.416572140679682
 30
0.0
  0
SEQEND
  5
C9C
  8
LAYER_1
  0
POLYLINE
  5
130
  8
LAYER_1
 66
     1
 10
0.0
 20
0.0
 30
0.0
  0
VERTEX
  5
A9B
  8
LAYER_1
 10
141.8515901675184
 20
9.416572140679682
 30
0.0
  0
VERTEX
  5
A9C
  8
LAYER_1
 10
141.9156927345776
 20
9.390931114811227
 30
0.0
  0
VERTEX
  5
A9D
  8
LAYER_1
 10
141.9669747958665
 20
9.390931114811227
 30
0.0
  0
VERTEX
  5
A9E
  8
LAYER_1
 10
141.9797952968607
 20
9.403751627745454
 30
0.0
  0
SEQEND
  5
C9D
  8
LAYER_1
  0
POLYLINE
  5
131
  8
LAYER_1
 66
     1
 10
0.0
 20
0.0
 30
0.0
  0
VERTEX
  5
A9F
  8
LAYER_1
 10
141.8515901675184
 20
9.416572140679682
 30
0.0
  0
VERTEX
  5
AA0
  8
LAYER_1
 10
141.9156927345776
 20
9.378110601877
 30
0.0
  0
VERTEX
  5
AA1
  8
LAYER_1
 10
141.9669747958665
 20
9.378110601877
 30
0.0
  0
VERTEX
  5
AA2
  8
LAYER_1
 10
141.9797952968607
 20
9.390931114811227
 30
0.0
  0
VERTEX
  5
AA3
  8
LAYER_1
 10
141.992615816959
 20
9.416572140679682
 30
0.0
  0
VERTEX
  5
AA4
  8
LAYER_1
 10
141.992615816959
 20
9.442213168936144
 30
0.0
  0
SEQEND
  5
C9E
  8
LAYER_1
  0
POLYLINE
  5
132
  8
LAYER_1
 66
     1
 10
0.0
 20
0.0
 30
0.0
  0
VERTEX
  5
AA5
  8
LAYER_1
 10
142.0951799252088
 20
9.64734137110777
 30
0.0
  0
VERTEX
  5
AA6
  8
LAYER_1
 10
142.0823594098865
 20
9.634520870113574
 30
0.0
  0
VERTEX
  5
AA7
  8
LAYER_1
 10
142.0823594098865
 20
9.557597787732197
 30
0.0
  0
SEQEND
  5
C9F
  8
LAYER_1
  0
POLYLINE
  5
133
  8
LAYER_1
 66
     1
 10
0.0
 20
0.0
 30
0.0
  0
VERTEX
  5
AA8
  8
LAYER_1
 10
142.0951799252088
 20
9.634520870113574
 30
0.0
  0
VERTEX
  5
AA9
  8
LAYER_1
 10
142.0823594098865
 20
9.557597787732197
 30
0.0
  0
SEQEND
  5
CA0
  8
LAYER_1
  0
POLYLINE
  5
134
  8
LAYER_1
 66
     1
 10
0.0
 20
0.0
 30
0.0
  0
VERTEX
  5
AAA
  8
LAYER_1
 10
142.0951799252088
 20
9.64734137110777
 30
0.0
  0
VERTEX
  5
AAB
  8
LAYER_1
 10
142.108000435755
 20
9.634520870113574
 30
0.0
  0
VERTEX
  5
AAC
  8
LAYER_1
 10
142.0823594098865
 20
9.557597787732197
 30
0.0
  0
SEQEND
  5
CA1
  8
LAYER_1
  0
POLYLINE
  5
135
  8
LAYER_1
 66
     1
 10
0.0
 20
0.0
 30
0.0
  0
VERTEX
  5
AAD
  8
LAYER_1
 10
142.2105645440048
 20
9.64734137110777
 30
0.0
  0
VERTEX
  5
AAE
  8
LAYER_1
 10
142.1977440239066
 20
9.634520870113574
 30
0.0
  0
VERTEX
  5
AAF
  8
LAYER_1
 10
142.1977440239066
 20
9.557597787732197
 30
0.0
  0
SEQEND
  5
CA2
  8
LAYER_1
  0
POLYLINE
  5
136
  8
LAYER_1
 66
     1
 10
0.0
 20
0.0
 30
0.0
  0
VERTEX
  5
AB0
  8
LAYER_1
 10
142.2105645440048
 20
9.634520870113574
 30
0.0
  0
VERTEX
  5
AB1
  8
LAYER_1
 10
142.1977440239066
 20
9.557597787732197
 30
0.0
  0
SEQEND
  5
CA3
  8
LAYER_1
  0
POLYLINE
  5
137
  8
LAYER_1
 66
     1
 10
0.0
 20
0.0
 30
0.0
  0
VERTEX
  5
AB2
  8
LAYER_1
 10
142.2105645440048
 20
9.64734137110777
 30
0.0
  0
VERTEX
  5
AB3
  8
LAYER_1
 10
142.2233850641031
 20
9.634520870113574
 30
0.0
  0
VERTEX
  5
AB4
  8
LAYER_1
 10
142.1977440239066
 20
9.557597787732197
 30
0.0
  0
SEQEND
  5
CA4
  8
LAYER_1
  0
POLYLINE
  5
138
  8
LAYER_1
 66
     1
 10
0.0
 20
0.0
 30
0.0
  0
VERTEX
  5
AB5
  8
LAYER_1
 10
142.5823594405895
 20
9.64734137110777
 30
0.0
  0
VERTEX
  5
AB6
  8
LAYER_1
 10
142.5823594405895
 20
9.378110601877
 30
0.0
  0
SEQEND
  5
CA5
  8
LAYER_1
  0
POLYLINE
  5
139
  8
LAYER_1
 66
     1
 10
0.0
 20
0.0
 30
0.0
  0
VERTEX
  5
AB7
  8
LAYER_1
 10
142.5951799511357
 20
9.634520870113574
 30
0.0
  0
VERTEX
  5
AB8
  8
LAYER_1
 10
142.5951799511357
 20
9.390931114811227
 30
0.0
  0
SEQEND
  5
CA6
  8
LAYER_1
  0
POLYLINE
  5
13A
  8
LAYER_1
 66
     1
 10
0.0
 20
0.0
 30
0.0
  0
VERTEX
  5
AB9
  8
LAYER_1
 10
142.6080004664579
 20
9.64734137110777
 30
0.0
  0
VERTEX
  5
ABA
  8
LAYER_1
 10
142.6080004664579
 20
9.378110601877
 30
0.0
  0
SEQEND
  5
CA7
  8
LAYER_1
  0
POLYLINE
  5
13B
  8
LAYER_1
 66
     1
 10
0.0
 20
0.0
 30
0.0
  0
VERTEX
  5
ABB
  8
LAYER_1
 10
142.5438978993988
 20
9.64734137110777
 30
0.0
  0
VERTEX
  5
ABC
  8
LAYER_1
 10
142.6977440593855
 20
9.64734137110777
 30
0.0
  0
VERTEX
  5
ABD
  8
LAYER_1
 10
142.7362056005762
 20
9.634520870113574
 30
0.0
  0
VERTEX
  5
ABE
  8
LAYER_1
 10
142.7490261206744
 20
9.621700350015328
 30
0.0
  0
VERTEX
  5
ABF
  8
LAYER_1
 10
142.7618466216686
 20
9.596059328922886
 30
0.0
  0
VERTEX
  5
AC0
  8
LAYER_1
 10
142.7618466216686
 20
9.557597787732197
 30
0.0
  0
VERTEX
  5
AC1
  8
LAYER_1
 10
142.7490261206744
 20
9.531956757087729
 30
0.0
  0
VERTEX
  5
AC2
  8
LAYER_1
 10
142.7362056005762
 20
9.519136246541507
 30
0.0
  0
VERTEX
  5
AC3
  8
LAYER_1
 10
142.6977440593855
 20
9.506315735995287
 30
0.0
  0
VERTEX
  5
AC4
  8
LAYER_1
 10
142.6080004664579
 20
9.506315735995287
 30
0.0
  0
SEQEND
  5
CA8
  8
LAYER_1
  0
POLYLINE
  5
13C
  8
LAYER_1
 66
     1
 10
0.0
 20
0.0
 30
0.0
  0
VERTEX
  5
AC5
  8
LAYER_1
 10
142.7362056005762
 20
9.621700350015328
 30
0.0
  0
VERTEX
  5
AC6
  8
LAYER_1
 10
142.7490261206744
 20
9.596059328922886
 30
0.0
  0
VERTEX
  5
AC7
  8
LAYER_1
 10
142.7490261206744
 20
9.557597787732197
 30
0.0
  0
VERTEX
  5
AC8
  8
LAYER_1
 10
142.7362056005762
 20
9.531956757087729
 30
0.0
  0
SEQEND
  5
CA9
  8
LAYER_1
  0
POLYLINE
  5
13D
  8
LAYER_1
 66
     1
 10
0.0
 20
0.0
 30
0.0
  0
VERTEX
  5
AC9
  8
LAYER_1
 10
142.6977440593855
 20
9.64734137110777
 30
0.0
  0
VERTEX
  5
ACA
  8
LAYER_1
 10
142.723385080478
 20
9.634520870113574
 30
0.0
  0
VERTEX
  5
ACB
  8
LAYER_1
 10
142.7362056005762
 20
9.608879849021132
 30
0.0
  0
VERTEX
  5
ACC
  8
LAYER_1
 10
142.7362056005762
 20
9.544777267633949
 30
0.0
  0
VERTEX
  5
ACD
  8
LAYER_1
 10
142.723385080478
 20
9.519136246541507
 30
0.0
  0
VERTEX
  5
ACE
  8
LAYER_1
 10
142.6977440593855
 20
9.506315735995287
 30
0.0
  0
SEQEND
  5
CAA
  8
LAYER_1
  0
POLYLINE
  5
13E
  8
LAYER_1
 66
     1
 10
0.0
 20
0.0
 30
0.0
  0
VERTEX
  5
ACF
  8
LAYER_1
 10
142.5438978993988
 20
9.378110601877
 30
0.0
  0
VERTEX
  5
AD0
  8
LAYER_1
 10
142.6464620076486
 20
9.378110601877
 30
0.0
  0
SEQEND
  5
CAB
  8
LAYER_1
  0
POLYLINE
  5
13F
  8
LAYER_1
 66
     1
 10
0.0
 20
0.0
 30
0.0
  0
VERTEX
  5
AD1
  8
LAYER_1
 10
142.556718412333
 20
9.64734137110777
 30
0.0
  0
VERTEX
  5
AD2
  8
LAYER_1
 10
142.5823594405895
 20
9.634520870113574
 30
0.0
  0
SEQEND
  5
CAC
  8
LAYER_1
  0
POLYLINE
  5
140
  8
LAYER_1
 66
     1
 10
0.0
 20
0.0
 30
0.0
  0
VERTEX
  5
AD3
  8
LAYER_1
 10
142.5695389252672
 20
9.64734137110777
 30
0.0
  0
VERTEX
  5
AD4
  8
LAYER_1
 10
142.5823594405895
 20
9.621700350015328
 30
0.0
  0
SEQEND
  5
CAD
  8
LAYER_1
  0
POLYLINE
  5
141
  8
LAYER_1
 66
     1
 10
0.0
 20
0.0
 30
0.0
  0
VERTEX
  5
AD5
  8
LAYER_1
 10
142.6208209770041
 20
9.64734137110777
 30
0.0
  0
VERTEX
  5
AD6
  8
LAYER_1
 10
142.6080004664579
 20
9.621700350015328
 30
0.0
  0
SEQEND
  5
CAE
  8
LAYER_1
  0
POLYLINE
  5
142
  8
LAYER_1
 66
     1
 10
0.0
 20
0.0
 30
0.0
  0
VERTEX
  5
AD7
  8
LAYER_1
 10
142.6336414971024
 20
9.64734137110777
 30
0.0
  0
VERTEX
  5
AD8
  8
LAYER_1
 10
142.6080004664579
 20
9.634520870113574
 30
0.0
  0
SEQEND
  5
CAF
  8
LAYER_1
  0
POLYLINE
  5
143
  8
LAYER_1
 66
     1
 10
0.0
 20
0.0
 30
0.0
  0
VERTEX
  5
AD9
  8
LAYER_1
 10
142.5823594405895
 20
9.390931114811227
 30
0.0
  0
VERTEX
  5
ADA
  8
LAYER_1
 10
142.556718412333
 20
9.378110601877
 30
0.0
  0
SEQEND
  5
CB0
  8
LAYER_1
  0
POLYLINE
  5
144
  8
LAYER_1
 66
     1
 10
0.0
 20
0.0
 30
0.0
  0
VERTEX
  5
ADB
  8
LAYER_1
 10
142.5823594405895
 20
9.403751627745454
 30
0.0
  0
VERTEX
  5
ADC
  8
LAYER_1
 10
142.5695389252672
 20
9.378110601877
 30
0.0
  0
SEQEND
  5
CB1
  8
LAYER_1
  0
POLYLINE
  5
145
  8
LAYER_1
 66
     1
 10
0.0
 20
0.0
 30
0.0
  0
VERTEX
  5
ADD
  8
LAYER_1
 10
142.6080004664579
 20
9.403751627745454
 30
0.0
  0
VERTEX
  5
ADE
  8
LAYER_1
 10
142.6208209770041
 20
9.378110601877
 30
0.0
  0
SEQEND
  5
CB2
  8
LAYER_1
  0
POLYLINE
  5
146
  8
LAYER_1
 66
     1
 10
0.0
 20
0.0
 30
0.0
  0
VERTEX
  5
ADF
  8
LAYER_1
 10
142.6080004664579
 20
9.390931114811227
 30
0.0
  0
VERTEX
  5
AE0
  8
LAYER_1
 10
142.6336414971024
 20
9.378110601877
 30
0.0
  0
SEQEND
  5
CB3
  8
LAYER_1
  0
POLYLINE
  5
147
  8
LAYER_1
 66
     1
 10
0.0
 20
0.0
 30
0.0
  0
VERTEX
  5
AE1
  8
LAYER_1
 10
142.8644107299185
 20
9.64734137110777
 30
0.0
  0
VERTEX
  5
AE2
  8
LAYER_1
 10
142.8644107299185
 20
9.378110601877
 30
0.0
  0
SEQEND
  5
CB4
  8
LAYER_1
  0
POLYLINE
  5
148
  8
LAYER_1
 66
     1
 10
0.0
 20
0.0
 30
0.0
  0
VERTEX
  5
AE3
  8
LAYER_1
 10
142.8772312404647
 20
9.634520870113574
 30
0.0
  0
VERTEX
  5
AE4
  8
LAYER_1
 10
142.8772312404647
 20
9.390931114811227
 30
0.0
  0
SEQEND
  5
CB5
  8
LAYER_1
  0
POLYLINE
  5
149
  8
LAYER_1
 66
     1
 10
0.0
 20
0.0
 30
0.0
  0
VERTEX
  5
AE5
  8
LAYER_1
 10
142.8900517557869
 20
9.64734137110777
 30
0.0
  0
VERTEX
  5
AE6
  8
LAYER_1
 10
142.8900517557869
 20
9.378110601877
 30
0.0
  0
SEQEND
  5
CB6
  8
LAYER_1
  0
POLYLINE
  5
14A
  8
LAYER_1
 66
     1
 10
0.0
 20
0.0
 30
0.0
  0
VERTEX
  5
AE7
  8
LAYER_1
 10
142.8259491887278
 20
9.64734137110777
 30
0.0
  0
VERTEX
  5
AE8
  8
LAYER_1
 10
142.9285132969776
 20
9.64734137110777
 30
0.0
  0
SEQEND
  5
CB7
  8
LAYER_1
  0
POLYLINE
  5
14B
  8
LAYER_1
 66
     1
 10
0.0
 20
0.0
 30
0.0
  0
VERTEX
  5
AE9
  8
LAYER_1
 10
142.8259491887278
 20
9.378110601877
 30
0.0
  0
VERTEX
  5
AEA
  8
LAYER_1
 10
143.0182568899052
 20
9.378110601877
 30
0.0
  0
VERTEX
  5
AEB
  8
LAYER_1
 10
143.0182568899052
 20
9.455033679482364
 30
0.0
  0
SEQEND
  5
CB8
  8
LAYER_1
  0
POLYLINE
  5
14C
  8
LAYER_1
 66
     1
 10
0.0
 20
0.0
 30
0.0
  0
VERTEX
  5
AEC
  8
LAYER_1
 10
142.838769701662
 20
9.64734137110777
 30
0.0
  0
VERTEX
  5
AED
  8
LAYER_1
 10
142.8644107299185
 20
9.634520870113574
 30
0.0
  0
SEQEND
  5
CB9
  8
LAYER_1
  0
POLYLINE
  5
14D
  8
LAYER_1
 66
     1
 10
0.0
 20
0.0
 30
0.0
  0
VERTEX
  5
AEE
  8
LAYER_1
 10
142.8515902145963
 20
9.64734137110777
 30
0.0
  0
VERTEX
  5
AEF
  8
LAYER_1
 10
142.8644107299185
 20
9.621700350015328
 30
0.0
  0
SEQEND
  5
CBA
  8
LAYER_1
  0
POLYLINE
  5
14E
  8
LAYER_1
 66
     1
 10
0.0
 20
0.0
 30
0.0
  0
VERTEX
  5
AF0
  8
LAYER_1
 10
142.9028722663332
 20
9.64734137110777
 30
0.0
  0
VERTEX
  5
AF1
  8
LAYER_1
 10
142.8900517557869
 20
9.621700350015328
 30
0.0
  0
SEQEND
  5
CBB
  8
LAYER_1
  0
POLYLINE
  5
14F
  8
LAYER_1
 66
     1
 10
0.0
 20
0.0
 30
0.0
  0
VERTEX
  5
AF2
  8
LAYER_1
 10
142.9156927864314
 20
9.64734137110777
 30
0.0
  0
VERTEX
  5
AF3
  8
LAYER_1
 10
142.8900517557869
 20
9.634520870113574
 30
0.0
  0
SEQEND
  5
CBC
  8
LAYER_1
  0
POLYLINE
  5
150
  8
LAYER_1
 66
     1
 10
0.0
 20
0.0
 30
0.0
  0
VERTEX
  5
AF4
  8
LAYER_1
 10
142.8644107299185
 20
9.390931114811227
 30
0.0
  0
VERTEX
  5
AF5
  8
LAYER_1
 10
142.838769701662
 20
9.378110601877
 30
0.0
  0
SEQEND
  5
CBD
  8
LAYER_1
  0
POLYLINE
  5
151
  8
LAYER_1
 66
     1
 10
0.0
 20
0.0
 30
0.0
  0
VERTEX
  5
AF6
  8
LAYER_1
 10
142.8644107299185
 20
9.403751627745454
 30
0.0
  0
VERTEX
  5
AF7
  8
LAYER_1
 10
142.8515902145963
 20
9.378110601877
 30
0.0
  0
SEQEND
  5
CBE
  8
LAYER_1
  0
POLYLINE
  5
152
  8
LAYER_1
 66
     1
 10
0.0
 20
0.0
 30
0.0
  0
VERTEX
  5
AF8
  8
LAYER_1
 10
142.8900517557869
 20
9.403751627745454
 30
0.0
  0
VERTEX
  5
AF9
  8
LAYER_1
 10
142.9028722663332
 20
9.378110601877
 30
0.0
  0
SEQEND
  5
CBF
  8
LAYER_1
  0
POLYLINE
  5
153
  8
LAYER_1
 66
     1
 10
0.0
 20
0.0
 30
0.0
  0
VERTEX
  5
AFA
  8
LAYER_1
 10
142.8900517557869
 20
9.390931114811227
 30
0.0
  0
VERTEX
  5
AFB
  8
LAYER_1
 10
142.9156927864314
 20
9.378110601877
 30
0.0
  0
SEQEND
  5
CC0
  8
LAYER_1
  0
POLYLINE
  5
154
  8
LAYER_1
 66
     1
 10
0.0
 20
0.0
 30
0.0
  0
VERTEX
  5
AFC
  8
LAYER_1
 10
142.9541543180701
 20
9.378110601877
 30
0.0
  0
VERTEX
  5
AFD
  8
LAYER_1
 10
143.0182568899052
 20
9.390931114811227
 30
0.0
  0
SEQEND
  5
CC1
  8
LAYER_1
  0
POLYLINE
  5
155
  8
LAYER_1
 66
     1
 10
0.0
 20
0.0
 30
0.0
  0
VERTEX
  5
AFE
  8
LAYER_1
 10
142.9797953487145
 20
9.378110601877
 30
0.0
  0
VERTEX
  5
AFF
  8
LAYER_1
 10
143.0182568899052
 20
9.403751627745454
 30
0.0
  0
SEQEND
  5
CC2
  8
LAYER_1
  0
POLYLINE
  5
156
  8
LAYER_1
 66
     1
 10
0.0
 20
0.0
 30
0.0
  0
VERTEX
  5
B00
  8
LAYER_1
 10
142.9926158688128
 20
9.378110601877
 30
0.0
  0
VERTEX
  5
B01
  8
LAYER_1
 10
143.0182568899052
 20
9.416572140679682
 30
0.0
  0
SEQEND
  5
CC3
  8
LAYER_1
  0
POLYLINE
  5
157
  8
LAYER_1
 66
     1
 10
0.0
 20
0.0
 30
0.0
  0
VERTEX
  5
B02
  8
LAYER_1
 10
143.005436369807
 20
9.378110601877
 30
0.0
  0
VERTEX
  5
B03
  8
LAYER_1
 10
143.0182568899052
 20
9.455033679482364
 30
0.0
  0
SEQEND
  5
CC4
  8
LAYER_1
  0
POLYLINE
  5
158
  8
LAYER_1
 66
     1
 10
0.0
 20
0.0
 30
0.0
  0
VERTEX
  5
B04
  8
LAYER_1
 10
143.0695389488062
 20
9.64734137110777
 30
0.0
  0
VERTEX
  5
B05
  8
LAYER_1
 10
143.1592825441218
 20
9.506315735995287
 30
0.0
  0
VERTEX
  5
B06
  8
LAYER_1
 10
143.1592825441218
 20
9.378110601877
 30
0.0
  0
SEQEND
  5
CC5
  8
LAYER_1
  0
POLYLINE
  5
159
  8
LAYER_1
 66
     1
 10
0.0
 20
0.0
 30
0.0
  0
VERTEX
  5
B07
  8
LAYER_1
 10
143.0823594617404
 20
9.64734137110777
 30
0.0
  0
VERTEX
  5
B08
  8
LAYER_1
 10
143.172103054668
 20
9.506315735995287
 30
0.0
  0
VERTEX
  5
B09
  8
LAYER_1
 10
143.172103054668
 20
9.390931114811227
 30
0.0
  0
SEQEND
  5
CC6
  8
LAYER_1
  0
POLYLINE
  5
15A
  8
LAYER_1
 66
     1
 10
0.0
 20
0.0
 30
0.0
  0
VERTEX
  5
B0A
  8
LAYER_1
 10
143.0951799770626
 20
9.64734137110777
 30
0.0
  0
VERTEX
  5
B0B
  8
LAYER_1
 10
143.1849235652142
 20
9.506315735995287
 30
0.0
  0
VERTEX
  5
B0C
  8
LAYER_1
 10
143.1849235652142
 20
9.378110601877
 30
0.0
  0
SEQEND
  5
CC7
  8
LAYER_1
  0
POLYLINE
  5
15B
  8
LAYER_1
 66
     1
 10
0.0
 20
0.0
 30
0.0
  0
VERTEX
  5
B0D
  8
LAYER_1
 10
143.2618466571476
 20
9.634520870113574
 30
0.0
  0
VERTEX
  5
B0E
  8
LAYER_1
 10
143.1849235652142
 20
9.506315735995287
 30
0.0
  0
SEQEND
  5
CC8
  8
LAYER_1
  0
POLYLINE
  5
15C
  8
LAYER_1
 66
     1
 10
0.0
 20
0.0
 30
0.0
  0
VERTEX
  5
B0F
  8
LAYER_1
 10
143.0438979229377
 20
9.64734137110777
 30
0.0
  0
VERTEX
  5
B10
  8
LAYER_1
 10
143.1336415134773
 20
9.64734137110777
 30
0.0
  0
SEQEND
  5
CC9
  8
LAYER_1
  0
POLYLINE
  5
15D
  8
LAYER_1
 66
     1
 10
0.0
 20
0.0
 30
0.0
  0
VERTEX
  5
B11
  8
LAYER_1
 10
143.2233851159569
 20
9.64734137110777
 30
0.0
  0
VERTEX
  5
B12
  8
LAYER_1
 10
143.3003081792342
 20
9.64734137110777
 30
0.0
  0
SEQEND
  5
CCA
  8
LAYER_1
  0
POLYLINE
  5
15E
  8
LAYER_1
 66
     1
 10
0.0
 20
0.0
 30
0.0
  0
VERTEX
  5
B13
  8
LAYER_1
 10
143.1208210029311
 20
9.378110601877
 30
0.0
  0
VERTEX
  5
B14
  8
LAYER_1
 10
143.2233851159569
 20
9.378110601877
 30
0.0
  0
SEQEND
  5
CCB
  8
LAYER_1
  0
POLYLINE
  5
15F
  8
LAYER_1
 66
     1
 10
0.0
 20
0.0
 30
0.0
  0
VERTEX
  5
B15
  8
LAYER_1
 10
143.0567184358719
 20
9.64734137110777
 30
0.0
  0
VERTEX
  5
B16
  8
LAYER_1
 10
143.0823594617404
 20
9.634520870113574
 30
0.0
  0
SEQEND
  5
CCC
  8
LAYER_1
  0
POLYLINE
  5
160
  8
LAYER_1
 66
     1
 10
0.0
 20
0.0
 30
0.0
  0
VERTEX
  5
B17
  8
LAYER_1
 10
143.1208210029311
 20
9.64734137110777
 30
0.0
  0
VERTEX
  5
B18
  8
LAYER_1
 10
143.0951799770626
 20
9.634520870113574
 30
0.0
  0
SEQEND
  5
CCD
  8
LAYER_1
  0
POLYLINE
  5
161
  8
LAYER_1
 66
     1
 10
0.0
 20
0.0
 30
0.0
  0
VERTEX
  5
B19
  8
LAYER_1
 10
143.2362056169511
 20
9.64734137110777
 30
0.0
  0
VERTEX
  5
B1A
  8
LAYER_1
 10
143.2618466571476
 20
9.634520870113574
 30
0.0
  0
SEQEND
  5
CCE
  8
LAYER_1
  0
POLYLINE
  5
162
  8
LAYER_1
 66
     1
 10
0.0
 20
0.0
 30
0.0
  0
VERTEX
  5
B1B
  8
LAYER_1
 10
143.28748767824
 20
9.64734137110777
 30
0.0
  0
VERTEX
  5
B1C
  8
LAYER_1
 10
143.2618466571476
 20
9.634520870113574
 30
0.0
  0
SEQEND
  5
CCF
  8
LAYER_1
  0
POLYLINE
  5
163
  8
LAYER_1
 66
     1
 10
0.0
 20
0.0
 30
0.0
  0
VERTEX
  5
B1D
  8
LAYER_1
 10
143.1592825441218
 20
9.390931114811227
 30
0.0
  0
VERTEX
  5
B1E
  8
LAYER_1
 10
143.1336415134773
 20
9.378110601877
 30
0.0
  0
SEQEND
  5
CD0
  8
LAYER_1
  0
POLYLINE
  5
164
  8
LAYER_1
 66
     1
 10
0.0
 20
0.0
 30
0.0
  0
VERTEX
  5
B1F
  8
LAYER_1
 10
143.1592825441218
 20
9.403751627745454
 30
0.0
  0
VERTEX
  5
B20
  8
LAYER_1
 10
143.1464620335755
 20
9.378110601877
 30
0.0
  0
SEQEND
  5
CD1
  8
LAYER_1
  0
POLYLINE
  5
165
  8
LAYER_1
 66
     1
 10
0.0
 20
0.0
 30
0.0
  0
VERTEX
  5
B21
  8
LAYER_1
 10
143.1849235652142
 20
9.403751627745454
 30
0.0
  0
VERTEX
  5
B22
  8
LAYER_1
 10
143.1977440757604
 20
9.378110601877
 30
0.0
  0
SEQEND
  5
CD2
  8
LAYER_1
  0
POLYLINE
  5
166
  8
LAYER_1
 66
     1
 10
0.0
 20
0.0
 30
0.0
  0
VERTEX
  5
B23
  8
LAYER_1
 10
143.1849235652142
 20
9.390931114811227
 30
0.0
  0
VERTEX
  5
B24
  8
LAYER_1
 10
143.2105645958587
 20
9.378110601877
 30
0.0
  0
SEQEND
  5
CD3
  8
LAYER_1
  0
POLYLINE
  5
167
  8
LAYER_1
 66
     1
 10
0.0
 20
0.0
 30
0.0
  0
VERTEX
  5
B25
  8
LAYER_1
 10
143.3644107510694
 20
9.64734137110777
 30
0.0
  0
VERTEX
  5
B26
  8
LAYER_1
 10
143.4156928028063
 20
9.378110601877
 30
0.0
  0
SEQEND
  5
CD4
  8
LAYER_1
  0
POLYLINE
  5
168
  8
LAYER_1
 66
     1
 10
0.0
 20
0.0
 30
0.0
  0
VERTEX
  5
B27
  8
LAYER_1
 10
143.3772312663916
 20
9.64734137110777
 30
0.0
  0
VERTEX
  5
B28
  8
LAYER_1
 10
143.4156928028063
 20
9.442213168936144
 30
0.0
  0
VERTEX
  5
B29
  8
LAYER_1
 10
143.4156928028063
 20
9.378110601877
 30
0.0
  0
SEQEND
  5
CD5
  8
LAYER_1
  0
POLYLINE
  5
169
  8
LAYER_1
 66
     1
 10
0.0
 20
0.0
 30
0.0
  0
VERTEX
  5
B2A
  8
LAYER_1
 10
143.3900517769378
 20
9.64734137110777
 30
0.0
  0
VERTEX
  5
B2B
  8
LAYER_1
 10
143.4285133229046
 20
9.442213168936144
 30
0.0
  0
SEQEND
  5
CD6
  8
LAYER_1
  0
POLYLINE
  5
16A
  8
LAYER_1
 66
     1
 10
0.0
 20
0.0
 30
0.0
  0
VERTEX
  5
B2C
  8
LAYER_1
 10
143.4669748545432
 20
9.64734137110777
 30
0.0
  0
VERTEX
  5
B2D
  8
LAYER_1
 10
143.4285133229046
 20
9.442213168936144
 30
0.0
  0
VERTEX
  5
B2E
  8
LAYER_1
 10
143.4156928028063
 20
9.378110601877
 30
0.0
  0
SEQEND
  5
CD7
  8
LAYER_1
  0
POLYLINE
  5
16B
  8
LAYER_1
 66
     1
 10
0.0
 20
0.0
 30
0.0
  0
VERTEX
  5
B2F
  8
LAYER_1
 10
143.4669748545432
 20
9.64734137110777
 30
0.0
  0
VERTEX
  5
B30
  8
LAYER_1
 10
143.5182569062801
 20
9.378110601877
 30
0.0
  0
SEQEND
  5
CD8
  8
LAYER_1
  0
POLYLINE
  5
16C
  8
LAYER_1
 66
     1
 10
0.0
 20
0.0
 30
0.0
  0
VERTEX
  5
B31
  8
LAYER_1
 10
143.4797953650894
 20
9.64734137110777
 30
0.0
  0
VERTEX
  5
B32
  8
LAYER_1
 10
143.5182569062801
 20
9.442213168936144
 30
0.0
  0
VERTEX
  5
B33
  8
LAYER_1
 10
143.5182569062801
 20
9.378110601877
 30
0.0
  0
SEQEND
  5
CD9
  8
LAYER_1
  0
POLYLINE
  5
16D
  8
LAYER_1
 66
     1
 10
0.0
 20
0.0
 30
0.0
  0
VERTEX
  5
B34
  8
LAYER_1
 10
143.4926158851877
 20
9.64734137110777
 30
0.0
  0
VERTEX
  5
B35
  8
LAYER_1
 10
143.5310774263784
 20
9.442213168936144
 30
0.0
  0
SEQEND
  5
CDA
  8
LAYER_1
  0
POLYLINE
  5
16E
  8
LAYER_1
 66
     1
 10
0.0
 20
0.0
 30
0.0
  0
VERTEX
  5
B36
  8
LAYER_1
 10
143.5695389675691
 20
9.634520870113574
 30
0.0
  0
VERTEX
  5
B37
  8
LAYER_1
 10
143.5310774263784
 20
9.442213168936144
 30
0.0
  0
VERTEX
  5
B38
  8
LAYER_1
 10
143.5182569062801
 20
9.378110601877
 30
0.0
  0
SEQEND
  5
CDB
  8
LAYER_1
  0
POLYLINE
  5
16F
  8
LAYER_1
 66
     1
 10
0.0
 20
0.0
 30
0.0
  0
VERTEX
  5
B39
  8
LAYER_1
 10
143.3259492122667
 20
9.64734137110777
 30
0.0
  0
VERTEX
  5
B3A
  8
LAYER_1
 10
143.4285133229046
 20
9.64734137110777
 30
0.0
  0
SEQEND
  5
CDC
  8
LAYER_1
  0
POLYLINE
  5
170
  8
LAYER_1
 66
     1
 10
0.0
 20
0.0
 30
0.0
  0
VERTEX
  5
B3B
  8
LAYER_1
 10
143.4669748545432
 20
9.64734137110777
 30
0.0
  0
VERTEX
  5
B3C
  8
LAYER_1
 10
143.4926158851877
 20
9.64734137110777
 30
0.0
  0
SEQEND
  5
CDD
  8
LAYER_1
  0
POLYLINE
  5
171
  8
LAYER_1
 66
     1
 10
0.0
 20
0.0
 30
0.0
  0
VERTEX
  5
B3D
  8
LAYER_1
 10
143.5310774263784
 20
9.64734137110777
 30
0.0
  0
VERTEX
  5
B3E
  8
LAYER_1
 10
143.6080005087597
 20
9.64734137110777
 30
0.0
  0
SEQEND
  5
CDE
  8
LAYER_1
  0
POLYLINE
  5
172
  8
LAYER_1
 66
     1
 10
0.0
 20
0.0
 30
0.0
  0
VERTEX
  5
B3F
  8
LAYER_1
 10
143.3387697252009
 20
9.64734137110777
 30
0.0
  0
VERTEX
  5
B40
  8
LAYER_1
 10
143.3772312663916
 20
9.634520870113574
 30
0.0
  0
SEQEND
  5
CDF
  8
LAYER_1
  0
POLYLINE
  5
173
  8
LAYER_1
 66
     1
 10
0.0
 20
0.0
 30
0.0
  0
VERTEX
  5
B41
  8
LAYER_1
 10
143.3515902381352
 20
9.64734137110777
 30
0.0
  0
VERTEX
  5
B42
  8
LAYER_1
 10
143.3772312663916
 20
9.621700350015328
 30
0.0
  0
SEQEND
  5
CE0
  8
LAYER_1
  0
POLYLINE
  5
174
  8
LAYER_1
 66
     1
 10
0.0
 20
0.0
 30
0.0
  0
VERTEX
  5
B43
  8
LAYER_1
 10
143.4028722922601
 20
9.64734137110777
 30
0.0
  0
VERTEX
  5
B44
  8
LAYER_1
 10
143.3900517769378
 20
9.621700350015328
 30
0.0
  0
SEQEND
  5
CE1
  8
LAYER_1
  0
POLYLINE
  5
175
  8
LAYER_1
 66
     1
 10
0.0
 20
0.0
 30
0.0
  0
VERTEX
  5
B45
  8
LAYER_1
 10
143.4156928028063
 20
9.64734137110777
 30
0.0
  0
VERTEX
  5
B46
  8
LAYER_1
 10
143.3900517769378
 20
9.634520870113574
 30
0.0
  0
SEQEND
  5
CE2
  8
LAYER_1
  0
POLYLINE
  5
176
  8
LAYER_1
 66
     1
 10
0.0
 20
0.0
 30
0.0
  0
VERTEX
  5
B47
  8
LAYER_1
 10
143.5438979464766
 20
9.64734137110777
 30
0.0
  0
VERTEX
  5
B48
  8
LAYER_1
 10
143.5695389675691
 20
9.634520870113574
 30
0.0
  0
SEQEND
  5
CE3
  8
LAYER_1
  0
POLYLINE
  5
177
  8
LAYER_1
 66
     1
 10
0.0
 20
0.0
 30
0.0
  0
VERTEX
  5
B49
  8
LAYER_1
 10
143.5951799886615
 20
9.64734137110777
 30
0.0
  0
VERTEX
  5
B4A
  8
LAYER_1
 10
143.5695389675691
 20
9.634520870113574
 30
0.0
  0
SEQEND
  5
CE4
  8
LAYER_1
  0
POLYLINE
  5
178
  8
LAYER_1
 66
     1
 10
0.0
 20
0.0
 30
0.0
 70
     1
  0
VERTEX
  5
B4B
  8
LAYER_1
 10
143.7490261438722
 20
9.64734137110777
 30
0.0
  0
VERTEX
  5
B4C
  8
LAYER_1
 10
143.7105646026816
 20
9.634520870113574
 30
0.0
  0
VERTEX
  5
B4D
  8
LAYER_1
 10
143.6849235768131
 20
9.608879849021132
 30
0.0
  0
VERTEX
  5
B4E
  8
LAYER_1
 10
143.6721030614909
 20
9.583238808824639
 30
0.0
  0
VERTEX
  5
B4F
  8
LAYER_1
 10
143.6592825485566
 20
9.531956757087729
 30
0.0
  0
VERTEX
  5
B50
  8
LAYER_1
 10
143.6592825485566
 20
9.493495225449067
 30
0.0
  0
VERTEX
  5
B51
  8
LAYER_1
 10
143.6721030614909
 20
9.442213168936144
 30
0.0
  0
VERTEX
  5
B52
  8
LAYER_1
 10
143.6849235768131
 20
9.416572140679682
 30
0.0
  0
VERTEX
  5
B53
  8
LAYER_1
 10
143.7105646026816
 20
9.390931114811227
 30
0.0
  0
VERTEX
  5
B54
  8
LAYER_1
 10
143.7490261438722
 20
9.378110601877
 30
0.0
  0
VERTEX
  5
B55
  8
LAYER_1
 10
143.7746671649647
 20
9.378110601877
 30
0.0
  0
VERTEX
  5
B56
  8
LAYER_1
 10
143.8131287157074
 20
9.390931114811227
 30
0.0
  0
VERTEX
  5
B57
  8
LAYER_1
 10
143.8387697367999
 20
9.416572140679682
 30
0.0
  0
VERTEX
  5
B58
  8
LAYER_1
 10
143.8515902568981
 20
9.442213168936144
 30
0.0
  0
VERTEX
  5
B59
  8
LAYER_1
 10
143.8644107578923
 20
9.493495225449067
 30
0.0
  0
VERTEX
  5
B5A
  8
LAYER_1
 10
143.8644107578923
 20
9.531956757087729
 30
0.0
  0
VERTEX
  5
B5B
  8
LAYER_1
 10
143.8515902568981
 20
9.583238808824639
 30
0.0
  0
VERTEX
  5
B5C
  8
LAYER_1
 10
143.8387697367999
 20
9.608879849021132
 30
0.0
  0
VERTEX
  5
B5D
  8
LAYER_1
 10
143.8131287157074
 20
9.634520870113574
 30
0.0
  0
VERTEX
  5
B5E
  8
LAYER_1
 10
143.7746671649647
 20
9.64734137110777
 30
0.0
  0
SEQEND
  5
CE5
  8
LAYER_1
  0
POLYLINE
  5
179
  8
LAYER_1
 66
     1
 10
0.0
 20
0.0
 30
0.0
  0
VERTEX
  5
B5F
  8
LAYER_1
 10
143.6977440873593
 20
9.608879849021132
 30
0.0
  0
VERTEX
  5
B60
  8
LAYER_1
 10
143.6849235768131
 20
9.583238808824639
 30
0.0
  0
VERTEX
  5
B61
  8
LAYER_1
 10
143.6721030614909
 20
9.544777267633949
 30
0.0
  0
VERTEX
  5
B62
  8
LAYER_1
 10
143.6721030614909
 20
9.480674705350818
 30
0.0
  0
VERTEX
  5
B63
  8
LAYER_1
 10
143.6849235768131
 20
9.442213168936144
 30
0.0
  0
VERTEX
  5
B64
  8
LAYER_1
 10
143.6977440873593
 20
9.416572140679682
 30
0.0
  0
SEQEND
  5
CE6
  8
LAYER_1
  0
POLYLINE
  5
17A
  8
LAYER_1
 66
     1
 10
0.0
 20
0.0
 30
0.0
  0
VERTEX
  5
B65
  8
LAYER_1
 10
143.8259492167016
 20
9.416572140679682
 30
0.0
  0
VERTEX
  5
B66
  8
LAYER_1
 10
143.8387697367999
 20
9.442213168936144
 30
0.0
  0
VERTEX
  5
B67
  8
LAYER_1
 10
143.8515902568981
 20
9.480674705350818
 30
0.0
  0
VERTEX
  5
B68
  8
LAYER_1
 10
143.8515902568981
 20
9.544777267633949
 30
0.0
  0
VERTEX
  5
B69
  8
LAYER_1
 10
143.8387697367999
 20
9.583238808824639
 30
0.0
  0
VERTEX
  5
B6A
  8
LAYER_1
 10
143.8259492167016
 20
9.608879849021132
 30
0.0
  0
SEQEND
  5
CE7
  8
LAYER_1
  0
POLYLINE
  5
17B
  8
LAYER_1
 66
     1
 10
0.0
 20
0.0
 30
0.0
  0
VERTEX
  5
B6B
  8
LAYER_1
 10
143.7490261438722
 20
9.64734137110777
 30
0.0
  0
VERTEX
  5
B6C
  8
LAYER_1
 10
143.7233851132278
 20
9.634520870113574
 30
0.0
  0
VERTEX
  5
B6D
  8
LAYER_1
 10
143.6977440873593
 20
9.596059328922886
 30
0.0
  0
VERTEX
  5
B6E
  8
LAYER_1
 10
143.6849235768131
 20
9.544777267633949
 30
0.0
  0
VERTEX
  5
B6F
  8
LAYER_1
 10
143.6849235768131
 20
9.480674705350818
 30
0.0
  0
VERTEX
  5
B70
  8
LAYER_1
 10
143.6977440873593
 20
9.42939265361391
 30
0.0
  0
VERTEX
  5
B71
  8
LAYER_1
 10
143.7233851132278
 20
9.390931114811227
 30
0.0
  0
VERTEX
  5
B72
  8
LAYER_1
 10
143.7490261438722
 20
9.378110601877
 30
0.0
  0
SEQEND
  5
CE8
  8
LAYER_1
  0
POLYLINE
  5
17C
  8
LAYER_1
 66
     1
 10
0.0
 20
0.0
 30
0.0
  0
VERTEX
  5
B73
  8
LAYER_1
 10
143.7746671649647
 20
9.378110601877
 30
0.0
  0
VERTEX
  5
B74
  8
LAYER_1
 10
143.8003081956091
 20
9.390931114811227
 30
0.0
  0
VERTEX
  5
B75
  8
LAYER_1
 10
143.8259492167016
 20
9.42939265361391
 30
0.0
  0
VERTEX
  5
B76
  8
LAYER_1
 10
143.8387697367999
 20
9.480674705350818
 30
0.0
  0
VERTEX
  5
B77
  8
LAYER_1
 10
143.8387697367999
 20
9.544777267633949
 30
0.0
  0
VERTEX
  5
B78
  8
LAYER_1
 10
143.8259492167016
 20
9.596059328922886
 30
0.0
  0
VERTEX
  5
B79
  8
LAYER_1
 10
143.8003081956091
 20
9.634520870113574
 30
0.0
  0
VERTEX
  5
B7A
  8
LAYER_1
 10
143.7746671649647
 20
9.64734137110777
 30
0.0
  0
SEQEND
  5
CE9
  8
LAYER_1
  0
POLYLINE
  5
17D
  8
LAYER_1
 66
     1
 10
0.0
 20
0.0
 30
0.0
 70
     1
  0
VERTEX
  5
B7B
  8
LAYER_1
 10
144.0310774332013
 20
9.64734137110777
 30
0.0
  0
VERTEX
  5
B7C
  8
LAYER_1
 10
143.9926158920106
 20
9.634520870113574
 30
0.0
  0
VERTEX
  5
B7D
  8
LAYER_1
 10
143.9669748661421
 20
9.608879849021132
 30
0.0
  0
VERTEX
  5
B7E
  8
LAYER_1
 10
143.9541543508199
 20
9.583238808824639
 30
0.0
  0
VERTEX
  5
B7F
  8
LAYER_1
 10
143.9413338378857
 20
9.531956757087729
 30
0.0
  0
VERTEX
  5
B80
  8
LAYER_1
 10
143.9413338378857
 20
9.493495225449067
 30
0.0
  0
VERTEX
  5
B81
  8
LAYER_1
 10
143.9541543508199
 20
9.442213168936144
 30
0.0
  0
VERTEX
  5
B82
  8
LAYER_1
 10
143.9669748661421
 20
9.416572140679682
 30
0.0
  0
VERTEX
  5
B83
  8
LAYER_1
 10
143.9926158920106
 20
9.390931114811227
 30
0.0
  0
VERTEX
  5
B84
  8
LAYER_1
 10
144.0310774332013
 20
9.378110601877
 30
0.0
  0
VERTEX
  5
B85
  8
LAYER_1
 10
144.0567184542937
 20
9.378110601877
 30
0.0
  0
VERTEX
  5
B86
  8
LAYER_1
 10
144.0951800050364
 20
9.390931114811227
 30
0.0
  0
VERTEX
  5
B87
  8
LAYER_1
 10
144.1208210261289
 20
9.416572140679682
 30
0.0
  0
VERTEX
  5
B88
  8
LAYER_1
 10
144.1336415462271
 20
9.442213168936144
 30
0.0
  0
VERTEX
  5
B89
  8
LAYER_1
 10
144.1464620472213
 20
9.493495225449067
 30
0.0
  0
VERTEX
  5
B8A
  8
LAYER_1
 10
144.1464620472213
 20
9.531956757087729
 30
0.0
  0
VERTEX
  5
B8B
  8
LAYER_1
 10
144.1336415462271
 20
9.583238808824639
 30
0.0
  0
VERTEX
  5
B8C
  8
LAYER_1
 10
144.1208210261289
 20
9.608879849021132
 30
0.0
  0
VERTEX
  5
B8D
  8
LAYER_1
 10
144.0951800050364
 20
9.634520870113574
 30
0.0
  0
VERTEX
  5
B8E
  8
LAYER_1
 10
144.0567184542937
 20
9.64734137110777
 30
0.0
  0
SEQEND
  5
CEA
  8
LAYER_1
  0
POLYLINE
  5
17E
  8
LAYER_1
 66
     1
 10
0.0
 20
0.0
 30
0.0
  0
VERTEX
  5
B8F
  8
LAYER_1
 10
143.9797953766883
 20
9.608879849021132
 30
0.0
  0
VERTEX
  5
B90
  8
LAYER_1
 10
143.9669748661421
 20
9.583238808824639
 30
0.0
  0
VERTEX
  5
B91
  8
LAYER_1
 10
143.9541543508199
 20
9.544777267633949
 30
0.0
  0
VERTEX
  5
B92
  8
LAYER_1
 10
143.9541543508199
 20
9.480674705350818
 30
0.0
  0
VERTEX
  5
B93
  8
LAYER_1
 10
143.9669748661421
 20
9.442213168936144
 30
0.0
  0
VERTEX
  5
B94
  8
LAYER_1
 10
143.9797953766883
 20
9.416572140679682
 30
0.0
  0
SEQEND
  5
CEB
  8
LAYER_1
  0
POLYLINE
  5
17F
  8
LAYER_1
 66
     1
 10
0.0
 20
0.0
 30
0.0
  0
VERTEX
  5
B95
  8
LAYER_1
 10
144.1080005060306
 20
9.416572140679682
 30
0.0
  0
VERTEX
  5
B96
  8
LAYER_1
 10
144.1208210261289
 20
9.442213168936144
 30
0.0
  0
VERTEX
  5
B97
  8
LAYER_1
 10
144.1336415462271
 20
9.480674705350818
 30
0.0
  0
VERTEX
  5
B98
  8
LAYER_1
 10
144.1336415462271
 20
9.544777267633949
 30
0.0
  0
VERTEX
  5
B99
  8
LAYER_1
 10
144.1208210261289
 20
9.583238808824639
 30
0.0
  0
VERTEX
  5
B9A
  8
LAYER_1
 10
144.1080005060306
 20
9.608879849021132
 30
0.0
  0
SEQEND
  5
CEC
  8
LAYER_1
  0
POLYLINE
  5
180
  8
LAYER_1
 66
     1
 10
0.0
 20
0.0
 30
0.0
  0
VERTEX
  5
B9B
  8
LAYER_1
 10
144.0310774332013
 20
9.64734137110777
 30
0.0
  0
VERTEX
  5
B9C
  8
LAYER_1
 10
144.0054364025568
 20
9.634520870113574
 30
0.0
  0
VERTEX
  5
B9D
  8
LAYER_1
 10
143.9797953766883
 20
9.596059328922886
 30
0.0
  0
VERTEX
  5
B9E
  8
LAYER_1
 10
143.9669748661421
 20
9.544777267633949
 30
0.0
  0
VERTEX
  5
B9F
  8
LAYER_1
 10
143.9669748661421
 20
9.480674705350818
 30
0.0
  0
VERTEX
  5
BA0
  8
LAYER_1
 10
143.9797953766883
 20
9.42939265361391
 30
0.0
  0
VERTEX
  5
BA1
  8
LAYER_1
 10
144.0054364025568
 20
9.390931114811227
 30
0.0
  0
VERTEX
  5
BA2
  8
LAYER_1
 10
144.0310774332013
 20
9.378110601877
 30
0.0
  0
SEQEND
  5
CED
  8
LAYER_1
  0
POLYLINE
  5
181
  8
LAYER_1
 66
     1
 10
0.0
 20
0.0
 30
0.0
  0
VERTEX
  5
BA3
  8
LAYER_1
 10
144.0567184542937
 20
9.378110601877
 30
0.0
  0
VERTEX
  5
BA4
  8
LAYER_1
 10
144.0823594849382
 20
9.390931114811227
 30
0.0
  0
VERTEX
  5
BA5
  8
LAYER_1
 10
144.1080005060306
 20
9.42939265361391
 30
0.0
  0
VERTEX
  5
BA6
  8
LAYER_1
 10
144.1208210261289
 20
9.480674705350818
 30
0.0
  0
VERTEX
  5
BA7
  8
LAYER_1
 10
144.1208210261289
 20
9.544777267633949
 30
0.0
  0
VERTEX
  5
BA8
  8
LAYER_1
 10
144.1080005060306
 20
9.596059328922886
 30
0.0
  0
VERTEX
  5
BA9
  8
LAYER_1
 10
144.0823594849382
 20
9.634520870113574
 30
0.0
  0
VERTEX
  5
BAA
  8
LAYER_1
 10
144.0567184542937
 20
9.64734137110777
 30
0.0
  0
SEQEND
  5
CEE
  8
LAYER_1
  0
POLYLINE
  5
182
  8
LAYER_1
 66
     1
 10
0.0
 20
0.0
 30
0.0
  0
VERTEX
  5
BAB
  8
LAYER_1
 10
144.2490261554711
 20
9.64734137110777
 30
0.0
  0
VERTEX
  5
BAC
  8
LAYER_1
 10
144.2490261554711
 20
9.378110601877
 30
0.0
  0
SEQEND
  5
CEF
  8
LAYER_1
  0
POLYLINE
  5
183
  8
LAYER_1
 66
     1
 10
0.0
 20
0.0
 30
0.0
  0
VERTEX
  5
BAD
  8
LAYER_1
 10
144.2618466660174
 20
9.634520870113574
 30
0.0
  0
VERTEX
  5
BAE
  8
LAYER_1
 10
144.2618466660174
 20
9.390931114811227
 30
0.0
  0
SEQEND
  5
CF0
  8
LAYER_1
  0
POLYLINE
  5
184
  8
LAYER_1
 66
     1
 10
0.0
 20
0.0
 30
0.0
  0
VERTEX
  5
BAF
  8
LAYER_1
 10
144.2746671813396
 20
9.64734137110777
 30
0.0
  0
VERTEX
  5
BB0
  8
LAYER_1
 10
144.2746671813396
 20
9.378110601877
 30
0.0
  0
SEQEND
  5
CF1
  8
LAYER_1
  0
POLYLINE
  5
185
  8
LAYER_1
 66
     1
 10
0.0
 20
0.0
 30
0.0
  0
VERTEX
  5
BB1
  8
LAYER_1
 10
144.2105646142805
 20
9.64734137110777
 30
0.0
  0
VERTEX
  5
BB2
  8
LAYER_1
 10
144.3387697436227
 20
9.64734137110777
 30
0.0
  0
VERTEX
  5
BB3
  8
LAYER_1
 10
144.3772312943654
 20
9.634520870113574
 30
0.0
  0
VERTEX
  5
BB4
  8
LAYER_1
 10
144.4028723154579
 20
9.608879849021132
 30
0.0
  0
VERTEX
  5
BB5
  8
LAYER_1
 10
144.4156928355561
 20
9.583238808824639
 30
0.0
  0
VERTEX
  5
BB6
  8
LAYER_1
 10
144.4285133365503
 20
9.544777267633949
 30
0.0
  0
VERTEX
  5
BB7
  8
LAYER_1
 10
144.4285133365503
 20
9.480674705350818
 30
0.0
  0
VERTEX
  5
BB8
  8
LAYER_1
 10
144.4156928355561
 20
9.442213168936144
 30
0.0
  0
VERTEX
  5
BB9
  8
LAYER_1
 10
144.4028723154579
 20
9.416572140679682
 30
0.0
  0
VERTEX
  5
BBA
  8
LAYER_1
 10
144.3772312943654
 20
9.390931114811227
 30
0.0
  0
VERTEX
  5
BBB
  8
LAYER_1
 10
144.3387697436227
 20
9.378110601877
 30
0.0
  0
VERTEX
  5
BBC
  8
LAYER_1
 10
144.2105646142805
 20
9.378110601877
 30
0.0
  0
SEQEND
  5
CF2
  8
LAYER_1
  0
POLYLINE
  5
186
  8
LAYER_1
 66
     1
 10
0.0
 20
0.0
 30
0.0
  0
VERTEX
  5
BBD
  8
LAYER_1
 10
144.3900517953596
 20
9.608879849021132
 30
0.0
  0
VERTEX
  5
BBE
  8
LAYER_1
 10
144.4028723154579
 20
9.583238808824639
 30
0.0
  0
VERTEX
  5
BBF
  8
LAYER_1
 10
144.4156928355561
 20
9.544777267633949
 30
0.0
  0
VERTEX
  5
BC0
  8
LAYER_1
 10
144.4156928355561
 20
9.480674705350818
 30
0.0
  0
VERTEX
  5
BC1
  8
LAYER_1
 10
144.4028723154579
 20
9.442213168936144
 30
0.0
  0
VERTEX
  5
BC2
  8
LAYER_1
 10
144.3900517953596
 20
9.416572140679682
 30
0.0
  0
SEQEND
  5
CF3
  8
LAYER_1
  0
POLYLINE
  5
187
  8
LAYER_1
 66
     1
 10
0.0
 20
0.0
 30
0.0
  0
VERTEX
  5
BC3
  8
LAYER_1
 10
144.3387697436227
 20
9.64734137110777
 30
0.0
  0
VERTEX
  5
BC4
  8
LAYER_1
 10
144.3644107742672
 20
9.634520870113574
 30
0.0
  0
VERTEX
  5
BC5
  8
LAYER_1
 10
144.3900517953596
 20
9.596059328922886
 30
0.0
  0
VERTEX
  5
BC6
  8
LAYER_1
 10
144.4028723154579
 20
9.544777267633949
 30
0.0
  0
VERTEX
  5
BC7
  8
LAYER_1
 10
144.4028723154579
 20
9.480674705350818
 30
0.0
  0
VERTEX
  5
BC8
  8
LAYER_1
 10
144.3900517953596
 20
9.42939265361391
 30
0.0
  0
VERTEX
  5
BC9
  8
LAYER_1
 10
144.3644107742672
 20
9.390931114811227
 30
0.0
  0
VERTEX
  5
BCA
  8
LAYER_1
 10
144.3387697436227
 20
9.378110601877
 30
0.0
  0
SEQEND
  5
CF4
  8
LAYER_1
  0
POLYLINE
  5
188
  8
LAYER_1
 66
     1
 10
0.0
 20
0.0
 30
0.0
  0
VERTEX
  5
BCB
  8
LAYER_1
 10
144.2233851272147
 20
9.64734137110777
 30
0.0
  0
VERTEX
  5
BCC
  8
LAYER_1
 10
144.2490261554711
 20
9.634520870113574
 30
0.0
  0
SEQEND
  5
CF5
  8
LAYER_1
  0
POLYLINE
  5
189
  8
LAYER_1
 66
     1
 10
0.0
 20
0.0
 30
0.0
  0
VERTEX
  5
BCD
  8
LAYER_1
 10
144.2362056401489
 20
9.64734137110777
 30
0.0
  0
VERTEX
  5
BCE
  8
LAYER_1
 10
144.2490261554711
 20
9.621700350015328
 30
0.0
  0
SEQEND
  5
CF6
  8
LAYER_1
  0
POLYLINE
  5
18A
  8
LAYER_1
 66
     1
 10
0.0
 20
0.0
 30
0.0
  0
VERTEX
  5
BCF
  8
LAYER_1
 10
144.2874876918858
 20
9.64734137110777
 30
0.0
  0
VERTEX
  5
BD0
  8
LAYER_1
 10
144.2746671813396
 20
9.621700350015328
 30
0.0
  0
SEQEND
  5
CF7
  8
LAYER_1
  0
POLYLINE
  5
18B
  8
LAYER_1
 66
     1
 10
0.0
 20
0.0
 30
0.0
  0
VERTEX
  5
BD1
  8
LAYER_1
 10
144.3003082119841
 20
9.64734137110777
 30
0.0
  0
VERTEX
  5
BD2
  8
LAYER_1
 10
144.2746671813396
 20
9.634520870113574
 30
0.0
  0
SEQEND
  5
CF8
  8
LAYER_1
  0
POLYLINE
  5
18C
  8
LAYER_1
 66
     1
 10
0.0
 20
0.0
 30
0.0
  0
VERTEX
  5
BD3
  8
LAYER_1
 10
144.2490261554711
 20
9.390931114811227
 30
0.0
  0
VERTEX
  5
BD4
  8
LAYER_1
 10
144.2233851272147
 20
9.378110601877
 30
0.0
  0
SEQEND
  5
CF9
  8
LAYER_1
  0
POLYLINE
  5
18D
  8
LAYER_1
 66
     1
 10
0.0
 20
0.0
 30
0.0
  0
VERTEX
  5
BD5
  8
LAYER_1
 10
144.2490261554711
 20
9.403751627745454
 30
0.0
  0
VERTEX
  5
BD6
  8
LAYER_1
 10
144.2362056401489
 20
9.378110601877
 30
0.0
  0
SEQEND
  5
CFA
  8
LAYER_1
  0
POLYLINE
  5
18E
  8
LAYER_1
 66
     1
 10
0.0
 20
0.0
 30
0.0
  0
VERTEX
  5
BD7
  8
LAYER_1
 10
144.2746671813396
 20
9.403751627745454
 30
0.0
  0
VERTEX
  5
BD8
  8
LAYER_1
 10
144.2874876918858
 20
9.378110601877
 30
0.0
  0
SEQEND
  5
CFB
  8
LAYER_1
  0
POLYLINE
  5
18F
  8
LAYER_1
 66
     1
 10
0.0
 20
0.0
 30
0.0
  0
VERTEX
  5
BD9
  8
LAYER_1
 10
144.2746671813396
 20
9.390931114811227
 30
0.0
  0
VERTEX
  5
BDA
  8
LAYER_1
 10
144.3003082119841
 20
9.378110601877
 30
0.0
  0
SEQEND
  5
CFC
  8
LAYER_1
  0
ENDSEC
  0
EOF
