  0
SECTION
  2
HEADER
  9
$ACADVER
  1
AC1009
  9
$DWGCODEPAGE
  3
ansi_1252
  9
$INSBASE
 10
0.0
 20
0.0
 30
0.0
  9
$EXTMIN
 10
1.0
 20
-32.2248900909615
 30
0.0
  9
$EXTMAX
 10
150.6302013659421
 20
48.65923316180842
 30
0.0
  9
$LIMMIN
 10
0.0
 20
0.0
  9
$LIMMAX
 10
12.0
 20
9.0
  9
$ORTHOMODE
 70
     0
  9
$REGENMODE
 70
     1
  9
$FILLMODE
 70
     1
  9
$QTEXTMODE
 70
     0
  9
$MIRRTEXT
 70
     1
  9
$DRAGMODE
 70
     2
  9
$LTSCALE
 40
1.0
  9
$OSMODE
 70
    37
  9
$ATTMODE
 70
     1
  9
$TEXTSIZE
 40
0.2
  9
$TRACEWID
 40
0.05
  9
$TEXTSTYLE
  7
STANDARD
  9
$CLAYER
  8
0
  9
$CELTYPE
  6
BYLAYER
  9
$CECOLOR
 62
   256
  9
$DIMSCALE
 40
1.0
  9
$DIMASZ
 40
0.18
  9
$DIMEXO
 40
0.0625
  9
$DIMDLI
 40
0.38
  9
$DIMRND
 40
0.0
  9
$DIMDLE
 40
0.0
  9
$DIMEXE
 40
0.18
  9
$DIMTP
 40
0.0
  9
$DIMTM
 40
0.0
  9
$DIMTXT
 40
0.18
  9
$DIMCEN
 40
0.09
  9
$DIMTSZ
 40
0.0
  9
$DIMTOL
 70
     0
  9
$DIMLIM
 70
     0
  9
$DIMTIH
 70
     1
  9
$DIMTOH
 70
     1
  9
$DIMSE1
 70
     0
  9
$DIMSE2
 70
     0
  9
$DIMTAD
 70
     0
  9
$DIMZIN
 70
     0
  9
$DIMBLK
  1

  9
$DIMASO
 70
     1
  9
$DIMSHO
 70
     1
  9
$DIMPOST
  1

  9
$DIMAPOST
  1

  9
$DIMALT
 70
     0
  9
$DIMALTD
 70
     2
  9
$DIMALTF
 40
25.4
  9
$DIMLFAC
 40
1.0
  9
$DIMTOFL
 70
     0
  9
$DIMTVP
 40
0.0
  9
$DIMTIX
 70
     0
  9
$DIMSOXD
 70
     0
  9
$DIMSAH
 70
     0
  9
$DIMBLK1
  1

  9
$DIMBLK2
  1

  9
$DIMSTYLE
  2
STANDARD
  9
$DIMCLRD
 70
     0
  9
$DIMCLRE
 70
     0
  9
$DIMCLRT
 70
     0
  9
$DIMTFAC
 40
1.0
  9
$DIMGAP
 40
0.09
  9
$LUNITS
 70
     2
  9
$LUPREC
 70
     4
  9
$SKETCHINC
 40
0.1
  9
$FILLETRAD
 40
0.5
  9
$AUNITS
 70
     0
  9
$AUPREC
 70
     0
  9
$MENU
  1
.
  9
$ELEVATION
 40
0.0
  9
$PELEVATION
 40
0.0
  9
$THICKNESS
 40
0.0
  9
$LIMCHECK
 70
     0
  9
$CHAMFERA
 40
0.0
  9
$CHAMFERB
 40
0.0
  9
$SKPOLY
 70
     0
  9
$TDCREATE
 40
2454910.5
  9
$TDUPDATE
 40
2457519.618720185
  9
$TDINDWG
 40
0.0000000116
  9
$TDUSRTIMER
 40
0.0000000116
  9
$USRTIMER
 70
     1
  9
$ANGBASE
 50
0.0
  9
$ANGDIR
 70
     0
  9
$PDMODE
 70
     0
  9
$PDSIZE
 40
0.0
  9
$PLINEWID
 40
0.0
  9
$COORDS
 70
     1
  9
$SPLFRAME
 70
     0
  9
$SPLINETYPE
 70
     6
  9
$SPLINESEGS
 70
     8
  9
$ATTDIA
 70
     0
  9
$ATTREQ
 70
     1
  9
$HANDLING
 70
     1
  9
$HANDSEED
  5
62F
  9
$SURFTAB1
 70
     6
  9
$SURFTAB2
 70
     6
  9
$SURFTYPE
 70
     6
  9
$SURFU
 70
     6
  9
$SURFV
 70
     6
  9
$UCSNAME
  2

  9
$UCSORG
 10
0.0
 20
0.0
 30
0.0
  9
$UCSXDIR
 10
1.0
 20
0.0
 30
0.0
  9
$UCSYDIR
 10
0.0
 20
1.0
 30
0.0
  9
$PUCSNAME
  2

  9
$PUCSORG
 10
0.0
 20
0.0
 30
0.0
  9
$PUCSXDIR
 10
1.0
 20
0.0
 30
0.0
  9
$PUCSYDIR
 10
0.0
 20
1.0
 30
0.0
  9
$USERI1
 70
     0
  9
$USERI2
 70
     0
  9
$USERI3
 70
     0
  9
$USERI4
 70
     0
  9
$USERI5
 70
     0
  9
$USERR1
 40
0.0
  9
$USERR2
 40
0.0
  9
$USERR3
 40
0.0
  9
$USERR4
 40
0.0
  9
$USERR5
 40
0.0
  9
$WORLDVIEW
 70
     1
  9
$SHADEDGE
 70
     3
  9
$SHADEDIF
 70
    70
  9
$TILEMODE
 70
     1
  9
$MAXACTVP
 70
    64
  9
$PLIMCHECK
 70
     0
  9
$PEXTMIN
 10
1.000000000000000E+20
 20
1.000000000000000E+20
 30
1.000000000000000E+20
  9
$PEXTMAX
 10
-1.000000000000000E+20
 20
-1.000000000000000E+20
 30
-1.000000000000000E+20
  9
$PLIMMIN
 10
0.0
 20
0.0
  9
$PLIMMAX
 10
12.0
 20
9.0
  9
$UNITMODE
 70
     0
  9
$VISRETAIN
 70
     1
  9
$PLINEGEN
 70
     0
  9
$PSLTSCALE
 70
     1
  0
ENDSEC
  0
SECTION
  2
TABLES
  0
TABLE
  2
VPORT
 70
     1
  0
VPORT
  2
*ACTIVE
 70
     0
 10
0.0
 20
0.0
 11
1.0
 21
1.0
 12
10.42990654205607
 22
4.5
 13
0.0
 23
0.0
 14
0.5
 24
0.5
 15
0.5
 25
0.5
 16
0.0
 26
0.0
 36
1.0
 17
0.0
 27
0.0
 37
0.0
 40
9.0
 41
1.972972972850329
 42
50.0
 43
0.0
 44
0.0
 50
0.0
 51
0.0
 71
     0
 72
   100
 73
     1
 74
     3
 75
     0
 76
     0
 77
     0
 78
     0
  0
ENDTAB
  0
TABLE
  2
LTYPE
 70
     2
  0
LTYPE
  2
CONTINUOUS
 70
     0
  3
Solid line
 72
    65
 73
     0
 40
0.0
  0
LTYPE
  2
CONTINUOUS2
 70
     0
  3
Solid Line
 72
    65
 73
     0
 40
0.0
  0
ENDTAB
  0
TABLE
  2
LAYER
 70
     2
  0
LAYER
  2
0
 70
     0
 62
     7
  6
CONTINUOUS
  0
LAYER
  2
LAYER_1
 70
     0
 62
    18
  6
CONTINUOUS
  0
ENDTAB
  0
TABLE
  2
STYLE
 70
     1
  0
STYLE
  2
STANDARD
 70
     0
 40
0.0
 41
1.0
 50
0.0
 71
     0
 42
0.2
  3
txt
  4

  0
ENDTAB
  0
TABLE
  2
VIEW
 70
     0
  0
ENDTAB
  0
TABLE
  2
UCS
 70
     0
  0
ENDTAB
  0
TABLE
  2
APPID
 70
     1
  0
APPID
  2
ACAD
 70
     0
  0
ENDTAB
  0
TABLE
  2
DIMSTYLE
 70
     1
  0
DIMSTYLE
  2
STANDARD
 70
     0
  3

  4

  5

  6

  7

 40
1.0
 41
0.18
 42
0.0625
 43
0.38
 44
0.18
 45
0.0
 46
0.0
 47
0.0
 48
0.0
140
0.18
141
0.09
142
0.0
143
25.4
144
1.0
145
0.0
146
1.0
147
0.09
 71
     0
 72
     0
 73
     1
 74
     1
 75
     0
 76
     0
 77
     0
 78
     0
170
     0
171
     2
172
     0
173
     0
174
     0
175
     0
176
     0
177
     0
178
     0
  0
ENDTAB
  0
ENDSEC
  0
SECTION
  2
BLOCKS
  0
BLOCK
  8
0
  2
$MODEL_SPACE
 70
     0
 10
0.0
 20
0.0
 30
0.0
  3
$MODEL_SPACE
  1

  0
ENDBLK
  5
21
  8
0
  0
BLOCK
 67
     1
  8
0
  2
$PAPER_SPACE
 70
     0
 10
0.0
 20
0.0
 30
0.0
  3
$PAPER_SPACE
  1

  0
ENDBLK
  5
1D
 67
     1
  8
0
  0
ENDSEC
  0
SECTION
  2
ENTITIES
  0
POLYLINE
  5
70
  8
LAYER_1
 66
     1
 10
0.0
 20
0.0
 30
0.0
 70
     1
  0
VERTEX
  5
AF
  8
LAYER_1
 10
2.697766073875265
 20
-5.254541893790439
 30
0.0
  0
VERTEX
  5
B0
  8
LAYER_1
 10
9.135266073728609
 20
-4.067041893728693
 30
0.0
  0
VERTEX
  5
B1
  8
LAYER_1
 10
9.161552212949491
 20
-4.062550943328072
 30
0.0
  0
VERTEX
  5
B2
  8
LAYER_1
 10
9.18795159173623
 20
-4.058744904922746
 30
0.0
  0
VERTEX
  5
B3
  8
LAYER_1
 10
9.214459709427576
 20
-4.055609462799633
 30
0.0
  0
VERTEX
  5
B4
  8
LAYER_1
 10
9.241072065362285
 20
-4.053130301245657
 30
0.0
  0
VERTEX
  5
B5
  8
LAYER_1
 10
9.267784158879111
 20
-4.051293104547742
 30
0.0
  0
VERTEX
  5
B6
  8
LAYER_1
 10
9.294591489316812
 20
-4.05008355699281
 30
0.0
  0
VERTEX
  5
B7
  8
LAYER_1
 10
9.32148955601414
 20
-4.049487342867783
 30
0.0
  0
VERTEX
  5
B8
  8
LAYER_1
 10
9.348473858309852
 20
-4.049490146459582
 30
0.0
  0
VERTEX
  5
B9
  8
LAYER_1
 10
9.375539895542701
 20
-4.05007765205513
 30
0.0
  0
VERTEX
  5
BA
  8
LAYER_1
 10
9.402683167051439
 20
-4.051235543941351
 30
0.0
  0
VERTEX
  5
BB
  8
LAYER_1
 10
9.429899172174826
 20
-4.052949506405166
 30
0.0
  0
VERTEX
  5
BC
  8
LAYER_1
 10
9.457183410251613
 20
-4.055205223733497
 30
0.0
  0
VERTEX
  5
BD
  8
LAYER_1
 10
9.484531380620558
 20
-4.057988380213265
 30
0.0
  0
VERTEX
  5
BE
  8
LAYER_1
 10
9.511938582620413
 20
-4.061284660131397
 30
0.0
  0
VERTEX
  5
BF
  8
LAYER_1
 10
9.539400515589932
 20
-4.065079747774812
 30
0.0
  0
VERTEX
  5
C0
  8
LAYER_1
 10
9.566912678867872
 20
-4.069359327430432
 30
0.0
  0
VERTEX
  5
C1
  8
LAYER_1
 10
9.594470571792987
 20
-4.074109083385181
 30
0.0
  0
VERTEX
  5
C2
  8
LAYER_1
 10
9.622069693704033
 20
-4.079314699925981
 30
0.0
  0
VERTEX
  5
C3
  8
LAYER_1
 10
9.649705543939762
 20
-4.084961861339753
 30
0.0
  0
VERTEX
  5
C4
  8
LAYER_1
 10
9.677373621838928
 20
-4.091036251913421
 30
0.0
  0
VERTEX
  5
C5
  8
LAYER_1
 10
9.70506942674029
 20
-4.097523555933906
 30
0.0
  0
VERTEX
  5
C6
  8
LAYER_1
 10
9.7327884579826
 20
-4.104409457688132
 30
0.0
  0
VERTEX
  5
C7
  8
LAYER_1
 10
9.760526214904612
 20
-4.11167964146302
 30
0.0
  0
VERTEX
  5
C8
  8
LAYER_1
 10
9.788278196845084
 20
-4.119319791545492
 30
0.0
  0
VERTEX
  5
C9
  8
LAYER_1
 10
9.816039903142768
 20
-4.127315592222472
 30
0.0
  0
VERTEX
  5
CA
  8
LAYER_1
 10
9.843806833136417
 20
-4.135652727780882
 30
0.0
  0
VERTEX
  5
CB
  8
LAYER_1
 10
9.899338361566638
 20
-4.153293740689679
 30
0.0
  0
VERTEX
  5
CC
  8
LAYER_1
 10
9.954836776845784
 20
-4.172128304567263
 30
0.0
  0
VERTEX
  5
CD
  8
LAYER_1
 10
10.01026607368389
 20
-4.19204189370901
 30
0.0
  0
VERTEX
  5
CE
  8
LAYER_1
 10
10.05630189073055
 20
-4.20925536913621
 30
0.0
  0
VERTEX
  5
CF
  8
LAYER_1
 10
10.10227479313007
 20
-4.226995171407914
 30
0.0
  0
VERTEX
  5
D0
  8
LAYER_1
 10
10.14811063210561
 20
-4.245326345473849
 30
0.0
  0
VERTEX
  5
D1
  8
LAYER_1
 10
10.19373525888032
 20
-4.264313936283736
 30
0.0
  0
VERTEX
  5
D2
  8
LAYER_1
 10
10.23907452467734
 20
-4.284022988787302
 30
0.0
  0
VERTEX
  5
D3
  8
LAYER_1
 10
10.28405428071981
 20
-4.304518547934269
 30
0.0
  0
VERTEX
  5
D4
  8
LAYER_1
 10
10.32860037823088
 20
-4.325865658674362
 30
0.0
  0
VERTEX
  5
D5
  8
LAYER_1
 10
10.37263866843371
 20
-4.348129365957308
 30
0.0
  0
VERTEX
  5
D6
  8
LAYER_1
 10
10.39444421430175
 20
-4.359625269849139
 30
0.0
  0
VERTEX
  5
D7
  8
LAYER_1
 10
10.41609500255142
 20
-4.371374714732828
 30
0.0
  0
VERTEX
  5
D8
  8
LAYER_1
 10
10.4375817645856
 20
-4.383385831227093
 30
0.0
  0
VERTEX
  5
D9
  8
LAYER_1
 10
10.45889523180717
 20
-4.395666749950647
 30
0.0
  0
VERTEX
  5
DA
  8
LAYER_1
 10
10.48002613561905
 20
-4.408225601522206
 30
0.0
  0
VERTEX
  5
DB
  8
LAYER_1
 10
10.50096520742411
 20
-4.421070516560489
 30
0.0
  0
VERTEX
  5
DC
  8
LAYER_1
 10
10.52170317862526
 20
-4.434209625684206
 30
0.0
  0
VERTEX
  5
DD
  8
LAYER_1
 10
10.54223078062538
 20
-4.447651059512078
 30
0.0
  0
VERTEX
  5
DE
  8
LAYER_1
 10
10.56253874482737
 20
-4.461402948662817
 30
0.0
  0
VERTEX
  5
DF
  8
LAYER_1
 10
10.58261780263413
 20
-4.47547342375514
 30
0.0
  0
VERTEX
  5
E0
  8
LAYER_1
 10
10.60245868544854
 20
-4.489870615407761
 30
0.0
  0
VERTEX
  5
E1
  8
LAYER_1
 10
10.6220521246735
 20
-4.504602654239397
 30
0.0
  0
VERTEX
  5
E2
  8
LAYER_1
 10
10.6413888517119
 20
-4.519677670868764
 30
0.0
  0
VERTEX
  5
E3
  8
LAYER_1
 10
10.66045959796664
 20
-4.535103795914576
 30
0.0
  0
VERTEX
  5
E4
  8
LAYER_1
 10
10.6792550948406
 20
-4.550889159995549
 30
0.0
  0
VERTEX
  5
E5
  8
LAYER_1
 10
10.69776607373669
 20
-4.567041893730398
 30
0.0
  0
VERTEX
  5
E6
  8
LAYER_1
 10
10.71947316286729
 20
-4.586803183987364
 30
0.0
  0
VERTEX
  5
E7
  8
LAYER_1
 10
10.7406758779158
 20
-4.606995032349756
 30
0.0
  0
VERTEX
  5
E8
  8
LAYER_1
 10
10.76138541700569
 20
-4.627598100489235
 30
0.0
  0
VERTEX
  5
E9
  8
LAYER_1
 10
10.78161297826041
 20
-4.648593050077459
 30
0.0
  0
VERTEX
  5
EA
  8
LAYER_1
 10
10.80136975980344
 20
-4.669960542786085
 30
0.0
  0
VERTEX
  5
EB
  8
LAYER_1
 10
10.82066695975825
 20
-4.691681240286774
 30
0.0
  0
VERTEX
  5
EC
  8
LAYER_1
 10
10.83951577624831
 20
-4.713735804251185
 30
0.0
  0
VERTEX
  5
ED
  8
LAYER_1
 10
10.85792740739708
 20
-4.736104896350976
 30
0.0
  0
VERTEX
  5
EE
  8
LAYER_1
 10
10.87591305132804
 20
-4.758769178257804
 30
0.0
  0
VERTEX
  5
EF
  8
LAYER_1
 10
10.89348390616465
 20
-4.781709311643332
 30
0.0
  0
VERTEX
  5
F0
  8
LAYER_1
 10
10.91065117003038
 20
-4.804905958179215
 30
0.0
  0
VERTEX
  5
F1
  8
LAYER_1
 10
10.92742604104871
 20
-4.828339779537114
 30
0.0
  0
VERTEX
  5
F2
  8
LAYER_1
 10
10.9438197173431
 20
-4.851991437388686
 30
0.0
  0
VERTEX
  5
F3
  8
LAYER_1
 10
10.95984339703701
 20
-4.875841593405591
 30
0.0
  0
VERTEX
  5
F4
  8
LAYER_1
 10
10.97550827825393
 20
-4.899870909259487
 30
0.0
  0
VERTEX
  5
F5
  8
LAYER_1
 10
10.99082555911731
 20
-4.924060046622033
 30
0.0
  0
VERTEX
  5
F6
  8
LAYER_1
 10
11.00580643775063
 20
-4.948389667164889
 30
0.0
  0
VERTEX
  5
F7
  8
LAYER_1
 10
11.02046211227736
 20
-4.972840432559712
 30
0.0
  0
VERTEX
  5
F8
  8
LAYER_1
 10
11.0488426415049
 20
-5.022028044591897
 30
0.0
  0
VERTEX
  5
F9
  8
LAYER_1
 10
11.07605673178769
 20
-5.07146817609186
 30
0.0
  0
VERTEX
  5
FA
  8
LAYER_1
 10
11.10219396811348
 20
-5.121006120432869
 30
0.0
  0
VERTEX
  5
FB
  8
LAYER_1
 10
11.12734393547002
 20
-5.170487170988197
 30
0.0
  0
VERTEX
  5
FC
  8
LAYER_1
 10
11.15159621884507
 20
-5.219756621131111
 30
0.0
  0
VERTEX
  5
FD
  8
LAYER_1
 10
11.17504040322637
 20
-5.268659764234885
 30
0.0
  0
VERTEX
  5
FE
  8
LAYER_1
 10
11.19776607360168
 20
-5.317041893672787
 30
0.0
  0
VERTEX
  5
FF
  8
LAYER_1
 10
13.76026607386976
 20
-10.81704189378625
 30
0.0
  0
VERTEX
  5
100
  8
LAYER_1
 10
13.76557051522162
 20
-10.82782440416003
 30
0.0
  0
VERTEX
  5
101
  8
LAYER_1
 10
13.77127571104652
 20
-10.83827802236901
 30
0.0
  0
VERTEX
  5
102
  8
LAYER_1
 10
13.77737212300764
 20
-10.84840659984226
 30
0.0
  0
VERTEX
  5
103
  8
LAYER_1
 10
13.7838502127682
 20
-10.85821398800882
 30
0.0
  0
VERTEX
  5
104
  8
LAYER_1
 10
13.79070044199139
 20
-10.86770403829775
 30
0.0
  0
VERTEX
  5
105
  8
LAYER_1
 10
13.79791327234041
 20
-10.87688060213811
 30
0.0
  0
VERTEX
  5
106
  8
LAYER_1
 10
13.80547916547847
 20
-10.88574753095896
 30
0.0
  0
VERTEX
  5
107
  8
LAYER_1
 10
13.81338858306876
 20
-10.89430867618936
 30
0.0
  0
VERTEX
  5
108
  8
LAYER_1
 10
13.82163198677448
 20
-10.90256788925836
 30
0.0
  0
VERTEX
  5
109
  8
LAYER_1
 10
13.83019983825884
 20
-10.91052902159501
 30
0.0
  0
VERTEX
  5
10A
  8
LAYER_1
 10
13.83908259918504
 20
-10.91819592462837
 30
0.0
  0
VERTEX
  5
10B
  8
LAYER_1
 10
13.84827073121627
 20
-10.92557244978751
 30
0.0
  0
VERTEX
  5
10C
  8
LAYER_1
 10
13.85775469601574
 20
-10.93266244850147
 30
0.0
  0
VERTEX
  5
10D
  8
LAYER_1
 10
13.86752495524665
 20
-10.93946977219932
 30
0.0
  0
VERTEX
  5
10E
  8
LAYER_1
 10
13.8775719705722
 20
-10.94599827231011
 30
0.0
  0
VERTEX
  5
10F
  8
LAYER_1
 10
13.88788620365559
 20
-10.95225180026289
 30
0.0
  0
VERTEX
  5
110
  8
LAYER_1
 10
13.89845811616002
 20
-10.95823420748673
 30
0.0
  0
VERTEX
  5
111
  8
LAYER_1
 10
13.90927816974869
 20
-10.96394934541068
 30
0.0
  0
VERTEX
  5
112
  8
LAYER_1
 10
13.92033682608481
 20
-10.9694010654638
 30
0.0
  0
VERTEX
  5
113
  8
LAYER_1
 10
13.93162454683157
 20
-10.97459321907514
 30
0.0
  0
VERTEX
  5
114
  8
LAYER_1
 10
13.94313179365217
 20
-10.97952965767376
 30
0.0
  0
VERTEX
  5
115
  8
LAYER_1
 10
13.95484902820982
 20
-10.98421423268871
 30
0.0
  0
VERTEX
  5
116
  8
LAYER_1
 10
13.97887530718905
 20
-10.99284319768387
 30
0.0
  0
VERTEX
  5
117
  8
LAYER_1
 10
14.00362707707488
 20
-11.00051092549306
 30
0.0
  0
VERTEX
  5
118
  8
LAYER_1
 10
14.0290280311729
 20
-11.00724822754873
 30
0.0
  0
VERTEX
  5
119
  8
LAYER_1
 10
14.05500186278871
 20
-11.01308591528334
 30
0.0
  0
VERTEX
  5
11A
  8
LAYER_1
 10
14.08147226522794
 20
-11.01805480012933
 30
0.0
  0
VERTEX
  5
11B
  8
LAYER_1
 10
14.10836293179618
 20
-11.02218569351918
 30
0.0
  0
VERTEX
  5
11C
  8
LAYER_1
 10
14.13559755579904
 20
-11.02550940688532
 30
0.0
  0
VERTEX
  5
11D
  8
LAYER_1
 10
14.16309983054213
 20
-11.02805675166021
 30
0.0
  0
VERTEX
  5
11E
  8
LAYER_1
 10
14.19079344933104
 20
-11.02985853927631
 30
0.0
  0
VERTEX
  5
11F
  8
LAYER_1
 10
14.2186021054714
 20
-11.03094558116607
 30
0.0
  0
VERTEX
  5
120
  8
LAYER_1
 10
14.2464494922688
 20
-11.03134868876194
 30
0.0
  0
VERTEX
  5
121
  8
LAYER_1
 10
14.27425930302885
 20
-11.03109867349638
 30
0.0
  0
VERTEX
  5
122
  8
LAYER_1
 10
14.30195523105715
 20
-11.03022634680183
 30
0.0
  0
VERTEX
  5
123
  8
LAYER_1
 10
14.32946096965932
 20
-11.02876252011077
 30
0.0
  0
VERTEX
  5
124
  8
LAYER_1
 10
14.35670021214096
 20
-11.02673800485562
 30
0.0
  0
VERTEX
  5
125
  8
LAYER_1
 10
14.38359665180767
 20
-11.02418361246886
 30
0.0
  0
VERTEX
  5
126
  8
LAYER_1
 10
14.41007398196507
 20
-11.02113015438293
 30
0.0
  0
VERTEX
  5
127
  8
LAYER_1
 10
14.43605589591875
 20
-11.01760844203029
 30
0.0
  0
VERTEX
  5
128
  8
LAYER_1
 10
14.46146608697433
 20
-11.0136492868434
 30
0.0
  0
VERTEX
  5
129
  8
LAYER_1
 10
14.4862282484374
 20
-11.0092835002547
 30
0.0
  0
VERTEX
  5
12A
  8
LAYER_1
 10
14.51026607361358
 20
-11.00454189369665
 30
0.0
  0
VERTEX
  5
12B
  8
LAYER_1
 10
30.13526607374731
 20
-7.754541893726767
 30
0.0
  0
VERTEX
  5
12C
  8
LAYER_1
 10
30.14946130091835
 20
-7.751400519815766
 30
0.0
  0
VERTEX
  5
12D
  8
LAYER_1
 10
30.16361960844799
 20
-7.747892635252878
 30
0.0
  0
VERTEX
  5
12E
  8
LAYER_1
 10
30.17773597846606
 20
-7.744024298827576
 30
0.0
  0
VERTEX
  5
12F
  8
LAYER_1
 10
30.19180539310243
 20
-7.739801569329329
 30
0.0
  0
VERTEX
  5
130
  8
LAYER_1
 10
30.20582283448696
 20
-7.735230505547612
 30
0.0
  0
VERTEX
  5
131
  8
LAYER_1
 10
30.21978328474949
 20
-7.730317166271895
 30
0.0
  0
VERTEX
  5
132
  8
LAYER_1
 10
30.23368172601987
 20
-7.72506761029165
 30
0.0
  0
VERTEX
  5
133
  8
LAYER_1
 10
30.24751314042797
 20
-7.719487896396348
 30
0.0
  0
VERTEX
  5
134
  8
LAYER_1
 10
30.26127251010363
 20
-7.713584083375462
 30
0.0
  0
VERTEX
  5
135
  8
LAYER_1
 10
30.27495481717671
 20
-7.707362230018465
 30
0.0
  0
VERTEX
  5
136
  8
LAYER_1
 10
30.28855504377706
 20
-7.700828395114827
 30
0.0
  0
VERTEX
  5
137
  8
LAYER_1
 10
30.30206817203454
 20
-7.693988637454018
 30
0.0
  0
VERTEX
  5
138
  8
LAYER_1
 10
30.31548918407898
 20
-7.686849015825512
 30
0.0
  0
VERTEX
  5
139
  8
LAYER_1
 10
30.32881306204027
 20
-7.679415589018781
 30
0.0
  0
VERTEX
  5
13A
  8
LAYER_1
 10
30.35514934423274
 20
-7.663691555028531
 30
0.0
  0
VERTEX
  5
13B
  8
LAYER_1
 10
30.38103687565078
 20
-7.646865005799039
 30
0.0
  0
VERTEX
  5
13C
  8
LAYER_1
 10
30.4064355133332
 20
-7.628984411646082
 30
0.0
  0
VERTEX
  5
13D
  8
LAYER_1
 10
30.43130511431885
 20
-7.610098242885432
 30
0.0
  0
VERTEX
  5
13E
  8
LAYER_1
 10
30.45560553564654
 20
-7.590254969832865
 30
0.0
  0
VERTEX
  5
13F
  8
LAYER_1
 10
30.4792966343551
 20
-7.569503062804154
 30
0.0
  0
VERTEX
  5
140
  8
LAYER_1
 10
30.50233826748336
 20
-7.547890992115074
 30
0.0
  0
VERTEX
  5
141
  8
LAYER_1
 10
30.52469029207014
 20
-7.5254672280814
 30
0.0
  0
VERTEX
  5
142
  8
LAYER_1
 10
30.54631256515427
 20
-7.502280241018903
 30
0.0
  0
VERTEX
  5
143
  8
LAYER_1
 10
30.56716494377458
 20
-7.478378501243361
 30
0.0
  0
VERTEX
  5
144
  8
LAYER_1
 10
30.5872072849699
 20
-7.453810479070546
 30
0.0
  0
VERTEX
  5
145
  8
LAYER_1
 10
30.60639944577905
 20
-7.428624644816233
 30
0.0
  0
VERTEX
  5
146
  8
LAYER_1
 10
30.62470128324086
 20
-7.402869468796196
 30
0.0
  0
VERTEX
  5
147
  8
LAYER_1
 10
30.64207265439415
 20
-7.376593421326209
 30
0.0
  0
VERTEX
  5
148
  8
LAYER_1
 10
30.65847341627775
 20
-7.349844972722048
 30
0.0
  0
VERTEX
  5
149
  8
LAYER_1
 10
30.6738634259305
 20
-7.322672593299485
 30
0.0
  0
VERTEX
  5
14A
  8
LAYER_1
 10
30.68820254039121
 20
-7.295124753374296
 30
0.0
  0
VERTEX
  5
14B
  8
LAYER_1
 10
30.70145061669871
 20
-7.267249923262253
 30
0.0
  0
VERTEX
  5
14C
  8
LAYER_1
 10
30.71356751189183
 20
-7.239096573279133
 30
0.0
  0
VERTEX
  5
14D
  8
LAYER_1
 10
30.72451308300941
 20
-7.210713173740707
 30
0.0
  0
VERTEX
  5
14E
  8
LAYER_1
 10
30.72953407736449
 20
-7.196450352361935
 30
0.0
  0
VERTEX
  5
14F
  8
LAYER_1
 10
30.73424718709024
 20
-7.182148194962752
 30
0.0
  0
VERTEX
  5
150
  8
LAYER_1
 10
30.73864739431652
 20
-7.167812760332631
 30
0.0
  0
VERTEX
  5
151
  8
LAYER_1
 10
30.74272968117319
 20
-7.153450107261042
 30
0.0
  0
VERTEX
  5
152
  8
LAYER_1
 10
30.74648902979008
 20
-7.139066294537458
 30
0.0
  0
VERTEX
  5
153
  8
LAYER_1
 10
30.74992042229705
 20
-7.124667380951351
 30
0.0
  0
VERTEX
  5
154
  8
LAYER_1
 10
30.75301884082396
 20
-7.110259425292191
 30
0.0
  0
VERTEX
  5
155
  8
LAYER_1
 10
30.75577926750067
 20
-7.095848486349452
 30
0.0
  0
VERTEX
  5
156
  8
LAYER_1
 10
30.75819668445702
 20
-7.081440622912604
 30
0.0
  0
VERTEX
  5
157
  8
LAYER_1
 10
30.76026607382287
 20
-7.067041893771119
 30
0.0
  0
VERTEX
  5
158
  8
LAYER_1
 10
31.38526607388366
 20
-2.31704189381378
 30
0.0
  0
VERTEX
  5
159
  8
LAYER_1
 10
31.38834639793157
 20
-2.295931651410196
 30
0.0
  0
VERTEX
  5
15A
  8
LAYER_1
 10
31.39199376556116
 20
-2.274999725534195
 30
0.0
  0
VERTEX
  5
15B
  8
LAYER_1
 10
31.39618726363356
 20
-2.25423616658848
 30
0.0
  0
VERTEX
  5
15C
  8
LAYER_1
 10
31.40090597900994
 20
-2.233631024975752
 30
0.0
  0
VERTEX
  5
15D
  8
LAYER_1
 10
31.40612899855143
 20
-2.213174351098715
 30
0.0
  0
VERTEX
  5
15E
  8
LAYER_1
 10
31.4118354091192
 20
-2.192856195360069
 30
0.0
  0
VERTEX
  5
15F
  8
LAYER_1
 10
31.41800429757437
 20
-2.172666608162519
 30
0.0
  0
VERTEX
  5
160
  8
LAYER_1
 10
31.4246147507781
 20
-2.152595639908765
 30
0.0
  0
VERTEX
  5
161
  8
LAYER_1
 10
31.43164585559155
 20
-2.132633341001511
 30
0.0
  0
VERTEX
  5
162
  8
LAYER_1
 10
31.43907669887587
 20
-2.112769761843458
 30
0.0
  0
VERTEX
  5
163
  8
LAYER_1
 10
31.44688636749219
 20
-2.092994952837309
 30
0.0
  0
VERTEX
  5
164
  8
LAYER_1
 10
31.45505394830167
 20
-2.073298964385766
 30
0.0
  0
VERTEX
  5
165
  8
LAYER_1
 10
31.46355852816546
 20
-2.053671846891531
 30
0.0
  0
VERTEX
  5
166
  8
LAYER_1
 10
31.4723791939447
 20
-2.034103650757308
 30
0.0
  0
VERTEX
  5
167
  8
LAYER_1
 10
31.49088513069415
 20
-1.995104224179702
 30
0.0
  0
VERTEX
  5
168
  8
LAYER_1
 10
31.51040445343921
 20
-1.956221087874566
 30
0.0
  0
VERTEX
  5
169
  8
LAYER_1
 10
31.53076985706907
 20
-1.917374645063521
 30
0.0
  0
VERTEX
  5
16A
  8
LAYER_1
 10
31.55181403647293
 20
-1.878485298968182
 30
0.0
  0
VERTEX
  5
16B
  8
LAYER_1
 10
31.57336968653996
 20
-1.839473452810169
 30
0.0
  0
VERTEX
  5
16C
  8
LAYER_1
 10
31.61734617822034
 20
-1.760763873192594
 30
0.0
  0
VERTEX
  5
16D
  8
LAYER_1
 10
31.63943240961206
 20
-1.720906946176269
 30
0.0
  0
VERTEX
  5
16E
  8
LAYER_1
 10
31.66136089122373
 20
-1.680609131983744
 30
0.0
  0
VERTEX
  5
16F
  8
LAYER_1
 10
31.68088025759379
 20
-1.644928693302263
 30
0.0
  0
VERTEX
  5
170
  8
LAYER_1
 10
31.70099290160778
 20
-1.60940690949709
 30
0.0
  0
VERTEX
  5
171
  8
LAYER_1
 10
31.72168900946973
 20
-1.57405668457664
 30
0.0
  0
VERTEX
  5
172
  8
LAYER_1
 10
31.74295876738366
 20
-1.538890922549333
 30
0.0
  0
VERTEX
  5
173
  8
LAYER_1
 10
31.76479236155362
 20
-1.503922527423585
 30
0.0
  0
VERTEX
  5
174
  8
LAYER_1
 10
31.78717997818362
 20
-1.469164403207813
 30
0.0
  0
VERTEX
  5
175
  8
LAYER_1
 10
31.81011180347769
 20
-1.434629453910434
 30
0.0
  0
VERTEX
  5
176
  8
LAYER_1
 10
31.83357802363987
 20
-1.400330583539867
 30
0.0
  0
VERTEX
  5
177
  8
LAYER_1
 10
31.85756882487419
 20
-1.366280696104528
 30
0.0
  0
VERTEX
  5
178
  8
LAYER_1
 10
31.88207439338466
 20
-1.332492695612833
 30
0.0
  0
VERTEX
  5
179
  8
LAYER_1
 10
31.90708491537534
 20
-1.298979486073202
 30
0.0
  0
VERTEX
  5
17A
  8
LAYER_1
 10
31.93259057705023
 20
-1.26575397149405
 30
0.0
  0
VERTEX
  5
17B
  8
LAYER_1
 10
31.95858156461337
 20
-1.232829055883796
 30
0.0
  0
VERTEX
  5
17C
  8
LAYER_1
 10
31.9850480642688
 20
-1.200217643250856
 30
0.0
  0
VERTEX
  5
17D
  8
LAYER_1
 10
32.01198026222053
 20
-1.167932637603648
 30
0.0
  0
VERTEX
  5
17E
  8
LAYER_1
 10
32.0393683446726
 20
-1.135986942950588
 30
0.0
  0
VERTEX
  5
17F
  8
LAYER_1
 10
32.06720249782904
 20
-1.104393463300095
 30
0.0
  0
VERTEX
  5
180
  8
LAYER_1
 10
32.09547290789388
 20
-1.073165102660586
 30
0.0
  0
VERTEX
  5
181
  8
LAYER_1
 10
32.12416976107114
 20
-1.042314765040477
 30
0.0
  0
VERTEX
  5
182
  8
LAYER_1
 10
32.15328324356486
 20
-1.011855354448187
 30
0.0
  0
VERTEX
  5
183
  8
LAYER_1
 10
32.18280354157906
 20
-0.9817997748921319
 30
0.0
  0
VERTEX
  5
184
  8
LAYER_1
 10
32.21272084131779
 20
-0.9521609303807296
 30
0.0
  0
VERTEX
  5
185
  8
LAYER_1
 10
32.24302532898506
 20
-0.9229517249223972
 30
0.0
  0
VERTEX
  5
186
  8
LAYER_1
 10
32.27370719078489
 20
-0.8941850625255521
 30
0.0
  0
VERTEX
  5
187
  8
LAYER_1
 10
32.30475661292132
 20
-0.8658738471986115
 30
0.0
  0
VERTEX
  5
188
  8
LAYER_1
 10
32.33616378159839
 20
-0.8380309829499926
 30
0.0
  0
VERTEX
  5
189
  8
LAYER_1
 10
32.36791888302012
 20
-0.8106693737881127
 30
0.0
  0
VERTEX
  5
18A
  8
LAYER_1
 10
32.40001210339054
 20
-0.783801923721389
 30
0.0
  0
VERTEX
  5
18B
  8
LAYER_1
 10
32.43243362891367
 20
-0.757441536758239
 30
0.0
  0
VERTEX
  5
18C
  8
LAYER_1
 10
32.46517364579356
 20
-0.7316011169070799
 30
0.0
  0
VERTEX
  5
18D
  8
LAYER_1
 10
32.49822234023421
 20
-0.7062935681763288
 30
0.0
  0
VERTEX
  5
18E
  8
LAYER_1
 10
32.53156989843967
 20
-0.6815317945744033
 30
0.0
  0
VERTEX
  5
18F
  8
LAYER_1
 10
32.56520650661397
 20
-0.6573287001097203
 30
0.0
  0
VERTEX
  5
190
  8
LAYER_1
 10
32.59912235096113
 20
-0.6336971887906974
 30
0.0
  0
VERTEX
  5
191
  8
LAYER_1
 10
32.63330761768519
 20
-0.6106501646257516
 30
0.0
  0
VERTEX
  5
192
  8
LAYER_1
 10
32.66775249299018
 20
-0.5882005316233005
 30
0.0
  0
VERTEX
  5
193
  8
LAYER_1
 10
32.70244716308011
 20
-0.5663611937917611
 30
0.0
  0
VERTEX
  5
194
  8
LAYER_1
 10
32.73738181415902
 20
-0.5451450551395507
 30
0.0
  0
VERTEX
  5
195
  8
LAYER_1
 10
32.77254663243095
 20
-0.5245650196750866
 30
0.0
  0
VERTEX
  5
196
  8
LAYER_1
 10
32.80793180409991
 20
-0.5046339914067862
 30
0.0
  0
VERTEX
  5
197
  8
LAYER_1
 10
32.84352751536994
 20
-0.4853648743430666
 30
0.0
  0
VERTEX
  5
198
  8
LAYER_1
 10
32.87932395244507
 20
-0.4667705724923452
 30
0.0
  0
VERTEX
  5
199
  8
LAYER_1
 10
32.91531130152933
 20
-0.4488639898630393
 30
0.0
  0
VERTEX
  5
19A
  8
LAYER_1
 10
32.95147974882675
 20
-0.431658030463566
 30
0.0
  0
VERTEX
  5
19B
  8
LAYER_1
 10
32.98781948054135
 20
-0.4151655983023427
 30
0.0
  0
VERTEX
  5
19C
  8
LAYER_1
 10
33.02432068287717
 20
-0.3993995973877866
 30
0.0
  0
VERTEX
  5
19D
  8
LAYER_1
 10
33.06097354203823
 20
-0.3843729317283151
 30
0.0
  0
VERTEX
  5
19E
  8
LAYER_1
 10
33.09776824422856
 20
-0.3700985053323455
 30
0.0
  0
VERTEX
  5
19F
  8
LAYER_1
 10
33.1346949756522
 20
-0.3565892222082948
 30
0.0
  0
VERTEX
  5
1A0
  8
LAYER_1
 10
33.17174392251316
 20
-0.3438579863645805
 30
0.0
  0
VERTEX
  5
1A1
  8
LAYER_1
 10
33.20890527101549
 20
-0.3319177018096199
 30
0.0
  0
VERTEX
  5
1A2
  8
LAYER_1
 10
33.24616920736321
 20
-0.3207812725518301
 30
0.0
  0
VERTEX
  5
1A3
  8
LAYER_1
 10
33.28352591776035
 20
-0.3104616025996285
 30
0.0
  0
VERTEX
  5
1A4
  8
LAYER_1
 10
33.32096558841094
 20
-0.3009715959614324
 30
0.0
  0
VERTEX
  5
1A5
  8
LAYER_1
 10
33.35847840551899
 20
-0.2923241566456589
 30
0.0
  0
VERTEX
  5
1A6
  8
LAYER_1
 10
33.39605455528857
 20
-0.2845321886607255
 30
0.0
  0
VERTEX
  5
1A7
  8
LAYER_1
 10
33.43368422392368
 20
-0.2776085960150494
 30
0.0
  0
VERTEX
  5
1A8
  8
LAYER_1
 10
33.47135759762836
 20
-0.2715662827170479
 30
0.0
  0
VERTEX
  5
1A9
  8
LAYER_1
 10
33.50906486260662
 20
-0.266418152775138
 30
0.0
  0
VERTEX
  5
1AA
  8
LAYER_1
 10
33.54679620506251
 20
-0.2621771101977374
 30
0.0
  0
VERTEX
  5
1AB
  8
LAYER_1
 10
33.58454181120005
 20
-0.258856058993263
 30
0.0
  0
VERTEX
  5
1AC
  8
LAYER_1
 10
33.62229186722328
 20
-0.2564679031701324
 30
0.0
  0
VERTEX
  5
1AD
  8
LAYER_1
 10
33.66003655933623
 20
-0.2550255467367627
 30
0.0
  0
VERTEX
  5
1AE
  8
LAYER_1
 10
33.6977660737429
 20
-0.2545418937015711
 30
0.0
  0
VERTEX
  5
1AF
  8
LAYER_1
 10
44.38526607377569
 20
-0.2545418937120161
 30
0.0
  0
VERTEX
  5
1B0
  8
LAYER_1
 10
44.43300204697065
 20
-0.2546971936107132
 30
0.0
  0
VERTEX
  5
1B1
  8
LAYER_1
 10
44.48106387435661
 20
-0.2557275074640792
 30
0.0
  0
VERTEX
  5
1B2
  8
LAYER_1
 10
44.52940081504225
 20
-0.2576451383934507
 30
0.0
  0
VERTEX
  5
1B3
  8
LAYER_1
 10
44.57796212813628
 20
-0.2604623895201642
 30
0.0
  0
VERTEX
  5
1B4
  8
LAYER_1
 10
44.62669707274738
 20
-0.2641915639655563
 30
0.0
  0
VERTEX
  5
1B5
  8
LAYER_1
 10
44.67555490798425
 20
-0.2688449648509635
 30
0.0
  0
VERTEX
  5
1B6
  8
LAYER_1
 10
44.72448489295557
 20
-0.2744348952977225
 30
0.0
  0
VERTEX
  5
1B7
  8
LAYER_1
 10
44.77343628677004
 20
-0.2809736584271697
 30
0.0
  0
VERTEX
  5
1B8
  8
LAYER_1
 10
44.82235834853634
 20
-0.2884735573606417
 30
0.0
  0
VERTEX
  5
1B9
  8
LAYER_1
 10
44.87120033736318
 20
-0.2969468952194753
 30
0.0
  0
VERTEX
  5
1BA
  8
LAYER_1
 10
44.91991151235925
 20
-0.3064059751250067
 30
0.0
  0
VERTEX
  5
1BB
  8
LAYER_1
 10
44.96844113263323
 20
-0.3168631001985727
 30
0.0
  0
VERTEX
  5
1BC
  8
LAYER_1
 10
45.01673845729381
 20
-0.3283305735615099
 30
0.0
  0
VERTEX
  5
1BD
  8
LAYER_1
 10
45.0647527454497
 20
-0.3408206983351546
 30
0.0
  0
VERTEX
  5
1BE
  8
LAYER_1
 10
45.11243325620958
 20
-0.3543457776408436
 30
0.0
  0
VERTEX
  5
1BF
  8
LAYER_1
 10
45.15972924868215
 20
-0.3689181145999134
 30
0.0
  0
VERTEX
  5
1C0
  8
LAYER_1
 10
45.20658998197609
 20
-0.3845500123337006
 30
0.0
  0
VERTEX
  5
1C1
  8
LAYER_1
 10
45.25296471520009
 20
-0.4012537739635417
 30
0.0
  0
VERTEX
  5
1C2
  8
LAYER_1
 10
45.27595397525732
 20
-0.4100114484649002
 30
0.0
  0
VERTEX
  5
1C3
  8
LAYER_1
 10
45.29880270746284
 20
-0.4190417026107733
 30
0.0
  0
VERTEX
  5
1C4
  8
LAYER_1
 10
45.32150456920522
 20
-0.4283460742913283
 30
0.0
  0
VERTEX
  5
1C5
  8
LAYER_1
 10
45.34405321787305
 20
-0.437926101396732
 30
0.0
  0
VERTEX
  5
1C6
  8
LAYER_1
 10
45.36644231085492
 20
-0.4477833218171517
 30
0.0
  0
VERTEX
  5
1C7
  8
LAYER_1
 10
45.38866550553941
 20
-0.4579192734427543
 30
0.0
  0
VERTEX
  5
1C8
  8
LAYER_1
 10
45.4107164593151
 20
-0.468335494163707
 30
0.0
  0
VERTEX
  5
1C9
  8
LAYER_1
 10
45.43258882957058
 20
-0.4790335218701768
 30
0.0
  0
VERTEX
  5
1CA
  8
LAYER_1
 10
45.45427627369445
 20
-0.4900148944523308
 30
0.0
  0
VERTEX
  5
1CB
  8
LAYER_1
 10
45.47577244907529
 20
-0.5012811498003361
 30
0.0
  0
VERTEX
  5
1CC
  8
LAYER_1
 10
45.49707101310169
 20
-0.5128338258043597
 30
0.0
  0
VERTEX
  5
1CD
  8
LAYER_1
 10
45.51816562316222
 20
-0.5246744603545687
 30
0.0
  0
VERTEX
  5
1CE
  8
LAYER_1
 10
45.53904993664548
 20
-0.5368045913411302
 30
0.0
  0
VERTEX
  5
1CF
  8
LAYER_1
 10
45.55971761094006
 20
-0.5492257566542111
 30
0.0
  0
VERTEX
  5
1D0
  8
LAYER_1
 10
45.58016230343453
 20
-0.5619394941839788
 30
0.0
  0
VERTEX
  5
1D1
  8
LAYER_1
 10
45.60037767151749
 20
-0.5749473418206001
 30
0.0
  0
VERTEX
  5
1D2
  8
LAYER_1
 10
45.62035737257753
 20
-0.5882508374542422
 30
0.0
  0
VERTEX
  5
1D3
  8
LAYER_1
 10
45.64009506400322
 20
-0.601851518975072
 30
0.0
  0
VERTEX
  5
1D4
  8
LAYER_1
 10
45.65958440318315
 20
-0.6157509242732567
 30
0.0
  0
VERTEX
  5
1D5
  8
LAYER_1
 10
45.67881904750593
 20
-0.6299505912389636
 30
0.0
  0
VERTEX
  5
1D6
  8
LAYER_1
 10
45.69779265436011
 20
-0.6444520577623594
 30
0.0
  0
VERTEX
  5
1D7
  8
LAYER_1
 10
45.71649888113431
 20
-0.6592568617336112
 30
0.0
  0
VERTEX
  5
1D8
  8
LAYER_1
 10
45.73493138521711
 20
-0.6743665410428863
 30
0.0
  0
VERTEX
  5
1D9
  8
LAYER_1
 10
45.75308382399707
 20
-0.6897826335803516
 30
0.0
  0
VERTEX
  5
1DA
  8
LAYER_1
 10
45.77094985486281
 20
-0.7055066772361744
 30
0.0
  0
VERTEX
  5
1DB
  8
LAYER_1
 10
45.78852313520289
 20
-0.7215402099005214
 30
0.0
  0
VERTEX
  5
1DC
  8
LAYER_1
 10
45.80579732240591
 20
-0.7378847694635597
 30
0.0
  0
VERTEX
  5
1DD
  8
LAYER_1
 10
45.82276607386044
 20
-0.7545418938154569
 30
0.0
  0
VERTEX
  5
1DE
  8
LAYER_1
 10
46.32276607384222
 20
-1.254541893793643
 30
0.0
  0
VERTEX
  5
1DF
  8
LAYER_1
 10
46.3330255013689
 20
-1.264335281354045
 30
0.0
  0
VERTEX
  5
1E0
  8
LAYER_1
 10
46.34368513873407
 20
-1.273617555489562
 30
0.0
  0
VERTEX
  5
1E1
  8
LAYER_1
 10
46.35472698074403
 20
-1.28240184601003
 30
0.0
  0
VERTEX
  5
1E2
  8
LAYER_1
 10
46.36613302220508
 20
-1.290701282725281
 30
0.0
  0
VERTEX
  5
1E3
  8
LAYER_1
 10
46.37788525792351
 20
-1.298528995445149
 30
0.0
  0
VERTEX
  5
1E4
  8
LAYER_1
 10
46.38996568270561
 20
-1.305898113979469
 30
0.0
  0
VERTEX
  5
1E5
  8
LAYER_1
 10
46.4023562913577
 20
-1.312821768138072
 30
0.0
  0
VERTEX
  5
1E6
  8
LAYER_1
 10
46.41503907868605
 20
-1.319313087730794
 30
0.0
  0
VERTEX
  5
1E7
  8
LAYER_1
 10
46.42799603949696
 20
-1.325385202567468
 30
0.0
  0
VERTEX
  5
1E8
  8
LAYER_1
 10
46.44120916859674
 20
-1.331051242457927
 30
0.0
  0
VERTEX
  5
1E9
  8
LAYER_1
 10
46.45466046079167
 20
-1.336324337212006
 30
0.0
  0
VERTEX
  5
1EA
  8
LAYER_1
 10
46.46833191088805
 20
-1.341217616639538
 30
0.0
  0
VERTEX
  5
1EB
  8
LAYER_1
 10
46.48220551369219
 20
-1.345744210550357
 30
0.0
  0
VERTEX
  5
1EC
  8
LAYER_1
 10
46.49626326401036
 20
-1.349917248754295
 30
0.0
  0
VERTEX
  5
1ED
  8
LAYER_1
 10
46.51048715664887
 20
-1.353749861061188
 30
0.0
  0
VERTEX
  5
1EE
  8
LAYER_1
 10
46.52485918641402
 20
-1.357255177280868
 30
0.0
  0
VERTEX
  5
1EF
  8
LAYER_1
 10
46.5393613481121
 20
-1.360446327223169
 30
0.0
  0
VERTEX
  5
1F0
  8
LAYER_1
 10
46.5539756365494
 20
-1.363336440697926
 30
0.0
  0
VERTEX
  5
1F1
  8
LAYER_1
 10
46.58346857286686
 20
-1.368266077484139
 30
0.0
  0
VERTEX
  5
1F2
  8
LAYER_1
 10
46.61319395381678
 20
-1.372149126118176
 30
0.0
  0
VERTEX
  5
1F3
  8
LAYER_1
 10
46.6430077378495
 20
-1.375090625078706
 30
0.0
  0
VERTEX
  5
1F4
  8
LAYER_1
 10
46.67276588341541
 20
-1.3771956128444
 30
0.0
  0
VERTEX
  5
1F5
  8
LAYER_1
 10
46.70232434896486
 20
-1.378569127893926
 30
0.0
  0
VERTEX
  5
1F6
  8
LAYER_1
 10
46.73153909294824
 20
-1.379316208705954
 30
0.0
  0
VERTEX
  5
1F7
  8
LAYER_1
 10
46.76026607381588
 20
-1.379541893759153
 30
0.0
  0
VERTEX
  5
1F8
  8
LAYER_1
 10
67.19776607382414
 20
-1.379541893765335
 30
0.0
  0
VERTEX
  5
1F9
  8
LAYER_1
 10
67.27757339445134
 20
-1.379870817851111
 30
0.0
  0
VERTEX
  5
1FA
  8
LAYER_1
 10
67.36079419331645
 20
-1.38093328085136
 30
0.0
  0
VERTEX
  5
1FB
  8
LAYER_1
 10
67.4470384664948
 20
-1.382842818880533
 30
0.0
  0
VERTEX
  5
1FC
  8
LAYER_1
 10
67.53591621006186
 20
-1.385712968053084
 30
0.0
  0
VERTEX
  5
1FD
  8
LAYER_1
 10
67.62703742009295
 20
-1.389657264483462
 30
0.0
  0
VERTEX
  5
1FE
  8
LAYER_1
 10
67.7200120926635
 20
-1.394789244286122
 30
0.0
  0
VERTEX
  5
1FF
  8
LAYER_1
 10
67.76707260117462
 20
-1.397836095487823
 30
0.0
  0
VERTEX
  5
200
  8
LAYER_1
 10
67.81445022384887
 20
-1.401222443575513
 30
0.0
  0
VERTEX
  5
201
  8
LAYER_1
 10
67.86209621019569
 20
-1.4049624805635
 30
0.0
  0
VERTEX
  5
202
  8
LAYER_1
 10
67.90996180972448
 20
-1.409070398466089
 30
0.0
  0
VERTEX
  5
203
  8
LAYER_1
 10
67.95799827194467
 20
-1.413560389297587
 30
0.0
  0
VERTEX
  5
204
  8
LAYER_1
 10
68.00615684636571
 20
-1.418446645072301
 30
0.0
  0
VERTEX
  5
205
  8
LAYER_1
 10
68.05438878249699
 20
-1.423743357804537
 30
0.0
  0
VERTEX
  5
206
  8
LAYER_1
 10
68.10264532984795
 20
-1.429464719508602
 30
0.0
  0
VERTEX
  5
207
  8
LAYER_1
 10
68.15087773792801
 20
-1.435624922198801
 30
0.0
  0
VERTEX
  5
208
  8
LAYER_1
 10
68.19903725624661
 20
-1.442238157889442
 30
0.0
  0
VERTEX
  5
209
  8
LAYER_1
 10
68.24707513431315
 20
-1.449318618594831
 30
0.0
  0
VERTEX
  5
20A
  8
LAYER_1
 10
68.29494262163705
 20
-1.456880496329274
 30
0.0
  0
VERTEX
  5
20B
  8
LAYER_1
 10
68.34259096772774
 20
-1.464937983107078
 30
0.0
  0
VERTEX
  5
20C
  8
LAYER_1
 10
68.38997142209467
 20
-1.47350527094255
 30
0.0
  0
VERTEX
  5
20D
  8
LAYER_1
 10
68.43703523424725
 20
-1.482596551849995
 30
0.0
  0
VERTEX
  5
20E
  8
LAYER_1
 10
68.48373365369487
 20
-1.492226017843721
 30
0.0
  0
VERTEX
  5
20F
  8
LAYER_1
 10
68.530017929947
 20
-1.502407860938034
 30
0.0
  0
VERTEX
  5
210
  8
LAYER_1
 10
68.57583931251304
 20
-1.51315627314724
 30
0.0
  0
VERTEX
  5
211
  8
LAYER_1
 10
68.62114905090243
 20
-1.524485446485646
 30
0.0
  0
VERTEX
  5
212
  8
LAYER_1
 10
68.66589839462458
 20
-1.536409572967558
 30
0.0
  0
VERTEX
  5
213
  8
LAYER_1
 10
68.71003859318891
 20
-1.548942844607283
 30
0.0
  0
VERTEX
  5
214
  8
LAYER_1
 10
68.75352089610485
 20
-1.562099453419127
 30
0.0
  0
VERTEX
  5
215
  8
LAYER_1
 10
68.79629655288184
 20
-1.575893591417397
 30
0.0
  0
VERTEX
  5
216
  8
LAYER_1
 10
68.83831681302927
 20
-1.5903394506164
 30
0.0
  0
VERTEX
  5
217
  8
LAYER_1
 10
68.87953292605658
 20
-1.605451223030441
 30
0.0
  0
VERTEX
  5
218
  8
LAYER_1
 10
68.9198961414732
 20
-1.621243100673828
 30
0.0
  0
VERTEX
  5
219
  8
LAYER_1
 10
68.95935770878856
 20
-1.637729275560866
 30
0.0
  0
VERTEX
  5
21A
  8
LAYER_1
 10
68.99786887751208
 20
-1.654923939705863
 30
0.0
  0
VERTEX
  5
21B
  8
LAYER_1
 10
69.03538089715317
 20
-1.672841285123124
 30
0.0
  0
VERTEX
  5
21C
  8
LAYER_1
 10
69.07184501722125
 20
-1.691495503826956
 30
0.0
  0
VERTEX
  5
21D
  8
LAYER_1
 10
69.08966888038711
 20
-1.701103375665807
 30
0.0
  0
VERTEX
  5
21E
  8
LAYER_1
 10
69.10721248722578
 20
-1.710900787831666
 30
0.0
  0
VERTEX
  5
21F
  8
LAYER_1
 10
69.12446974392589
 20
-1.720889514326321
 30
0.0
  0
VERTEX
  5
220
  8
LAYER_1
 10
69.14143455667613
 20
-1.73107132915156
 30
0.0
  0
VERTEX
  5
221
  8
LAYER_1
 10
69.1581008316652
 20
-1.741448006309172
 30
0.0
  0
VERTEX
  5
222
  8
LAYER_1
 10
69.17446247508177
 20
-1.752021319800945
 30
0.0
  0
VERTEX
  5
223
  8
LAYER_1
 10
69.19051339311451
 20
-1.762793043628667
 30
0.0
  0
VERTEX
  5
224
  8
LAYER_1
 10
69.2062474919521
 20
-1.773764951794127
 30
0.0
  0
VERTEX
  5
225
  8
LAYER_1
 10
69.22165867778321
 20
-1.784938818299113
 30
0.0
  0
VERTEX
  5
226
  8
LAYER_1
 10
69.23674085679656
 20
-1.796316417145413
 30
0.0
  0
VERTEX
  5
227
  8
LAYER_1
 10
69.25148793518076
 20
-1.807899522334815
 30
0.0
  0
VERTEX
  5
228
  8
LAYER_1
 10
69.26589381912454
 20
-1.819689907869109
 30
0.0
  0
VERTEX
  5
229
  8
LAYER_1
 10
69.27995241481656
 20
-1.831689347750081
 30
0.0
  0
VERTEX
  5
22A
  8
LAYER_1
 10
69.29365762844552
 20
-1.843899615979521
 30
0.0
  0
VERTEX
  5
22B
  8
LAYER_1
 10
69.30700336620004
 20
-1.856322486559217
 30
0.0
  0
VERTEX
  5
22C
  8
LAYER_1
 10
69.31998353426886
 20
-1.868959733490956
 30
0.0
  0
VERTEX
  5
22D
  8
LAYER_1
 10
69.33259203884063
 20
-1.881813130776529
 30
0.0
  0
VERTEX
  5
22E
  8
LAYER_1
 10
69.34482278610406
 20
-1.894884452417722
 30
0.0
  0
VERTEX
  5
22F
  8
LAYER_1
 10
69.35666968224777
 20
-1.908175472416324
 30
0.0
  0
VERTEX
  5
230
  8
LAYER_1
 10
69.36812663346046
 20
-1.921687964774123
 30
0.0
  0
VERTEX
  5
231
  8
LAYER_1
 10
69.37918754593082
 20
-1.935423703492908
 30
0.0
  0
VERTEX
  5
232
  8
LAYER_1
 10
69.38984632584754
 20
-1.949384462574467
 30
0.0
  0
VERTEX
  5
233
  8
LAYER_1
 10
69.40009687939929
 20
-1.963572016020588
 30
0.0
  0
VERTEX
  5
234
  8
LAYER_1
 10
69.40993311277472
 20
-1.977988137833059
 30
0.0
  0
VERTEX
  5
235
  8
LAYER_1
 10
69.41934893216253
 20
-1.992634602013669
 30
0.0
  0
VERTEX
  5
236
  8
LAYER_1
 10
69.4283382437514
 20
-2.007513182564207
 30
0.0
  0
VERTEX
  5
237
  8
LAYER_1
 10
69.43689495373
 20
-2.022625653486461
 30
0.0
  0
VERTEX
  5
238
  8
LAYER_1
 10
69.44501296828702
 20
-2.037973788782217
 30
0.0
  0
VERTEX
  5
239
  8
LAYER_1
 10
69.45268619361113
 20
-2.053559362453266
 30
0.0
  0
VERTEX
  5
23A
  8
LAYER_1
 10
69.459908535891
 20
-2.069384148501396
 30
0.0
  0
VERTEX
  5
23B
  8
LAYER_1
 10
69.46667390131532
 20
-2.085449920928395
 30
0.0
  0
VERTEX
  5
23C
  8
LAYER_1
 10
69.47297619607275
 20
-2.10175845373605
 30
0.0
  0
VERTEX
  5
23D
  8
LAYER_1
 10
69.478809326352
 20
-2.11831152092615
 30
0.0
  0
VERTEX
  5
23E
  8
LAYER_1
 10
69.48416719834174
 20
-2.135110896500485
 30
0.0
  0
VERTEX
  5
23F
  8
LAYER_1
 10
69.48904371823062
 20
-2.152158354460841
 30
0.0
  0
VERTEX
  5
240
  8
LAYER_1
 10
69.49343279220733
 20
-2.169455668809008
 30
0.0
  0
VERTEX
  5
241
  8
LAYER_1
 10
69.49732832646056
 20
-2.187004613546773
 30
0.0
  0
VERTEX
  5
242
  8
LAYER_1
 10
69.50072422717898
 20
-2.204806962675926
 30
0.0
  0
VERTEX
  5
243
  8
LAYER_1
 10
69.50361440055127
 20
-2.222864490198253
 30
0.0
  0
VERTEX
  5
244
  8
LAYER_1
 10
69.5059927527661
 20
-2.241178970115544
 30
0.0
  0
VERTEX
  5
245
  8
LAYER_1
 10
69.50785319001218
 20
-2.259752176429587
 30
0.0
  0
VERTEX
  5
246
  8
LAYER_1
 10
69.50918961847816
 20
-2.27858588314217
 30
0.0
  0
VERTEX
  5
247
  8
LAYER_1
 10
69.50999594435271
 20
-2.297681864255082
 30
0.0
  0
VERTEX
  5
248
  8
LAYER_1
 10
69.51026607382451
 20
-2.31704189377011
 30
0.0
  0
VERTEX
  5
249
  8
LAYER_1
 10
69.51026607382451
 20
-30.31704189377054
 30
0.0
  0
VERTEX
  5
24A
  8
LAYER_1
 10
5.260266073827829
 20
-30.31704189377053
 30
0.0
  0
VERTEX
  5
24B
  8
LAYER_1
 10
5.236805192037492
 20
-30.31658456918897
 30
0.0
  0
VERTEX
  5
24C
  8
LAYER_1
 10
5.213459626324697
 20
-30.3152241933096
 30
0.0
  0
VERTEX
  5
24D
  8
LAYER_1
 10
5.190235833564021
 20
-30.31297816293036
 30
0.0
  0
VERTEX
  5
24E
  8
LAYER_1
 10
5.167140270630036
 20
-30.30986387484919
 30
0.0
  0
VERTEX
  5
24F
  8
LAYER_1
 10
5.144179394397317
 20
-30.30589872586405
 30
0.0
  0
VERTEX
  5
250
  8
LAYER_1
 10
5.121359661740438
 20
-30.30110011277287
 30
0.0
  0
VERTEX
  5
251
  8
LAYER_1
 10
5.098687529533976
 20
-30.29548543237361
 30
0.0
  0
VERTEX
  5
252
  8
LAYER_1
 10
5.076169454652502
 20
-30.28907208146421
 30
0.0
  0
VERTEX
  5
253
  8
LAYER_1
 10
5.053811893970593
 20
-30.28187745684261
 30
0.0
  0
VERTEX
  5
254
  8
LAYER_1
 10
5.031621304362824
 20
-30.27391895530676
 30
0.0
  0
VERTEX
  5
255
  8
LAYER_1
 10
5.009604142703767
 20
-30.26521397365461
 30
0.0
  0
VERTEX
  5
256
  8
LAYER_1
 10
4.987766865867999
 20
-30.25577990868411
 30
0.0
  0
VERTEX
  5
257
  8
LAYER_1
 10
4.966115930730092
 20
-30.24563415719319
 30
0.0
  0
VERTEX
  5
258
  8
LAYER_1
 10
4.944657794164623
 20
-30.23479411597981
 30
0.0
  0
VERTEX
  5
259
  8
LAYER_1
 10
4.923398913046166
 20
-30.2232771818419
 30
0.0
  0
VERTEX
  5
25A
  8
LAYER_1
 10
4.902345744249294
 20
-30.21110075157743
 30
0.0
  0
VERTEX
  5
25B
  8
LAYER_1
 10
4.881504744648582
 20
-30.19828222198433
 30
0.0
  0
VERTEX
  5
25C
  8
LAYER_1
 10
4.860882371118605
 20
-30.18483898986054
 30
0.0
  0
VERTEX
  5
25D
  8
LAYER_1
 10
4.840485080533938
 20
-30.17078845200402
 30
0.0
  0
VERTEX
  5
25E
  8
LAYER_1
 10
4.820319329769154
 20
-30.15614800521271
 30
0.0
  0
VERTEX
  5
25F
  8
LAYER_1
 10
4.800391575698829
 20
-30.14093504628455
 30
0.0
  0
VERTEX
  5
260
  8
LAYER_1
 10
4.780708275197536
 20
-30.1251669720175
 30
0.0
  0
VERTEX
  5
261
  8
LAYER_1
 10
4.761275885139852
 20
-30.10886117920949
 30
0.0
  0
VERTEX
  5
262
  8
LAYER_1
 10
4.742100862400349
 20
-30.09203506465848
 30
0.0
  0
VERTEX
  5
263
  8
LAYER_1
 10
4.723189663853603
 20
-30.0747060251624
 30
0.0
  0
VERTEX
  5
264
  8
LAYER_1
 10
4.704548746374187
 20
-30.05689145751921
 30
0.0
  0
VERTEX
  5
265
  8
LAYER_1
 10
4.686184566836678
 20
-30.03860875852685
 30
0.0
  0
VERTEX
  5
266
  8
LAYER_1
 10
4.668103582115648
 20
-30.01987532498327
 30
0.0
  0
VERTEX
  5
267
  8
LAYER_1
 10
4.650312249085673
 20
-30.00070855368641
 30
0.0
  0
VERTEX
  5
268
  8
LAYER_1
 10
4.632817024621326
 20
-29.98112584143421
 30
0.0
  0
VERTEX
  5
269
  8
LAYER_1
 10
4.615624365597183
 20
-29.96114458502464
 30
0.0
  0
VERTEX
  5
26A
  8
LAYER_1
 10
4.598740728887819
 20
-29.94078218125562
 30
0.0
  0
VERTEX
  5
26B
  8
LAYER_1
 10
4.582172571367806
 20
-29.92005602692511
 30
0.0
  0
VERTEX
  5
26C
  8
LAYER_1
 10
4.565926349911722
 20
-29.89898351883105
 30
0.0
  0
VERTEX
  5
26D
  8
LAYER_1
 10
4.550008521394138
 20
-29.87758205377139
 30
0.0
  0
VERTEX
  5
26E
  8
LAYER_1
 10
4.53442554268963
 20
-29.85586902854407
 30
0.0
  0
VERTEX
  5
26F
  8
LAYER_1
 10
4.519183870672773
 20
-29.83386183994704
 30
0.0
  0
VERTEX
  5
270
  8
LAYER_1
 10
4.504289962218141
 20
-29.81157788477825
 30
0.0
  0
VERTEX
  5
271
  8
LAYER_1
 10
4.489750274200308
 20
-29.78903455983563
 30
0.0
  0
VERTEX
  5
272
  8
LAYER_1
 10
4.475571263493849
 20
-29.76624926191715
 30
0.0
  0
VERTEX
  5
273
  8
LAYER_1
 10
4.461759386973339
 20
-29.74323938782073
 30
0.0
  0
VERTEX
  5
274
  8
LAYER_1
 10
4.448321101513352
 20
-29.72002233434434
 30
0.0
  0
VERTEX
  5
275
  8
LAYER_1
 10
4.435262863988463
 20
-29.69661549828591
 30
0.0
  0
VERTEX
  5
276
  8
LAYER_1
 10
4.422591131273245
 20
-29.67303627644339
 30
0.0
  0
VERTEX
  5
277
  8
LAYER_1
 10
4.410312360242274
 20
-29.64930206561473
 30
0.0
  0
VERTEX
  5
278
  8
LAYER_1
 10
4.398433007770125
 20
-29.62543026259786
 30
0.0
  0
VERTEX
  5
279
  8
LAYER_1
 10
4.386959530731371
 20
-29.60143826419075
 30
0.0
  0
VERTEX
  5
27A
  8
LAYER_1
 10
4.375898386000587
 20
-29.57734346719133
 30
0.0
  0
VERTEX
  5
27B
  8
LAYER_1
 10
4.365256030452349
 20
-29.55316326839755
 30
0.0
  0
VERTEX
  5
27C
  8
LAYER_1
 10
4.355038920961229
 20
-29.52891506460735
 30
0.0
  0
VERTEX
  5
27D
  8
LAYER_1
 10
4.345253514401803
 20
-29.50461625261869
 30
0.0
  0
VERTEX
  5
27E
  8
LAYER_1
 10
4.335906267648644
 20
-29.4802842292295
 30
0.0
  0
VERTEX
  5
27F
  8
LAYER_1
 10
4.327003637576329
 20
-29.45593639123774
 30
0.0
  0
VERTEX
  5
280
  8
LAYER_1
 10
4.318552081059431
 20
-29.43159013544135
 30
0.0
  0
VERTEX
  5
281
  8
LAYER_1
 10
4.310558054972524
 20
-29.40726285863827
 30
0.0
  0
VERTEX
  5
282
  8
LAYER_1
 10
4.303028016190183
 20
-29.38297195762645
 30
0.0
  0
VERTEX
  5
283
  8
LAYER_1
 10
4.295968421586982
 20
-29.35873482920384
 30
0.0
  0
VERTEX
  5
284
  8
LAYER_1
 10
4.289385728037498
 20
-29.33456887016838
 30
0.0
  0
VERTEX
  5
285
  8
LAYER_1
 10
4.283286392416302
 20
-29.31049147731802
 30
0.0
  0
VERTEX
  5
286
  8
LAYER_1
 10
4.277676871597972
 20
-29.2865200474507
 30
0.0
  0
VERTEX
  5
287
  8
LAYER_1
 10
4.27256362245708
 20
-29.26267197736437
 30
0.0
  0
VERTEX
  5
288
  8
LAYER_1
 10
4.267953101868201
 20
-29.23896466385698
 30
0.0
  0
VERTEX
  5
289
  8
LAYER_1
 10
4.263851766705911
 20
-29.21541550372648
 30
0.0
  0
VERTEX
  5
28A
  8
LAYER_1
 10
4.260266073844782
 20
-29.19204189377079
 30
0.0
  0
VERTEX
  5
28B
  8
LAYER_1
 10
1.135266074192863
 20
-7.317041893895762
 30
0.0
  0
VERTEX
  5
28C
  8
LAYER_1
 10
1.129732084536212
 20
-7.276100411473431
 30
0.0
  0
VERTEX
  5
28D
  8
LAYER_1
 10
1.124649194764968
 20
-7.233784322051158
 30
0.0
  0
VERTEX
  5
28E
  8
LAYER_1
 10
1.120058401275342
 20
-7.190192805570327
 30
0.0
  0
VERTEX
  5
28F
  8
LAYER_1
 10
1.116000700463549
 20
-7.145425041972324
 30
0.0
  0
VERTEX
  5
290
  8
LAYER_1
 10
1.112517088725801
 20
-7.099580211198531
 30
0.0
  0
VERTEX
  5
291
  8
LAYER_1
 10
1.109648562458312
 20
-7.052757493190335
 30
0.0
  0
VERTEX
  5
292
  8
LAYER_1
 10
1.107436118057296
 20
-7.005056067889119
 30
0.0
  0
VERTEX
  5
293
  8
LAYER_1
 10
1.105920751918965
 20
-6.956575115236269
 30
0.0
  0
VERTEX
  5
294
  8
LAYER_1
 10
1.105143460439534
 20
-6.907413815173169
 30
0.0
  0
VERTEX
  5
295
  8
LAYER_1
 10
1.105145240015215
 20
-6.857671347641204
 30
0.0
  0
VERTEX
  5
296
  8
LAYER_1
 10
1.105967087042222
 20
-6.807446892581757
 30
0.0
  0
VERTEX
  5
297
  8
LAYER_1
 10
1.107649997916768
 20
-6.756839629936214
 30
0.0
  0
VERTEX
  5
298
  8
LAYER_1
 10
1.110234969035067
 20
-6.70594873964596
 30
0.0
  0
VERTEX
  5
299
  8
LAYER_1
 10
1.113762996793331
 20
-6.654873401652379
 30
0.0
  0
VERTEX
  5
29A
  8
LAYER_1
 10
1.118275077587775
 20
-6.603712795896854
 30
0.0
  0
VERTEX
  5
29B
  8
LAYER_1
 10
1.123812207814611
 20
-6.552566102320773
 30
0.0
  0
VERTEX
  5
29C
  8
LAYER_1
 10
1.130415383870053
 20
-6.501532500865517
 30
0.0
  0
VERTEX
  5
29D
  8
LAYER_1
 10
1.138125602150314
 20
-6.450711171472475
 30
0.0
  0
VERTEX
  5
29E
  8
LAYER_1
 10
1.142408663498569
 20
-6.425411102530965
 30
0.0
  0
VERTEX
  5
29F
  8
LAYER_1
 10
1.146983859051608
 20
-6.400201294083027
 30
0.0
  0
VERTEX
  5
2A0
  8
LAYER_1
 10
1.151856313358959
 20
-6.375094143621335
 30
0.0
  0
VERTEX
  5
2A1
  8
LAYER_1
 10
1.157031150970148
 20
-6.350102048638561
 30
0.0
  0
VERTEX
  5
2A2
  8
LAYER_1
 10
1.162513496434702
 20
-6.325237406627378
 30
0.0
  0
VERTEX
  5
2A3
  8
LAYER_1
 10
1.168308474302148
 20
-6.30051261508046
 30
0.0
  0
VERTEX
  5
2A4
  8
LAYER_1
 10
1.174421209122011
 20
-6.275940071490479
 30
0.0
  0
VERTEX
  5
2A5
  8
LAYER_1
 10
1.180856825443819
 20
-6.251532173350109
 30
0.0
  0
VERTEX
  5
2A6
  8
LAYER_1
 10
1.187620447817099
 20
-6.227301318152021
 30
0.0
  0
VERTEX
  5
2A7
  8
LAYER_1
 10
1.194717200791377
 20
-6.203259903388892
 30
0.0
  0
VERTEX
  5
2A8
  8
LAYER_1
 10
1.20215220891618
 20
-6.179420326553391
 30
0.0
  0
VERTEX
  5
2A9
  8
LAYER_1
 10
1.209930596741035
 20
-6.155794985138193
 30
0.0
  0
VERTEX
  5
2AA
  8
LAYER_1
 10
1.218057488815467
 20
-6.13239627663597
 30
0.0
  0
VERTEX
  5
2AB
  8
LAYER_1
 10
1.226538009689004
 20
-6.109236598539399
 30
0.0
  0
VERTEX
  5
2AC
  8
LAYER_1
 10
1.235377283911173
 20
-6.086328348341148
 30
0.0
  0
VERTEX
  5
2AD
  8
LAYER_1
 10
1.2445804360315
 20
-6.063683923533892
 30
0.0
  0
VERTEX
  5
2AE
  8
LAYER_1
 10
1.254152590599512
 20
-6.041315721610305
 30
0.0
  0
VERTEX
  5
2AF
  8
LAYER_1
 10
1.264098872164736
 20
-6.019236140063059
 30
0.0
  0
VERTEX
  5
2B0
  8
LAYER_1
 10
1.274424405276697
 20
-5.997457576384827
 30
0.0
  0
VERTEX
  5
2B1
  8
LAYER_1
 10
1.285134314484924
 20
-5.975992428068283
 30
0.0
  0
VERTEX
  5
2B2
  8
LAYER_1
 10
1.296233724338942
 20
-5.954853092606099
 30
0.0
  0
VERTEX
  5
2B3
  8
LAYER_1
 10
1.307727759388278
 20
-5.93405196749095
 30
0.0
  0
VERTEX
  5
2B4
  8
LAYER_1
 10
1.319621544182459
 20
-5.913601450215507
 30
0.0
  0
VERTEX
  5
2B5
  8
LAYER_1
 10
1.331920203271012
 20
-5.893513938272443
 30
0.0
  0
VERTEX
  5
2B6
  8
LAYER_1
 10
1.344628861203463
 20
-5.873801829154432
 30
0.0
  0
VERTEX
  5
2B7
  8
LAYER_1
 10
1.357752642529338
 20
-5.854477520354147
 30
0.0
  0
VERTEX
  5
2B8
  8
LAYER_1
 10
1.371296671798166
 20
-5.835553409364262
 30
0.0
  0
VERTEX
  5
2B9
  8
LAYER_1
 10
1.385266073559471
 20
-5.817041893677448
 30
0.0
  0
VERTEX
  5
2BA
  8
LAYER_1
 10
1.399122679495772
 20
-5.799609556866867
 30
0.0
  0
VERTEX
  5
2BB
  8
LAYER_1
 10
1.413354204090415
 20
-5.782575809310565
 30
0.0
  0
VERTEX
  5
2BC
  8
LAYER_1
 10
1.427952723025167
 20
-5.76593464135079
 30
0.0
  0
VERTEX
  5
2BD
  8
LAYER_1
 10
1.442910311981797
 20
-5.749680043329789
 30
0.0
  0
VERTEX
  5
2BE
  8
LAYER_1
 10
1.458219046642072
 20
-5.733806005589809
 30
0.0
  0
VERTEX
  5
2BF
  8
LAYER_1
 10
1.473871002687761
 20
-5.718306518473096
 30
0.0
  0
VERTEX
  5
2C0
  8
LAYER_1
 10
1.48985825580063
 20
-5.703175572321895
 30
0.0
  0
VERTEX
  5
2C1
  8
LAYER_1
 10
1.506172881662448
 20
-5.688407157478455
 30
0.0
  0
VERTEX
  5
2C2
  8
LAYER_1
 10
1.522806955954983
 20
-5.673995264285021
 30
0.0
  0
VERTEX
  5
2C3
  8
LAYER_1
 10
1.539752554360003
 20
-5.659933883083841
 30
0.0
  0
VERTEX
  5
2C4
  8
LAYER_1
 10
1.557001752559275
 20
-5.64621700421716
 30
0.0
  0
VERTEX
  5
2C5
  8
LAYER_1
 10
1.574546626234567
 20
-5.632838618027225
 30
0.0
  0
VERTEX
  5
2C6
  8
LAYER_1
 10
1.592379251067647
 20
-5.619792714856283
 30
0.0
  0
VERTEX
  5
2C7
  8
LAYER_1
 10
1.610491702740283
 20
-5.607073285046581
 30
0.0
  0
VERTEX
  5
2C8
  8
LAYER_1
 10
1.628876056934243
 20
-5.594674318940363
 30
0.0
  0
VERTEX
  5
2C9
  8
LAYER_1
 10
1.647524389331295
 20
-5.582589806879879
 30
0.0
  0
VERTEX
  5
2CA
  8
LAYER_1
 10
1.666428775613205
 20
-5.570813739207373
 30
0.0
  0
VERTEX
  5
2CB
  8
LAYER_1
 10
1.685581291461744
 20
-5.559340106265093
 30
0.0
  0
VERTEX
  5
2CC
  8
LAYER_1
 10
1.704974012558677
 20
-5.548162898395285
 30
0.0
  0
VERTEX
  5
2CD
  8
LAYER_1
 10
1.724599014585773
 20
-5.537276105940196
 30
0.0
  0
VERTEX
  5
2CE
  8
LAYER_1
 10
1.744448373224801
 20
-5.526673719242071
 30
0.0
  0
VERTEX
  5
2CF
  8
LAYER_1
 10
1.764514164157527
 20
-5.51634972864316
 30
0.0
  0
VERTEX
  5
2D0
  8
LAYER_1
 10
1.784788463065719
 20
-5.506298124485706
 30
0.0
  0
VERTEX
  5
2D1
  8
LAYER_1
 10
1.805263345631146
 20
-5.496512897111957
 30
0.0
  0
VERTEX
  5
2D2
  8
LAYER_1
 10
1.825930887535575
 20
-5.48698803686416
 30
0.0
  0
VERTEX
  5
2D3
  8
LAYER_1
 10
1.846783164460774
 20
-5.47771753408456
 30
0.0
  0
VERTEX
  5
2D4
  8
LAYER_1
 10
1.889010226100554
 20
-5.45991556229894
 30
0.0
  0
VERTEX
  5
2D5
  8
LAYER_1
 10
1.931881136004628
 20
-5.443058904493071
 30
0.0
  0
VERTEX
  5
2D6
  8
LAYER_1
 10
1.97533249962714
 20
-5.427099483404925
 30
0.0
  0
VERTEX
  5
2D7
  8
LAYER_1
 10
2.01930092242223
 20
-5.411989221772474
 30
0.0
  0
VERTEX
  5
2D8
  8
LAYER_1
 10
2.063723009844044
 20
-5.397680042333691
 30
0.0
  0
VERTEX
  5
2D9
  8
LAYER_1
 10
2.108535367346724
 20
-5.384123867826549
 30
0.0
  0
VERTEX
  5
2DA
  8
LAYER_1
 10
2.153674600384412
 20
-5.37127262098902
 30
0.0
  0
VERTEX
  5
2DB
  8
LAYER_1
 10
2.19907731441125
 20
-5.359078224559076
 30
0.0
  0
VERTEX
  5
2DC
  8
LAYER_1
 10
2.244680114881382
 20
-5.34749260127469
 30
0.0
  0
VERTEX
  5
2DD
  8
LAYER_1
 10
2.290419607248951
 20
-5.336467673873834
 30
0.0
  0
VERTEX
  5
2DE
  8
LAYER_1
 10
2.336232396968099
 20
-5.32595536509448
 30
0.0
  0
VERTEX
  5
2DF
  8
LAYER_1
 10
2.382055089492968
 20
-5.315907597674601
 30
0.0
  0
VERTEX
  5
2E0
  8
LAYER_1
 10
2.427824290277703
 20
-5.30627629435217
 30
0.0
  0
VERTEX
  5
2E1
  8
LAYER_1
 10
2.518948638443337
 20
-5.28807077095154
 30
0.0
  0
VERTEX
  5
2E2
  8
LAYER_1
 10
2.609098285098144
 20
-5.270954176796371
 30
0.0
  0
SEQEND
  5
5F7
  8
LAYER_1
  0
POLYLINE
  5
71
  8
LAYER_1
 66
     1
 10
0.0
 20
0.0
 30
0.0
 70
     1
  0
VERTEX
  5
2E3
  8
LAYER_1
 10
54.07276607382452
 20
-27.12904189377053
 30
0.0
 42
-0.4142135623730951
  0
VERTEX
  5
2E4
  8
LAYER_1
 10
54.19826607382451
 20
-27.25454189377054
 30
0.0
 42
-0.4142135623730951
  0
VERTEX
  5
2E5
  8
LAYER_1
 10
54.07276607382452
 20
-27.38004189377054
 30
0.0
 42
-0.4142135623730951
  0
VERTEX
  5
2E6
  8
LAYER_1
 10
53.9472660738245
 20
-27.25454189377054
 30
0.0
 42
-0.4142135623730951
  0
SEQEND
  5
5F8
  8
LAYER_1
  0
POLYLINE
  5
72
  8
LAYER_1
 66
     1
 10
0.0
 20
0.0
 30
0.0
 70
     1
  0
VERTEX
  5
2E7
  8
LAYER_1
 10
54.07276607382452
 20
-20.87904189377053
 30
0.0
 42
-0.4142135623730951
  0
VERTEX
  5
2E8
  8
LAYER_1
 10
54.19826607382452
 20
-21.00454189377054
 30
0.0
 42
-0.4142135623730951
  0
VERTEX
  5
2E9
  8
LAYER_1
 10
54.07276607382452
 20
-21.13004189377054
 30
0.0
 42
-0.4142135623730951
  0
VERTEX
  5
2EA
  8
LAYER_1
 10
53.94726607382452
 20
-21.00454189377054
 30
0.0
 42
-0.4142135623730951
  0
SEQEND
  5
5F9
  8
LAYER_1
  0
POLYLINE
  5
73
  8
LAYER_1
 66
     1
 10
0.0
 20
0.0
 30
0.0
 70
     1
  0
VERTEX
  5
2EB
  8
LAYER_1
 10
48.94776607382452
 20
-20.87904189377053
 30
0.0
 42
-0.4142135623730951
  0
VERTEX
  5
2EC
  8
LAYER_1
 10
49.07326607382451
 20
-21.00454189377054
 30
0.0
 42
-0.4142135623730951
  0
VERTEX
  5
2ED
  8
LAYER_1
 10
48.94776607382452
 20
-21.13004189377054
 30
0.0
 42
-0.4142135623730951
  0
VERTEX
  5
2EE
  8
LAYER_1
 10
48.82226607382452
 20
-21.00454189377054
 30
0.0
 42
-0.4142135623730951
  0
SEQEND
  5
5FA
  8
LAYER_1
  0
POLYLINE
  5
74
  8
LAYER_1
 66
     1
 10
0.0
 20
0.0
 30
0.0
 70
     1
  0
VERTEX
  5
2EF
  8
LAYER_1
 10
48.94776607382452
 20
-27.12904189377053
 30
0.0
 42
-0.4142135623730951
  0
VERTEX
  5
2F0
  8
LAYER_1
 10
49.07326607382451
 20
-27.25454189377054
 30
0.0
 42
-0.4142135623730951
  0
VERTEX
  5
2F1
  8
LAYER_1
 10
48.94776607382452
 20
-27.38004189377054
 30
0.0
 42
-0.4142135623730951
  0
VERTEX
  5
2F2
  8
LAYER_1
 10
48.82226607382452
 20
-27.25454189377054
 30
0.0
 42
-0.4142135623730951
  0
SEQEND
  5
5FB
  8
LAYER_1
  0
POLYLINE
  5
75
  8
LAYER_1
 66
     1
 10
0.0
 20
0.0
 30
0.0
 70
     1
  0
VERTEX
  5
2F3
  8
LAYER_1
 10
24.19776607382451
 20
-25.06654189377053
 30
0.0
 42
-0.4142135623730951
  0
VERTEX
  5
2F4
  8
LAYER_1
 10
24.32326607382451
 20
-25.19204189377053
 30
0.0
 42
-0.4142135623730951
  0
VERTEX
  5
2F5
  8
LAYER_1
 10
24.19776607382451
 20
-25.31754189377053
 30
0.0
 42
-0.4142135623730951
  0
VERTEX
  5
2F6
  8
LAYER_1
 10
24.07226607382451
 20
-25.19204189377053
 30
0.0
 42
-0.4142135623730951
  0
SEQEND
  5
5FC
  8
LAYER_1
  0
POLYLINE
  5
76
  8
LAYER_1
 66
     1
 10
0.0
 20
0.0
 30
0.0
 70
     1
  0
VERTEX
  5
2F7
  8
LAYER_1
 10
34.38526607382451
 20
-13.12904189377053
 30
0.0
 42
-0.4142135623730951
  0
VERTEX
  5
2F8
  8
LAYER_1
 10
34.51076607382451
 20
-13.25454189377054
 30
0.0
 42
-0.4142135623730951
  0
VERTEX
  5
2F9
  8
LAYER_1
 10
34.38526607382451
 20
-13.38004189377054
 30
0.0
 42
-0.4142135623730951
  0
VERTEX
  5
2FA
  8
LAYER_1
 10
34.25976607382451
 20
-13.25454189377054
 30
0.0
 42
-0.4142135623730951
  0
SEQEND
  5
5FD
  8
LAYER_1
  0
POLYLINE
  5
77
  8
LAYER_1
 66
     1
 10
0.0
 20
0.0
 30
0.0
 70
     1
  0
VERTEX
  5
2FB
  8
LAYER_1
 10
35.85406607382452
 20
-6.566541893770534
 30
0.0
 42
-0.4142135623730951
  0
VERTEX
  5
2FC
  8
LAYER_1
 10
35.97956607382452
 20
-6.692041893770536
 30
0.0
 42
-0.4142135623730951
  0
VERTEX
  5
2FD
  8
LAYER_1
 10
35.85406607382452
 20
-6.817541893770539
 30
0.0
 42
-0.4142135623730951
  0
VERTEX
  5
2FE
  8
LAYER_1
 10
35.72856607382452
 20
-6.692041893770536
 30
0.0
 42
-0.4142135623730951
  0
SEQEND
  5
5FE
  8
LAYER_1
  0
POLYLINE
  5
78
  8
LAYER_1
 66
     1
 10
0.0
 20
0.0
 30
0.0
 70
     1
  0
VERTEX
  5
2FF
  8
LAYER_1
 10
69.63526607382451
 20
-3.192041893770536
 30
0.0
  0
VERTEX
  5
300
  8
LAYER_1
 10
33.19776607382452
 20
-3.192041893770536
 30
0.0
  0
VERTEX
  5
301
  8
LAYER_1
 10
33.19776607382452
 20
-2.392041893770539
 30
0.0
  0
VERTEX
  5
302
  8
LAYER_1
 10
69.63526607382451
 20
-2.392041893770539
 30
0.0
  0
SEQEND
  5
5FF
  8
LAYER_1
  0
POLYLINE
  5
79
  8
LAYER_1
 66
     1
 10
0.0
 20
0.0
 30
0.0
 70
     1
  0
VERTEX
  5
303
  8
LAYER_1
 10
126.6927013659421
 20
3.112380420861399
 30
0.0
  0
VERTEX
  5
304
  8
LAYER_1
 10
150.6302013659421
 20
3.112380420861399
 30
0.0
  0
VERTEX
  5
305
  8
LAYER_1
 10
150.6302013659421
 20
48.2373804208614
 30
0.0
  0
VERTEX
  5
306
  8
LAYER_1
 10
126.6927013659421
 20
48.2373804208614
 30
0.0
  0
SEQEND
  5
600
  8
LAYER_1
  0
POLYLINE
  5
7A
  8
LAYER_1
 66
     1
 10
0.0
 20
0.0
 30
0.0
 70
     1
  0
VERTEX
  5
307
  8
LAYER_1
 10
138.6615013659421
 20
47.8623804208614
 30
0.0
 42
0.4142135623730951
  0
VERTEX
  5
308
  8
LAYER_1
 10
138.2865013659421
 20
47.4873804208614
 30
0.0
 42
0.4142135623730951
  0
VERTEX
  5
309
  8
LAYER_1
 10
138.6615013659421
 20
47.1123804208614
 30
0.0
 42
0.4142135623730951
  0
VERTEX
  5
30A
  8
LAYER_1
 10
139.0365013659421
 20
47.4873804208614
 30
0.0
 42
0.4142135623730951
  0
SEQEND
  5
601
  8
LAYER_1
  0
POLYLINE
  5
7B
  8
LAYER_1
 66
     1
 10
0.0
 20
0.0
 30
0.0
 70
     1
  0
VERTEX
  5
30B
  8
LAYER_1
 10
71.26389171945425
 20
-12.53230117625853
 30
0.0
  0
VERTEX
  5
30C
  8
LAYER_1
 10
95.26389171945425
 20
-12.53230117625853
 30
0.0
  0
VERTEX
  5
30D
  8
LAYER_1
 10
95.26389171945425
 20
-2.032301176258532
 30
0.0
  0
VERTEX
  5
30E
  8
LAYER_1
 10
71.26389171945425
 20
-2.032301176258532
 30
0.0
  0
SEQEND
  5
602
  8
LAYER_1
  0
POLYLINE
  5
7C
  8
LAYER_1
 66
     1
 10
0.0
 20
0.0
 30
0.0
 70
     1
  0
VERTEX
  5
30F
  8
LAYER_1
 10
83.26389171945425
 20
-11.03180117625853
 30
0.0
 42
0.4142135623730951
  0
VERTEX
  5
310
  8
LAYER_1
 10
83.13839171945423
 20
-11.15730117625853
 30
0.0
 42
0.4142135623730951
  0
VERTEX
  5
311
  8
LAYER_1
 10
83.26389171945425
 20
-11.28280117625853
 30
0.0
 42
0.4142135623730951
  0
VERTEX
  5
312
  8
LAYER_1
 10
83.38939171945424
 20
-11.15730117625853
 30
0.0
 42
0.4142135623730951
  0
SEQEND
  5
603
  8
LAYER_1
  0
POLYLINE
  5
7D
  8
LAYER_1
 66
     1
 10
0.0
 20
0.0
 30
0.0
 70
     1
  0
VERTEX
  5
313
  8
LAYER_1
 10
83.26389171945425
 20
-10.78230117625853
 30
0.0
 42
0.4142135623730951
  0
VERTEX
  5
314
  8
LAYER_1
 10
82.88889171945425
 20
-11.15730117625853
 30
0.0
 42
0.4142135623730951
  0
VERTEX
  5
315
  8
LAYER_1
 10
83.26389171945425
 20
-11.53230117625853
 30
0.0
 42
0.4142135623730951
  0
VERTEX
  5
316
  8
LAYER_1
 10
83.63889171945425
 20
-11.15730117625853
 30
0.0
 42
0.4142135623730951
  0
SEQEND
  5
604
  8
LAYER_1
  0
POLYLINE
  5
7E
  8
LAYER_1
 66
     1
 10
0.0
 20
0.0
 30
0.0
 70
     1
  0
VERTEX
  5
317
  8
LAYER_1
 10
99.12951000056061
 20
33.48795498397498
 30
0.0
  0
VERTEX
  5
318
  8
LAYER_1
 10
123.1295100005606
 20
33.48795498397498
 30
0.0
  0
VERTEX
  5
319
  8
LAYER_1
 10
123.1295100005606
 20
42.48795498397498
 30
0.0
  0
VERTEX
  5
31A
  8
LAYER_1
 10
99.12951000056061
 20
42.48795498397498
 30
0.0
  0
SEQEND
  5
605
  8
LAYER_1
  0
POLYLINE
  5
7F
  8
LAYER_1
 66
     1
 10
0.0
 20
0.0
 30
0.0
 70
     1
  0
VERTEX
  5
31B
  8
LAYER_1
 10
109.5045100005606
 20
35.61295498397498
 30
0.0
  0
VERTEX
  5
31C
  8
LAYER_1
 10
112.7545100005606
 20
35.61295498397498
 30
0.0
  0
VERTEX
  5
31D
  8
LAYER_1
 10
112.7545100005606
 20
40.11295498397498
 30
0.0
  0
VERTEX
  5
31E
  8
LAYER_1
 10
109.5045100005606
 20
40.11295498397498
 30
0.0
  0
SEQEND
  5
606
  8
LAYER_1
  0
POLYLINE
  5
80
  8
LAYER_1
 66
     1
 10
0.0
 20
0.0
 30
0.0
 70
     1
  0
VERTEX
  5
31F
  8
LAYER_1
 10
108.9420100005606
 20
35.80095498397498
 30
0.0
 42
0.4142135623730951
  0
VERTEX
  5
320
  8
LAYER_1
 10
108.8165100005606
 20
35.67545498397498
 30
0.0
 42
0.4142135623730951
  0
VERTEX
  5
321
  8
LAYER_1
 10
108.9420100005606
 20
35.54995498397498
 30
0.0
 42
0.4142135623730951
  0
VERTEX
  5
322
  8
LAYER_1
 10
109.0675100005606
 20
35.67545498397498
 30
0.0
 42
0.4142135623730951
  0
SEQEND
  5
607
  8
LAYER_1
  0
POLYLINE
  5
81
  8
LAYER_1
 66
     1
 10
0.0
 20
0.0
 30
0.0
 70
     1
  0
VERTEX
  5
323
  8
LAYER_1
 10
113.3170100005606
 20
35.80095498397498
 30
0.0
 42
0.4142135623730951
  0
VERTEX
  5
324
  8
LAYER_1
 10
113.1915100005606
 20
35.67545498397498
 30
0.0
 42
0.4142135623730951
  0
VERTEX
  5
325
  8
LAYER_1
 10
113.3170100005606
 20
35.54995498397498
 30
0.0
 42
0.4142135623730951
  0
VERTEX
  5
326
  8
LAYER_1
 10
113.4425100005606
 20
35.67545498397498
 30
0.0
 42
0.4142135623730951
  0
SEQEND
  5
608
  8
LAYER_1
  0
POLYLINE
  5
82
  8
LAYER_1
 66
     1
 10
0.0
 20
0.0
 30
0.0
 70
     1
  0
VERTEX
  5
327
  8
LAYER_1
 10
113.3170100005606
 20
40.17595498397498
 30
0.0
 42
0.4142135623730951
  0
VERTEX
  5
328
  8
LAYER_1
 10
113.1915100005606
 20
40.05045498397498
 30
0.0
 42
0.4142135623730951
  0
VERTEX
  5
329
  8
LAYER_1
 10
113.3170100005606
 20
39.92495498397498
 30
0.0
 42
0.4142135623730951
  0
VERTEX
  5
32A
  8
LAYER_1
 10
113.4425100005606
 20
40.05045498397498
 30
0.0
 42
0.4142135623730951
  0
SEQEND
  5
609
  8
LAYER_1
  0
POLYLINE
  5
83
  8
LAYER_1
 66
     1
 10
0.0
 20
0.0
 30
0.0
 70
     1
  0
VERTEX
  5
32B
  8
LAYER_1
 10
108.9420100005606
 20
40.17595498397498
 30
0.0
 42
0.4142135623730951
  0
VERTEX
  5
32C
  8
LAYER_1
 10
108.8165100005606
 20
40.05045498397498
 30
0.0
 42
0.4142135623730951
  0
VERTEX
  5
32D
  8
LAYER_1
 10
108.9420100005606
 20
39.92495498397498
 30
0.0
 42
0.4142135623730951
  0
VERTEX
  5
32E
  8
LAYER_1
 10
109.0675100005606
 20
40.05045498397498
 30
0.0
 42
0.4142135623730951
  0
SEQEND
  5
60A
  8
LAYER_1
  0
POLYLINE
  5
84
  8
LAYER_1
 66
     1
 10
0.0
 20
0.0
 30
0.0
 70
     1
  0
VERTEX
  5
32F
  8
LAYER_1
 10
107.2545100005606
 20
38.48845498397498
 30
0.0
 42
0.4142135623730951
  0
VERTEX
  5
330
  8
LAYER_1
 10
107.1290100005606
 20
38.36295498397498
 30
0.0
 42
0.4142135623730951
  0
VERTEX
  5
331
  8
LAYER_1
 10
107.2545100005606
 20
38.23745498397498
 30
0.0
 42
0.4142135623730951
  0
VERTEX
  5
332
  8
LAYER_1
 10
107.3800100005606
 20
38.36295498397498
 30
0.0
 42
0.4142135623730951
  0
SEQEND
  5
60B
  8
LAYER_1
  0
POLYLINE
  5
85
  8
LAYER_1
 66
     1
 10
0.0
 20
0.0
 30
0.0
 70
     1
  0
VERTEX
  5
333
  8
LAYER_1
 10
115.1295100005606
 20
38.48845498397498
 30
0.0
 42
0.4142135623730951
  0
VERTEX
  5
334
  8
LAYER_1
 10
115.0040100005606
 20
38.36295498397498
 30
0.0
 42
0.4142135623730951
  0
VERTEX
  5
335
  8
LAYER_1
 10
115.1295100005606
 20
38.23745498397498
 30
0.0
 42
0.4142135623730951
  0
VERTEX
  5
336
  8
LAYER_1
 10
115.2550100005606
 20
38.36295498397498
 30
0.0
 42
0.4142135623730951
  0
SEQEND
  5
60C
  8
LAYER_1
  0
POLYLINE
  5
86
  8
LAYER_1
 66
     1
 10
0.0
 20
0.0
 30
0.0
 70
     1
  0
VERTEX
  5
337
  8
LAYER_1
 10
98.9302105328086
 20
43.65923316180842
 30
0.0
  0
VERTEX
  5
338
  8
LAYER_1
 10
122.9302105328086
 20
43.65923316180842
 30
0.0
  0
VERTEX
  5
339
  8
LAYER_1
 10
122.9302105328086
 20
48.65923316180842
 30
0.0
  0
VERTEX
  5
33A
  8
LAYER_1
 10
98.9302105328086
 20
48.65923316180842
 30
0.0
  0
SEQEND
  5
60D
  8
LAYER_1
  0
POLYLINE
  5
87
  8
LAYER_1
 66
     1
 10
0.0
 20
0.0
 30
0.0
 70
     1
  0
VERTEX
  5
33B
  8
LAYER_1
 10
71.0728890582144
 20
-18.95007669285214
 30
0.0
  0
VERTEX
  5
33C
  8
LAYER_1
 10
97.4478890582144
 20
-18.95007669285214
 30
0.0
  0
VERTEX
  5
33D
  8
LAYER_1
 10
97.4478890582144
 20
-13.95007669285214
 30
0.0
  0
VERTEX
  5
33E
  8
LAYER_1
 10
71.0728890582144
 20
-13.95007669285214
 30
0.0
  0
SEQEND
  5
60E
  8
LAYER_1
  0
POLYLINE
  5
88
  8
LAYER_1
 66
     1
 10
0.0
 20
0.0
 30
0.0
 70
     1
  0
VERTEX
  5
33F
  8
LAYER_1
 10
75.65255595980403
 20
-24.45176745196784
 30
0.0
  0
VERTEX
  5
340
  8
LAYER_1
 10
91.65255595980403
 20
-24.45176745196784
 30
0.0
  0
VERTEX
  5
341
  8
LAYER_1
 10
91.65255595980403
 20
-21.45176745196784
 30
0.0
  0
VERTEX
  5
342
  8
LAYER_1
 10
75.65255595980403
 20
-21.45176745196784
 30
0.0
  0
SEQEND
  5
60F
  8
LAYER_1
  0
POLYLINE
  5
89
  8
LAYER_1
 66
     1
 10
0.0
 20
0.0
 30
0.0
 70
     1
  0
VERTEX
  5
343
  8
LAYER_1
 10
67.93749999994927
 20
26.12753060421897
 30
0.0
  0
VERTEX
  5
344
  8
LAYER_1
 10
61.50000000009592
 20
27.31503060428072
 30
0.0
  0
VERTEX
  5
345
  8
LAYER_1
 10
61.47371386087504
 20
27.31952155468134
 30
0.0
  0
VERTEX
  5
346
  8
LAYER_1
 10
61.4473144820883
 20
27.32332759308667
 30
0.0
  0
VERTEX
  5
347
  8
LAYER_1
 10
61.42080636439695
 20
27.32646303520978
 30
0.0
  0
VERTEX
  5
348
  8
LAYER_1
 10
61.39419400846224
 20
27.32894219676375
 30
0.0
  0
VERTEX
  5
349
  8
LAYER_1
 10
61.36748191494542
 20
27.33077939346166
 30
0.0
  0
VERTEX
  5
34A
  8
LAYER_1
 10
61.34067458450772
 20
27.3319889410166
 30
0.0
  0
VERTEX
  5
34B
  8
LAYER_1
 10
61.31377651781039
 20
27.33258515514162
 30
0.0
  0
VERTEX
  5
34C
  8
LAYER_1
 10
61.28679221551468
 20
27.33258235154983
 30
0.0
  0
VERTEX
  5
34D
  8
LAYER_1
 10
61.25972617828184
 20
27.33199484595428
 30
0.0
  0
VERTEX
  5
34E
  8
LAYER_1
 10
61.23258290677309
 20
27.33083695406806
 30
0.0
  0
VERTEX
  5
34F
  8
LAYER_1
 10
61.2053669016497
 20
27.32912299160425
 30
0.0
  0
VERTEX
  5
350
  8
LAYER_1
 10
61.17808266357291
 20
27.32686727427591
 30
0.0
  0
VERTEX
  5
351
  8
LAYER_1
 10
61.15073469320397
 20
27.32408411779615
 30
0.0
  0
VERTEX
  5
352
  8
LAYER_1
 10
61.12332749120411
 20
27.32078783787802
 30
0.0
  0
VERTEX
  5
353
  8
LAYER_1
 10
61.09586555823459
 20
27.3169927502346
 30
0.0
  0
VERTEX
  5
354
  8
LAYER_1
 10
61.06835339495665
 20
27.31271317057898
 30
0.0
  0
VERTEX
  5
355
  8
LAYER_1
 10
61.04079550203154
 20
27.30796341462423
 30
0.0
  0
VERTEX
  5
356
  8
LAYER_1
 10
61.01319638012049
 20
27.30275779808343
 30
0.0
  0
VERTEX
  5
357
  8
LAYER_1
 10
60.98556052988476
 20
27.29711063666965
 30
0.0
  0
VERTEX
  5
358
  8
LAYER_1
 10
60.9578924519856
 20
27.29103624609598
 30
0.0
  0
VERTEX
  5
359
  8
LAYER_1
 10
60.93019664708424
 20
27.2845489420755
 30
0.0
  0
VERTEX
  5
35A
  8
LAYER_1
 10
60.90247761584192
 20
27.27766304032128
 30
0.0
  0
VERTEX
  5
35B
  8
LAYER_1
 10
60.87473985891991
 20
27.27039285654639
 30
0.0
  0
VERTEX
  5
35C
  8
LAYER_1
 10
60.84698787697944
 20
27.26275270646391
 30
0.0
  0
VERTEX
  5
35D
  8
LAYER_1
 10
60.81922617068176
 20
27.25475690578693
 30
0.0
  0
VERTEX
  5
35E
  8
LAYER_1
 10
60.79145924068811
 20
27.24641977022853
 30
0.0
  0
VERTEX
  5
35F
  8
LAYER_1
 10
60.73592771225789
 20
27.22877875731973
 30
0.0
  0
VERTEX
  5
360
  8
LAYER_1
 10
60.68042929697874
 20
27.20994419344215
 30
0.0
  0
VERTEX
  5
361
  8
LAYER_1
 10
60.62500000014063
 20
27.1900306043004
 30
0.0
  0
VERTEX
  5
362
  8
LAYER_1
 10
60.57896418309397
 20
27.1728171288732
 30
0.0
  0
VERTEX
  5
363
  8
LAYER_1
 10
60.53299128069445
 20
27.15507732660149
 30
0.0
  0
VERTEX
  5
364
  8
LAYER_1
 10
60.48715544171891
 20
27.13674615253556
 30
0.0
  0
VERTEX
  5
365
  8
LAYER_1
 10
60.4415308149442
 20
27.11775856172567
 30
0.0
  0
VERTEX
  5
366
  8
LAYER_1
 10
60.39619154914718
 20
27.09804950922211
 30
0.0
  0
VERTEX
  5
367
  8
LAYER_1
 10
60.35121179310471
 20
27.07755395007514
 30
0.0
  0
VERTEX
  5
368
  8
LAYER_1
 10
60.30666569559364
 20
27.05620683933505
 30
0.0
  0
VERTEX
  5
369
  8
LAYER_1
 10
60.26262740539082
 20
27.0339431320521
 30
0.0
  0
VERTEX
  5
36A
  8
LAYER_1
 10
60.24082185952277
 20
27.02244722816027
 30
0.0
  0
VERTEX
  5
36B
  8
LAYER_1
 10
60.2191710712731
 20
27.01069778327658
 30
0.0
  0
VERTEX
  5
36C
  8
LAYER_1
 10
60.19768430923892
 20
26.99868666678232
 30
0.0
  0
VERTEX
  5
36D
  8
LAYER_1
 10
60.17637084201735
 20
26.98640574805876
 30
0.0
  0
VERTEX
  5
36E
  8
LAYER_1
 10
60.15523993820547
 20
26.9738468964872
 30
0.0
  0
VERTEX
  5
36F
  8
LAYER_1
 10
60.13430086640041
 20
26.96100198144892
 30
0.0
  0
VERTEX
  5
370
  8
LAYER_1
 10
60.11356289519926
 20
26.9478628723252
 30
0.0
  0
VERTEX
  5
371
  8
LAYER_1
 10
60.09303529319914
 20
26.93442143849733
 30
0.0
  0
VERTEX
  5
372
  8
LAYER_1
 10
60.07272732899715
 20
26.92066954934659
 30
0.0
  0
VERTEX
  5
373
  8
LAYER_1
 10
60.05264827119039
 20
26.90659907425427
 30
0.0
  0
VERTEX
  5
374
  8
LAYER_1
 10
60.03280738837597
 20
26.89220188260165
 30
0.0
  0
VERTEX
  5
375
  8
LAYER_1
 10
60.01321394915102
 20
26.87746984377002
 30
0.0
  0
VERTEX
  5
376
  8
LAYER_1
 10
59.99387722211262
 20
26.86239482714065
 30
0.0
  0
VERTEX
  5
377
  8
LAYER_1
 10
59.97480647585787
 20
26.84696870209484
 30
0.0
  0
VERTEX
  5
378
  8
LAYER_1
 10
59.95601097898391
 20
26.83118333801387
 30
0.0
  0
VERTEX
  5
379
  8
LAYER_1
 10
59.93750000008782
 20
26.81503060427901
 30
0.0
  0
VERTEX
  5
37A
  8
LAYER_1
 10
59.91579291095721
 20
26.79526931402204
 30
0.0
  0
VERTEX
  5
37B
  8
LAYER_1
 10
59.89459019590871
 20
26.77507746565965
 30
0.0
  0
VERTEX
  5
37C
  8
LAYER_1
 10
59.87388065681883
 20
26.75447439752018
 30
0.0
  0
VERTEX
  5
37D
  8
LAYER_1
 10
59.85365309556411
 20
26.73347944793196
 30
0.0
  0
VERTEX
  5
37E
  8
LAYER_1
 10
59.83389631402108
 20
26.71211195522333
 30
0.0
  0
VERTEX
  5
37F
  8
LAYER_1
 10
59.81459911406627
 20
26.69039125772264
 30
0.0
  0
VERTEX
  5
380
  8
LAYER_1
 10
59.79575029757621
 20
26.66833669375823
 30
0.0
  0
VERTEX
  5
381
  8
LAYER_1
 10
59.77733866642744
 20
26.64596760165843
 30
0.0
  0
VERTEX
  5
382
  8
LAYER_1
 10
59.75935302249648
 20
26.6233033197516
 30
0.0
  0
VERTEX
  5
383
  8
LAYER_1
 10
59.74178216765987
 20
26.60036318636607
 30
0.0
  0
VERTEX
  5
384
  8
LAYER_1
 10
59.72461490379413
 20
26.57716653983019
 30
0.0
  0
VERTEX
  5
385
  8
LAYER_1
 10
59.70784003277581
 20
26.55373271847229
 30
0.0
  0
VERTEX
  5
386
  8
LAYER_1
 10
59.69144635648143
 20
26.53008106062072
 30
0.0
  0
VERTEX
  5
387
  8
LAYER_1
 10
59.67542267678751
 20
26.50623090460382
 30
0.0
  0
VERTEX
  5
388
  8
LAYER_1
 10
59.6597577955706
 20
26.48220158874992
 30
0.0
  0
VERTEX
  5
389
  8
LAYER_1
 10
59.64444051470721
 20
26.45801245138738
 30
0.0
  0
VERTEX
  5
38A
  8
LAYER_1
 10
59.62945963607389
 20
26.43368283084452
 30
0.0
  0
VERTEX
  5
38B
  8
LAYER_1
 10
59.61480396154717
 20
26.40923206544969
 30
0.0
  0
VERTEX
  5
38C
  8
LAYER_1
 10
59.58642343231963
 20
26.36004445341751
 30
0.0
  0
VERTEX
  5
38D
  8
LAYER_1
 10
59.55920934203684
 20
26.31060432191755
 30
0.0
  0
VERTEX
  5
38E
  8
LAYER_1
 10
59.53307210571104
 20
26.26106637757654
 30
0.0
  0
VERTEX
  5
38F
  8
LAYER_1
 10
59.5079221383545
 20
26.21158532702121
 30
0.0
  0
VERTEX
  5
390
  8
LAYER_1
 10
59.48366985497946
 20
26.1623158768783
 30
0.0
  0
VERTEX
  5
391
  8
LAYER_1
 10
59.46022567059816
 20
26.11341273377452
 30
0.0
  0
VERTEX
  5
392
  8
LAYER_1
 10
59.43750000022285
 20
26.06503060433662
 30
0.0
  0
VERTEX
  5
393
  8
LAYER_1
 10
56.87499999995475
 20
20.56503060422316
 30
0.0
  0
VERTEX
  5
394
  8
LAYER_1
 10
56.86969555860289
 20
20.55424809384938
 30
0.0
  0
VERTEX
  5
395
  8
LAYER_1
 10
56.863990362778
 20
20.5437944756404
 30
0.0
  0
VERTEX
  5
396
  8
LAYER_1
 10
56.85789395081687
 20
20.53366589816715
 30
0.0
  0
VERTEX
  5
397
  8
LAYER_1
 10
56.85141586105631
 20
20.52385851000059
 30
0.0
  0
VERTEX
  5
398
  8
LAYER_1
 10
56.84456563183312
 20
20.51436845971166
 30
0.0
  0
VERTEX
  5
399
  8
LAYER_1
 10
56.8373528014841
 20
20.5051918958713
 30
0.0
  0
VERTEX
  5
39A
  8
LAYER_1
 10
56.82978690834605
 20
20.49632496705044
 30
0.0
  0
VERTEX
  5
39B
  8
LAYER_1
 10
56.82187749075577
 20
20.48776382182005
 30
0.0
  0
VERTEX
  5
39C
  8
LAYER_1
 10
56.81363408705005
 20
20.47950460875105
 30
0.0
  0
VERTEX
  5
39D
  8
LAYER_1
 10
56.80506623556568
 20
20.4715434764144
 30
0.0
  0
VERTEX
  5
39E
  8
LAYER_1
 10
56.79618347463948
 20
20.46387657338104
 30
0.0
  0
VERTEX
  5
39F
  8
LAYER_1
 10
56.78699534260825
 20
20.4565000482219
 30
0.0
  0
VERTEX
  5
3A0
  8
LAYER_1
 10
56.77751137780878
 20
20.44941004950794
 30
0.0
  0
VERTEX
  5
3A1
  8
LAYER_1
 10
56.76774111857787
 20
20.44260272581009
 30
0.0
  0
VERTEX
  5
3A2
  8
LAYER_1
 10
56.75769410325232
 20
20.4360742256993
 30
0.0
  0
VERTEX
  5
3A3
  8
LAYER_1
 10
56.74737987016893
 20
20.42982069774652
 30
0.0
  0
VERTEX
  5
3A4
  8
LAYER_1
 10
56.7368079576645
 20
20.42383829052268
 30
0.0
  0
VERTEX
  5
3A5
  8
LAYER_1
 10
56.72598790407582
 20
20.41812315259873
 30
0.0
  0
VERTEX
  5
3A6
  8
LAYER_1
 10
56.7149292477397
 20
20.41267143254561
 30
0.0
  0
VERTEX
  5
3A7
  8
LAYER_1
 10
56.70364152699295
 20
20.40747927893428
 30
0.0
  0
VERTEX
  5
3A8
  8
LAYER_1
 10
56.69213428017234
 20
20.40254284033566
 30
0.0
  0
VERTEX
  5
3A9
  8
LAYER_1
 10
56.6804170456147
 20
20.3978582653207
 30
0.0
  0
VERTEX
  5
3AA
  8
LAYER_1
 10
56.65639076663547
 20
20.38922930032554
 30
0.0
  0
VERTEX
  5
3AB
  8
LAYER_1
 10
56.63163899674964
 20
20.38156157251635
 30
0.0
  0
VERTEX
  5
3AC
  8
LAYER_1
 10
56.60623804265163
 20
20.37482427046069
 30
0.0
  0
VERTEX
  5
3AD
  8
LAYER_1
 10
56.58026421103581
 20
20.36898658272608
 30
0.0
  0
VERTEX
  5
3AE
  8
LAYER_1
 10
56.55379380859658
 20
20.36401769788008
 30
0.0
  0
VERTEX
  5
3AF
  8
LAYER_1
 10
56.52690314202835
 20
20.35988680449024
 30
0.0
  0
VERTEX
  5
3B0
  8
LAYER_1
 10
56.49966851802549
 20
20.35656309112409
 30
0.0
  0
VERTEX
  5
3B1
  8
LAYER_1
 10
56.4721662432824
 20
20.3540157463492
 30
0.0
  0
VERTEX
  5
3B2
  8
LAYER_1
 10
56.44447262449349
 20
20.3522139587331
 30
0.0
  0
VERTEX
  5
3B3
  8
LAYER_1
 10
56.41666396835312
 20
20.35112691684335
 30
0.0
  0
VERTEX
  5
3B4
  8
LAYER_1
 10
56.38881658155572
 20
20.35072380924747
 30
0.0
  0
VERTEX
  5
3B5
  8
LAYER_1
 10
56.36100677079567
 20
20.35097382451303
 30
0.0
  0
VERTEX
  5
3B6
  8
LAYER_1
 10
56.33331084276736
 20
20.35184615120757
 30
0.0
  0
VERTEX
  5
3B7
  8
LAYER_1
 10
56.3058051041652
 20
20.35330997789865
 30
0.0
  0
VERTEX
  5
3B8
  8
LAYER_1
 10
56.27856586168356
 20
20.35533449315379
 30
0.0
  0
VERTEX
  5
3B9
  8
LAYER_1
 10
56.25166942201685
 20
20.35788888554055
 30
0.0
  0
VERTEX
  5
3BA
  8
LAYER_1
 10
56.22519209185945
 20
20.36094234362648
 30
0.0
  0
VERTEX
  5
3BB
  8
LAYER_1
 10
56.19921017790578
 20
20.36446405597911
 30
0.0
  0
VERTEX
  5
3BC
  8
LAYER_1
 10
56.1737999868502
 20
20.36842321116601
 30
0.0
  0
VERTEX
  5
3BD
  8
LAYER_1
 10
56.14903782538713
 20
20.37278899775471
 30
0.0
  0
VERTEX
  5
3BE
  8
LAYER_1
 10
56.12500000021095
 20
20.37753060431276
 30
0.0
  0
VERTEX
  5
3BF
  8
LAYER_1
 10
40.50000000007722
 20
23.62753060428264
 30
0.0
  0
VERTEX
  5
3C0
  8
LAYER_1
 10
40.48580477290618
 20
23.63067197819364
 30
0.0
  0
VERTEX
  5
3C1
  8
LAYER_1
 10
40.47164646537655
 20
23.63417986275653
 30
0.0
  0
VERTEX
  5
3C2
  8
LAYER_1
 10
40.45753009535848
 20
23.63804819918183
 30
0.0
  0
VERTEX
  5
3C3
  8
LAYER_1
 10
40.4434606807221
 20
23.64227092868008
 30
0.0
  0
VERTEX
  5
3C4
  8
LAYER_1
 10
40.42944323933757
 20
23.6468419924618
 30
0.0
  0
VERTEX
  5
3C5
  8
LAYER_1
 10
40.41548278907504
 20
23.65175533173752
 30
0.0
  0
VERTEX
  5
3C6
  8
LAYER_1
 10
40.40158434780466
 20
23.65700488771776
 30
0.0
  0
VERTEX
  5
3C7
  8
LAYER_1
 10
40.38775293339656
 20
23.66258460161306
 30
0.0
  0
VERTEX
  5
3C8
  8
LAYER_1
 10
40.3739935637209
 20
23.66848841463395
 30
0.0
  0
VERTEX
  5
3C9
  8
LAYER_1
 10
40.36031125664782
 20
23.67471026799095
 30
0.0
  0
VERTEX
  5
3CA
  8
LAYER_1
 10
40.34671103004747
 20
23.68124410289458
 30
0.0
  0
VERTEX
  5
3CB
  8
LAYER_1
 10
40.33319790178999
 20
23.68808386055539
 30
0.0
  0
VERTEX
  5
3CC
  8
LAYER_1
 10
40.31977688974554
 20
23.6952234821839
 30
0.0
  0
VERTEX
  5
3CD
  8
LAYER_1
 10
40.30645301178426
 20
23.70265690899063
 30
0.0
  0
VERTEX
  5
3CE
  8
LAYER_1
 10
40.28011672959178
 20
23.71838094298088
 30
0.0
  0
VERTEX
  5
3CF
  8
LAYER_1
 10
40.25422919817375
 20
23.73520749221037
 30
0.0
  0
VERTEX
  5
3D0
  8
LAYER_1
 10
40.22883056049132
 20
23.75308808636333
 30
0.0
  0
VERTEX
  5
3D1
  8
LAYER_1
 10
40.20396095950567
 20
23.77197425512398
 30
0.0
  0
VERTEX
  5
3D2
  8
LAYER_1
 10
40.17966053817798
 20
23.79181752817654
 30
0.0
  0
VERTEX
  5
3D3
  8
LAYER_1
 10
40.15596943946942
 20
23.81256943520525
 30
0.0
  0
VERTEX
  5
3D4
  8
LAYER_1
 10
40.13292780634117
 20
23.83418150589434
 30
0.0
  0
VERTEX
  5
3D5
  8
LAYER_1
 10
40.11057578175439
 20
23.85660526992801
 30
0.0
  0
VERTEX
  5
3D6
  8
LAYER_1
 10
40.08895350867025
 20
23.87979225699051
 30
0.0
  0
VERTEX
  5
3D7
  8
LAYER_1
 10
40.06810113004994
 20
23.90369399676605
 30
0.0
  0
VERTEX
  5
3D8
  8
LAYER_1
 10
40.04805878885462
 20
23.92826201893886
 30
0.0
  0
VERTEX
  5
3D9
  8
LAYER_1
 10
40.02886662804546
 20
23.95344785319318
 30
0.0
  0
VERTEX
  5
3DA
  8
LAYER_1
 10
40.01056479058366
 20
23.97920302921321
 30
0.0
  0
VERTEX
  5
3DB
  8
LAYER_1
 10
39.99319341943037
 20
24.0054790766832
 30
0.0
  0
VERTEX
  5
3DC
  8
LAYER_1
 10
39.97679265754677
 20
24.03222752528736
 30
0.0
  0
VERTEX
  5
3DD
  8
LAYER_1
 10
39.96140264789402
 20
24.05939990470993
 30
0.0
  0
VERTEX
  5
3DE
  8
LAYER_1
 10
39.94706353343331
 20
24.08694774463511
 30
0.0
  0
VERTEX
  5
3DF
  8
LAYER_1
 10
39.9338154571258
 20
24.11482257474716
 30
0.0
  0
VERTEX
  5
3E0
  8
LAYER_1
 10
39.92169856193269
 20
24.14297592473028
 30
0.0
  0
VERTEX
  5
3E1
  8
LAYER_1
 10
39.91075299081511
 20
24.1713593242687
 30
0.0
  0
VERTEX
  5
3E2
  8
LAYER_1
 10
39.90573199646003
 20
24.18562214564747
 30
0.0
  0
VERTEX
  5
3E3
  8
LAYER_1
 10
39.90101888673428
 20
24.19992430304666
 30
0.0
  0
VERTEX
  5
3E4
  8
LAYER_1
 10
39.89661867950799
 20
24.21425973767678
 30
0.0
  0
VERTEX
  5
3E5
  8
LAYER_1
 10
39.89253639265134
 20
24.22862239074837
 30
0.0
  0
VERTEX
  5
3E6
  8
LAYER_1
 10
39.88877704403444
 20
24.24300620347195
 30
0.0
  0
VERTEX
  5
3E7
  8
LAYER_1
 10
39.88534565152747
 20
24.25740511705806
 30
0.0
  0
VERTEX
  5
3E8
  8
LAYER_1
 10
39.88224723300056
 20
24.27181307271722
 30
0.0
  0
VERTEX
  5
3E9
  8
LAYER_1
 10
39.87948680632385
 20
24.28622401165996
 30
0.0
  0
VERTEX
  5
3EA
  8
LAYER_1
 10
39.87706938936751
 20
24.30063187509681
 30
0.0
  0
VERTEX
  5
3EB
  8
LAYER_1
 10
39.87500000000165
 20
24.31503060423829
 30
0.0
  0
VERTEX
  5
3EC
  8
LAYER_1
 10
39.24999999994085
 20
29.06503060419563
 30
0.0
  0
VERTEX
  5
3ED
  8
LAYER_1
 10
39.24691967589294
 20
29.08614084659921
 30
0.0
  0
VERTEX
  5
3EE
  8
LAYER_1
 10
39.24327230826336
 20
29.10707277247521
 30
0.0
  0
VERTEX
  5
3EF
  8
LAYER_1
 10
39.23907881019095
 20
29.12783633142093
 30
0.0
  0
VERTEX
  5
3F0
  8
LAYER_1
 10
39.23436009481458
 20
29.14844147303366
 30
0.0
  0
VERTEX
  5
3F1
  8
LAYER_1
 10
39.22913707527307
 20
29.1688981469107
 30
0.0
  0
VERTEX
  5
3F2
  8
LAYER_1
 10
39.22343066470532
 20
29.18921630264934
 30
0.0
  0
VERTEX
  5
3F3
  8
LAYER_1
 10
39.21726177625014
 20
29.20940588984689
 30
0.0
  0
VERTEX
  5
3F4
  8
LAYER_1
 10
39.21065132304641
 20
29.22947685810065
 30
0.0
  0
VERTEX
  5
3F5
  8
LAYER_1
 10
39.20362021823296
 20
29.2494391570079
 30
0.0
  0
VERTEX
  5
3F6
  8
LAYER_1
 10
39.19618937494865
 20
29.26930273616595
 30
0.0
  0
VERTEX
  5
3F7
  8
LAYER_1
 10
39.18837970633233
 20
29.2890775451721
 30
0.0
  0
VERTEX
  5
3F8
  8
LAYER_1
 10
39.18021212552285
 20
29.30877353362364
 30
0.0
  0
VERTEX
  5
3F9
  8
LAYER_1
 10
39.17170754565906
 20
29.32840065111788
 30
0.0
  0
VERTEX
  5
3FA
  8
LAYER_1
 10
39.16288687987982
 20
29.3479688472521
 30
0.0
  0
VERTEX
  5
3FB
  8
LAYER_1
 10
39.14438094313037
 20
29.38696827382971
 30
0.0
  0
VERTEX
  5
3FC
  8
LAYER_1
 10
39.12486162038531
 20
29.42585141013484
 30
0.0
  0
VERTEX
  5
3FD
  8
LAYER_1
 10
39.10449621675545
 20
29.46469785294589
 30
0.0
  0
VERTEX
  5
3FE
  8
LAYER_1
 10
39.08345203735159
 20
29.50358719904123
 30
0.0
  0
VERTEX
  5
3FF
  8
LAYER_1
 10
39.06189638728456
 20
29.54259904519924
 30
0.0
  0
VERTEX
  5
400
  8
LAYER_1
 10
39.01791989560417
 20
29.62130862481682
 30
0.0
  0
VERTEX
  5
401
  8
LAYER_1
 10
38.99583366421246
 20
29.66116555183314
 30
0.0
  0
VERTEX
  5
402
  8
LAYER_1
 10
38.97390518260079
 20
29.70146336602567
 30
0.0
  0
VERTEX
  5
403
  8
LAYER_1
 10
38.95438581623073
 20
29.73714380470715
 30
0.0
  0
VERTEX
  5
404
  8
LAYER_1
 10
38.93427317221673
 20
29.77266558851232
 30
0.0
  0
VERTEX
  5
405
  8
LAYER_1
 10
38.91357706435479
 20
29.80801581343277
 30
0.0
  0
VERTEX
  5
406
  8
LAYER_1
 10
38.89230730644086
 20
29.84318157546008
 30
0.0
  0
VERTEX
  5
407
  8
LAYER_1
 10
38.8704737122709
 20
29.87814997058583
 30
0.0
  0
VERTEX
  5
408
  8
LAYER_1
 10
38.8480860956409
 20
29.9129080948016
 30
0.0
  0
VERTEX
  5
409
  8
LAYER_1
 10
38.82515427034683
 20
29.94744304409897
 30
0.0
  0
VERTEX
  5
40A
  8
LAYER_1
 10
38.80168805018464
 20
29.98174191446954
 30
0.0
  0
VERTEX
  5
40B
  8
LAYER_1
 10
38.77769724895032
 20
30.01579180190489
 30
0.0
  0
VERTEX
  5
40C
  8
LAYER_1
 10
38.75319168043984
 20
30.04957980239658
 30
0.0
  0
VERTEX
  5
40D
  8
LAYER_1
 10
38.72818115844917
 20
30.08309301193621
 30
0.0
  0
VERTEX
  5
40E
  8
LAYER_1
 10
38.70267549677428
 20
30.11631852651536
 30
0.0
  0
VERTEX
  5
40F
  8
LAYER_1
 10
38.67668450921113
 20
30.14924344212562
 30
0.0
  0
VERTEX
  5
410
  8
LAYER_1
 10
38.65021800955571
 20
30.18185485475856
 30
0.0
  0
VERTEX
  5
411
  8
LAYER_1
 10
38.62328581160398
 20
30.21413986040577
 30
0.0
  0
VERTEX
  5
412
  8
LAYER_1
 10
38.59589772915191
 20
30.24608555505882
 30
0.0
  0
VERTEX
  5
413
  8
LAYER_1
 10
38.56806357599547
 20
30.27767903470932
 30
0.0
  0
VERTEX
  5
414
  8
LAYER_1
 10
38.53979316593063
 20
30.30890739534883
 30
0.0
  0
VERTEX
  5
415
  8
LAYER_1
 10
38.51109631275337
 20
30.33975773296893
 30
0.0
  0
VERTEX
  5
416
  8
LAYER_1
 10
38.48198283025965
 20
30.37021714356122
 30
0.0
  0
VERTEX
  5
417
  8
LAYER_1
 10
38.45246253224545
 20
30.40027272311728
 30
0.0
  0
VERTEX
  5
418
  8
LAYER_1
 10
38.42254523250672
 20
30.42991156762868
 30
0.0
  0
VERTEX
  5
419
  8
LAYER_1
 10
38.39224074483946
 20
30.45912077308702
 30
0.0
  0
VERTEX
  5
41A
  8
LAYER_1
 10
38.36155888303962
 20
30.48788743548386
 30
0.0
  0
VERTEX
  5
41B
  8
LAYER_1
 10
38.33050946090319
 20
30.5161986508108
 30
0.0
  0
VERTEX
  5
41C
  8
LAYER_1
 10
38.29910229222612
 20
30.54404151505942
 30
0.0
  0
VERTEX
  5
41D
  8
LAYER_1
 10
38.26734719080439
 20
30.5714031242213
 30
0.0
  0
VERTEX
  5
41E
  8
LAYER_1
 10
38.23525397043397
 20
30.59827057428802
 30
0.0
  0
VERTEX
  5
41F
  8
LAYER_1
 10
38.20283244491084
 20
30.62463096125117
 30
0.0
  0
VERTEX
  5
420
  8
LAYER_1
 10
38.17009242803096
 20
30.65047138110233
 30
0.0
  0
VERTEX
  5
421
  8
LAYER_1
 10
38.1370437335903
 20
30.67577892983309
 30
0.0
  0
VERTEX
  5
422
  8
LAYER_1
 10
38.10369617538484
 20
30.70054070343501
 30
0.0
  0
VERTEX
  5
423
  8
LAYER_1
 10
38.07005956721054
 20
30.72474379789969
 30
0.0
  0
VERTEX
  5
424
  8
LAYER_1
 10
38.03614372286338
 20
30.74837530921872
 30
0.0
  0
VERTEX
  5
425
  8
LAYER_1
 10
38.00195845613932
 20
30.77142233338366
 30
0.0
  0
VERTEX
  5
426
  8
LAYER_1
 10
37.96751358083434
 20
30.79387196638611
 30
0.0
  0
VERTEX
  5
427
  8
LAYER_1
 10
37.9328189107444
 20
30.81571130421765
 30
0.0
  0
VERTEX
  5
428
  8
LAYER_1
 10
37.89788425966549
 20
30.83692744286986
 30
0.0
  0
VERTEX
  5
429
  8
LAYER_1
 10
37.86271944139357
 20
30.85750747833433
 30
0.0
  0
VERTEX
  5
42A
  8
LAYER_1
 10
37.8273342697246
 20
30.87743850660263
 30
0.0
  0
VERTEX
  5
42B
  8
LAYER_1
 10
37.79173855845457
 20
30.89670762366634
 30
0.0
  0
VERTEX
  5
42C
  8
LAYER_1
 10
37.75594212137944
 20
30.91530192551707
 30
0.0
  0
VERTEX
  5
42D
  8
LAYER_1
 10
37.71995477229518
 20
30.93320850814637
 30
0.0
  0
VERTEX
  5
42E
  8
LAYER_1
 10
37.68378632499776
 20
30.95041446754585
 30
0.0
  0
VERTEX
  5
42F
  8
LAYER_1
 10
37.64744659328316
 20
30.96690689970707
 30
0.0
  0
VERTEX
  5
430
  8
LAYER_1
 10
37.61094539094734
 20
30.98267290062163
 30
0.0
  0
VERTEX
  5
431
  8
LAYER_1
 10
37.57429253178628
 20
30.9976995662811
 30
0.0
  0
VERTEX
  5
432
  8
LAYER_1
 10
37.53749782959595
 20
31.01197399267707
 30
0.0
  0
VERTEX
  5
433
  8
LAYER_1
 10
37.50057109817232
 20
31.02548327580111
 30
0.0
  0
VERTEX
  5
434
  8
LAYER_1
 10
37.46352215131135
 20
31.03821451164483
 30
0.0
  0
VERTEX
  5
435
  8
LAYER_1
 10
37.42636080280902
 20
31.05015479619979
 30
0.0
  0
VERTEX
  5
436
  8
LAYER_1
 10
37.3890968664613
 20
31.06129122545758
 30
0.0
  0
VERTEX
  5
437
  8
LAYER_1
 10
37.35174015606416
 20
31.07161089540978
 30
0.0
  0
VERTEX
  5
438
  8
LAYER_1
 10
37.31430048541357
 20
31.08110090204798
 30
0.0
  0
VERTEX
  5
439
  8
LAYER_1
 10
37.2767876683055
 20
31.08974834136376
 30
0.0
  0
VERTEX
  5
43A
  8
LAYER_1
 10
37.23921151853593
 20
31.09754030934869
 30
0.0
  0
VERTEX
  5
43B
  8
LAYER_1
 10
37.20158184990083
 20
31.10446390199436
 30
0.0
  0
VERTEX
  5
43C
  8
LAYER_1
 10
37.16390847619615
 20
31.11050621529236
 30
0.0
  0
VERTEX
  5
43D
  8
LAYER_1
 10
37.12620121121788
 20
31.11565434523427
 30
0.0
  0
VERTEX
  5
43E
  8
LAYER_1
 10
37.08846986876199
 20
31.11989538781167
 30
0.0
  0
VERTEX
  5
43F
  8
LAYER_1
 10
37.05072426262444
 20
31.12321643901615
 30
0.0
  0
VERTEX
  5
440
  8
LAYER_1
 10
37.01297420660121
 20
31.12560459483927
 30
0.0
  0
VERTEX
  5
441
  8
LAYER_1
 10
36.97522951448828
 20
31.12704695127265
 30
0.0
  0
VERTEX
  5
442
  8
LAYER_1
 10
36.9375000000816
 20
31.12753060430784
 30
0.0
  0
VERTEX
  5
443
  8
LAYER_1
 10
26.25000000004883
 20
31.12753060429739
 30
0.0
  0
VERTEX
  5
444
  8
LAYER_1
 10
26.20226402685387
 20
31.1273753043987
 30
0.0
  0
VERTEX
  5
445
  8
LAYER_1
 10
26.15420219946791
 20
31.12634499054533
 30
0.0
  0
VERTEX
  5
446
  8
LAYER_1
 10
26.10586525878226
 20
31.12442735961596
 30
0.0
  0
VERTEX
  5
447
  8
LAYER_1
 10
26.05730394568824
 20
31.12161010848924
 30
0.0
  0
VERTEX
  5
448
  8
LAYER_1
 10
26.00856900107713
 20
31.11788093404385
 30
0.0
  0
VERTEX
  5
449
  8
LAYER_1
 10
25.95971116584027
 20
31.11322753315844
 30
0.0
  0
VERTEX
  5
44A
  8
LAYER_1
 10
25.91078118086895
 20
31.10763760271168
 30
0.0
  0
VERTEX
  5
44B
  8
LAYER_1
 10
25.86182978705448
 20
31.10109883958224
 30
0.0
  0
VERTEX
  5
44C
  8
LAYER_1
 10
25.81290772528817
 20
31.09359894064877
 30
0.0
  0
VERTEX
  5
44D
  8
LAYER_1
 10
25.76406573646133
 20
31.08512560278993
 30
0.0
  0
VERTEX
  5
44E
  8
LAYER_1
 10
25.71535456146526
 20
31.0756665228844
 30
0.0
  0
VERTEX
  5
44F
  8
LAYER_1
 10
25.66682494119128
 20
31.06520939781084
 30
0.0
  0
VERTEX
  5
450
  8
LAYER_1
 10
25.61852761653069
 20
31.0537419244479
 30
0.0
  0
VERTEX
  5
451
  8
LAYER_1
 10
25.5705133283748
 20
31.04125179967426
 30
0.0
  0
VERTEX
  5
452
  8
LAYER_1
 10
25.52283281761493
 20
31.02772672036857
 30
0.0
  0
VERTEX
  5
453
  8
LAYER_1
 10
25.47553682514237
 20
31.0131543834095
 30
0.0
  0
VERTEX
  5
454
  8
LAYER_1
 10
25.42867609184843
 20
30.99752248567571
 30
0.0
  0
VERTEX
  5
455
  8
LAYER_1
 10
25.38230135862443
 20
30.98081872404587
 30
0.0
  0
VERTEX
  5
456
  8
LAYER_1
 10
25.35931209856719
 20
30.97206104954451
 30
0.0
  0
VERTEX
  5
457
  8
LAYER_1
 10
25.33646336636167
 20
30.96303079539863
 30
0.0
  0
VERTEX
  5
458
  8
LAYER_1
 10
25.31376150461929
 20
30.95372642371808
 30
0.0
  0
VERTEX
  5
459
  8
LAYER_1
 10
25.29121285595146
 20
30.94414639661268
 30
0.0
  0
VERTEX
  5
45A
  8
LAYER_1
 10
25.2688237629696
 20
30.93428917619226
 30
0.0
  0
VERTEX
  5
45B
  8
LAYER_1
 10
25.24660056828512
 20
30.92415322456666
 30
0.0
  0
VERTEX
  5
45C
  8
LAYER_1
 10
25.22454961450942
 20
30.9137370038457
 30
0.0
  0
VERTEX
  5
45D
  8
LAYER_1
 10
25.20267724425393
 20
30.90303897613923
 30
0.0
  0
VERTEX
  5
45E
  8
LAYER_1
 10
25.18098980013006
 20
30.89205760355708
 30
0.0
  0
VERTEX
  5
45F
  8
LAYER_1
 10
25.15949362474922
 20
30.88079134820908
 30
0.0
  0
VERTEX
  5
460
  8
LAYER_1
 10
25.13819506072283
 20
30.86923867220505
 30
0.0
  0
VERTEX
  5
461
  8
LAYER_1
 10
25.1171004506623
 20
30.85739803765484
 30
0.0
  0
VERTEX
  5
462
  8
LAYER_1
 10
25.09621613717904
 20
30.84526790666828
 30
0.0
  0
VERTEX
  5
463
  8
LAYER_1
 10
25.07554846288446
 20
30.8328467413552
 30
0.0
  0
VERTEX
  5
464
  8
LAYER_1
 10
25.05510377038999
 20
30.82013300382543
 30
0.0
  0
VERTEX
  5
465
  8
LAYER_1
 10
25.03488840230703
 20
30.80712515618881
 30
0.0
  0
VERTEX
  5
466
  8
LAYER_1
 10
25.01490870124699
 20
30.79382166055517
 30
0.0
  0
VERTEX
  5
467
  8
LAYER_1
 10
24.9951710098213
 20
30.78022097903434
 30
0.0
  0
VERTEX
  5
468
  8
LAYER_1
 10
24.97568167064136
 20
30.76632157373616
 30
0.0
  0
VERTEX
  5
469
  8
LAYER_1
 10
24.95644702631859
 20
30.75212190677045
 30
0.0
  0
VERTEX
  5
46A
  8
LAYER_1
 10
24.9374734194644
 20
30.73762044024705
 30
0.0
  0
VERTEX
  5
46B
  8
LAYER_1
 10
24.9187671926902
 20
30.7228156362758
 30
0.0
  0
VERTEX
  5
46C
  8
LAYER_1
 10
24.90033468860742
 20
30.70770595696652
 30
0.0
  0
VERTEX
  5
46D
  8
LAYER_1
 10
24.88218224982745
 20
30.69228986442906
 30
0.0
  0
VERTEX
  5
46E
  8
LAYER_1
 10
24.86431621896173
 20
30.67656582077323
 30
0.0
  0
VERTEX
  5
46F
  8
LAYER_1
 10
24.84674293862164
 20
30.66053228810889
 30
0.0
  0
VERTEX
  5
470
  8
LAYER_1
 10
24.82946875141862
 20
30.64418772854585
 30
0.0
  0
VERTEX
  5
471
  8
LAYER_1
 10
24.81249999996407
 20
30.62753060419395
 30
0.0
  0
VERTEX
  5
472
  8
LAYER_1
 10
24.31249999998229
 20
30.12753060421577
 30
0.0
  0
VERTEX
  5
473
  8
LAYER_1
 10
24.30224057245562
 20
30.11773721665536
 30
0.0
  0
VERTEX
  5
474
  8
LAYER_1
 10
24.29158093509045
 20
30.10845494251985
 30
0.0
  0
VERTEX
  5
475
  8
LAYER_1
 10
24.28053909308048
 20
30.09967065199938
 30
0.0
  0
VERTEX
  5
476
  8
LAYER_1
 10
24.26913305161944
 20
30.09137121528413
 30
0.0
  0
VERTEX
  5
477
  8
LAYER_1
 10
24.25738081590101
 20
30.08354350256426
 30
0.0
  0
VERTEX
  5
478
  8
LAYER_1
 10
24.2453003911189
 20
30.07617438402994
 30
0.0
  0
VERTEX
  5
479
  8
LAYER_1
 10
24.23290978246682
 20
30.06925072987134
 30
0.0
  0
VERTEX
  5
47A
  8
LAYER_1
 10
24.22022699513847
 20
30.06275941027862
 30
0.0
  0
VERTEX
  5
47B
  8
LAYER_1
 10
24.20727003432755
 20
30.05668729544194
 30
0.0
  0
VERTEX
  5
47C
  8
LAYER_1
 10
24.19405690522778
 20
30.05102125555148
 30
0.0
  0
VERTEX
  5
47D
  8
LAYER_1
 10
24.18060561303285
 20
30.04574816079741
 30
0.0
  0
VERTEX
  5
47E
  8
LAYER_1
 10
24.16693416293646
 20
30.04085488136987
 30
0.0
  0
VERTEX
  5
47F
  8
LAYER_1
 10
24.15306056013233
 20
30.03632828745906
 30
0.0
  0
VERTEX
  5
480
  8
LAYER_1
 10
24.13900280981416
 20
30.03215524925512
 30
0.0
  0
VERTEX
  5
481
  8
LAYER_1
 10
24.12477891717565
 20
30.02832263694823
 30
0.0
  0
VERTEX
  5
482
  8
LAYER_1
 10
24.1104068874105
 20
30.02481732072854
 30
0.0
  0
VERTEX
  5
483
  8
LAYER_1
 10
24.09590472571242
 20
30.02162617078624
 30
0.0
  0
VERTEX
  5
484
  8
LAYER_1
 10
24.08129043727511
 20
30.01873605731149
 30
0.0
  0
VERTEX
  5
485
  8
LAYER_1
 10
24.05179750095765
 20
30.01380642052527
 30
0.0
  0
VERTEX
  5
486
  8
LAYER_1
 10
24.02207212000774
 20
30.00992337189123
 30
0.0
  0
VERTEX
  5
487
  8
LAYER_1
 10
23.99225833597501
 20
30.00698187293071
 30
0.0
  0
VERTEX
  5
488
  8
LAYER_1
 10
23.9625001904091
 20
30.00487688516501
 30
0.0
  0
VERTEX
  5
489
  8
LAYER_1
 10
23.93294172485965
 20
30.00350337011548
 30
0.0
  0
VERTEX
  5
48A
  8
LAYER_1
 10
23.90372698087628
 20
30.00275628930346
 30
0.0
  0
VERTEX
  5
48B
  8
LAYER_1
 10
23.87500000000864
 20
30.00253060425026
 30
0.0
  0
VERTEX
  5
48C
  8
LAYER_1
 10
3.437500000000369
 20
30.00253060424408
 30
0.0
  0
VERTEX
  5
48D
  8
LAYER_1
 10
3.35769267937316
 20
30.0022016801583
 30
0.0
  0
VERTEX
  5
48E
  8
LAYER_1
 10
3.274471880508065
 20
30.00113921715805
 30
0.0
  0
VERTEX
  5
48F
  8
LAYER_1
 10
3.188227607329694
 20
29.99922967912888
 30
0.0
  0
VERTEX
  5
490
  8
LAYER_1
 10
3.099349863762656
 20
29.99635952995633
 30
0.0
  0
VERTEX
  5
491
  8
LAYER_1
 10
3.008228653731561
 20
29.99241523352595
 30
0.0
  0
VERTEX
  5
492
  8
LAYER_1
 10
2.915253981161017
 20
29.98728325372329
 30
0.0
  0
VERTEX
  5
493
  8
LAYER_1
 10
2.868193472649893
 20
29.98423640252159
 30
0.0
  0
VERTEX
  5
494
  8
LAYER_1
 10
2.820815849975634
 20
29.9808500544339
 30
0.0
  0
VERTEX
  5
495
  8
LAYER_1
 10
2.773169863628818
 20
29.97711001744591
 30
0.0
  0
VERTEX
  5
496
  8
LAYER_1
 10
2.725304264100021
 20
29.97300209954332
 30
0.0
  0
VERTEX
  5
497
  8
LAYER_1
 10
2.677267801879819
 20
29.96851210871183
 30
0.0
  0
VERTEX
  5
498
  8
LAYER_1
 10
2.629109227458787
 20
29.96362585293711
 30
0.0
  0
VERTEX
  5
499
  8
LAYER_1
 10
2.580877291327503
 20
29.95832914020488
 30
0.0
  0
VERTEX
  5
49A
  8
LAYER_1
 10
2.532620743976541
 20
29.95260777850081
 30
0.0
  0
VERTEX
  5
49B
  8
LAYER_1
 10
2.484388335896479
 20
29.94644757581061
 30
0.0
  0
VERTEX
  5
49C
  8
LAYER_1
 10
2.436228817577892
 20
29.93983434011997
 30
0.0
  0
VERTEX
  5
49D
  8
LAYER_1
 10
2.388190939511357
 20
29.93275387941458
 30
0.0
  0
VERTEX
  5
49E
  8
LAYER_1
 10
2.34032345218745
 20
29.92519200168014
 30
0.0
  0
VERTEX
  5
49F
  8
LAYER_1
 10
2.292675106096747
 20
29.91713451490233
 30
0.0
  0
VERTEX
  5
4A0
  8
LAYER_1
 10
2.245294651729823
 20
29.90856722706686
 30
0.0
  0
VERTEX
  5
4A1
  8
LAYER_1
 10
2.198230839577255
 20
29.89947594615942
 30
0.0
  0
VERTEX
  5
4A2
  8
LAYER_1
 10
2.15153242012962
 20
29.88984648016569
 30
0.0
  0
VERTEX
  5
4A3
  8
LAYER_1
 10
2.105248143877494
 20
29.87966463707138
 30
0.0
  0
VERTEX
  5
4A4
  8
LAYER_1
 10
2.059426761311452
 20
29.86891622486217
 30
0.0
  0
VERTEX
  5
4A5
  8
LAYER_1
 10
2.014117022922071
 20
29.85758705152377
 30
0.0
  0
VERTEX
  5
4A6
  8
LAYER_1
 10
1.969367679199927
 20
29.84566292504185
 30
0.0
  0
VERTEX
  5
4A7
  8
LAYER_1
 10
1.925227480635595
 20
29.83312965340212
 30
0.0
  0
VERTEX
  5
4A8
  8
LAYER_1
 10
1.881745177719653
 20
29.81997304459028
 30
0.0
  0
VERTEX
  5
4A9
  8
LAYER_1
 10
1.838969520942676
 20
29.80617890659201
 30
0.0
  0
VERTEX
  5
4AA
  8
LAYER_1
 10
1.79694926079524
 20
29.79173304739301
 30
0.0
  0
VERTEX
  5
4AB
  8
LAYER_1
 10
1.755733147767923
 20
29.77662127497897
 30
0.0
  0
VERTEX
  5
4AC
  8
LAYER_1
 10
1.715369932351298
 20
29.76082939733558
 30
0.0
  0
VERTEX
  5
4AD
  8
LAYER_1
 10
1.675908365035944
 20
29.74434322244855
 30
0.0
  0
VERTEX
  5
4AE
  8
LAYER_1
 10
1.637397196312435
 20
29.72714855830355
 30
0.0
  0
VERTEX
  5
4AF
  8
LAYER_1
 10
1.599885176671349
 20
29.70923121288629
 30
0.0
  0
VERTEX
  5
4B0
  8
LAYER_1
 10
1.563421056603261
 20
29.69057699418245
 30
0.0
  0
VERTEX
  5
4B1
  8
LAYER_1
 10
1.545597193437397
 20
29.6809691223436
 30
0.0
  0
VERTEX
  5
4B2
  8
LAYER_1
 10
1.528053586598748
 20
29.67117171017775
 30
0.0
  0
VERTEX
  5
4B3
  8
LAYER_1
 10
1.510796329898636
 20
29.66118298368309
 30
0.0
  0
VERTEX
  5
4B4
  8
LAYER_1
 10
1.493831517148385
 20
29.65100116885785
 30
0.0
  0
VERTEX
  5
4B5
  8
LAYER_1
 10
1.477165242159315
 20
29.64062449170024
 30
0.0
  0
VERTEX
  5
4B6
  8
LAYER_1
 10
1.460803598742748
 20
29.63005117820847
 30
0.0
  0
VERTEX
  5
4B7
  8
LAYER_1
 10
1.444752680710008
 20
29.61927945438075
 30
0.0
  0
VERTEX
  5
4B8
  8
LAYER_1
 10
1.429018581872415
 20
29.60830754621528
 30
0.0
  0
VERTEX
  5
4B9
  8
LAYER_1
 10
1.413607396041292
 20
29.5971336797103
 30
0.0
  0
VERTEX
  5
4BA
  8
LAYER_1
 10
1.39852521702796
 20
29.585756080864
 30
0.0
  0
VERTEX
  5
4BB
  8
LAYER_1
 10
1.383778138643743
 20
29.5741729756746
 30
0.0
  0
VERTEX
  5
4BC
  8
LAYER_1
 10
1.369372254699961
 20
29.5623825901403
 30
0.0
  0
VERTEX
  5
4BD
  8
LAYER_1
 10
1.355313659007937
 20
29.55038315025933
 30
0.0
  0
VERTEX
  5
4BE
  8
LAYER_1
 10
1.341608445378993
 20
29.53817288202989
 30
0.0
  0
VERTEX
  5
4BF
  8
LAYER_1
 10
1.32826270762445
 20
29.52575001145019
 30
0.0
  0
VERTEX
  5
4C0
  8
LAYER_1
 10
1.315282539555632
 20
29.51311276451845
 30
0.0
  0
VERTEX
  5
4C1
  8
LAYER_1
 10
1.302674034983859
 20
29.50025936723288
 30
0.0
  0
VERTEX
  5
4C2
  8
LAYER_1
 10
1.290443287720455
 20
29.48718804559169
 30
0.0
  0
VERTEX
  5
4C3
  8
LAYER_1
 10
1.27859639157674
 20
29.47389702559309
 30
0.0
  0
VERTEX
  5
4C4
  8
LAYER_1
 10
1.267139440364037
 20
29.46038453323529
 30
0.0
  0
VERTEX
  5
4C5
  8
LAYER_1
 10
1.256078527893669
 20
29.4466487945165
 30
0.0
  0
VERTEX
  5
4C6
  8
LAYER_1
 10
1.245419747976956
 20
29.43268803543494
 30
0.0
  0
VERTEX
  5
4C7
  8
LAYER_1
 10
1.235169194425221
 20
29.41850048198882
 30
0.0
  0
VERTEX
  5
4C8
  8
LAYER_1
 10
1.225332961049786
 20
29.40408436017635
 30
0.0
  0
VERTEX
  5
4C9
  8
LAYER_1
 10
1.215917141661974
 20
29.38943789599574
 30
0.0
  0
VERTEX
  5
4CA
  8
LAYER_1
 10
1.206927830073105
 20
29.3745593154452
 30
0.0
  0
VERTEX
  5
4CB
  8
LAYER_1
 10
1.198371120094502
 20
29.35944684452295
 30
0.0
  0
VERTEX
  5
4CC
  8
LAYER_1
 10
1.190253105537488
 20
29.34409870922719
 30
0.0
  0
VERTEX
  5
4CD
  8
LAYER_1
 10
1.182579880213383
 20
29.32851313555614
 30
0.0
  0
VERTEX
  5
4CE
  8
LAYER_1
 10
1.175357537933511
 20
29.31268834950802
 30
0.0
  0
VERTEX
  5
4CF
  8
LAYER_1
 10
1.168592172509193
 20
29.29662257708102
 30
0.0
  0
VERTEX
  5
4D0
  8
LAYER_1
 10
1.162289877751751
 20
29.28031404427336
 30
0.0
  0
VERTEX
  5
4D1
  8
LAYER_1
 10
1.156456747472506
 20
29.26376097708326
 30
0.0
  0
VERTEX
  5
4D2
  8
LAYER_1
 10
1.151098875482783
 20
29.24696160150893
 30
0.0
  0
VERTEX
  5
4D3
  8
LAYER_1
 10
1.146222355593901
 20
29.22991414354857
 30
0.0
  0
VERTEX
  5
4D4
  8
LAYER_1
 10
1.141833281617184
 20
29.2126168292004
 30
0.0
  0
VERTEX
  5
4D5
  8
LAYER_1
 10
1.137937747363953
 20
29.19506788446263
 30
0.0
  0
VERTEX
  5
4D6
  8
LAYER_1
 10
1.13454184664553
 20
29.17726553533348
 30
0.0
  0
VERTEX
  5
4D7
  8
LAYER_1
 10
1.131651673273238
 20
29.15920800781115
 30
0.0
  0
VERTEX
  5
4D8
  8
LAYER_1
 10
1.129273321058398
 20
29.14089352789387
 30
0.0
  0
VERTEX
  5
4D9
  8
LAYER_1
 10
1.127412883812332
 20
29.12232032157982
 30
0.0
  0
VERTEX
  5
4DA
  8
LAYER_1
 10
1.126076455346362
 20
29.10348661486724
 30
0.0
  0
VERTEX
  5
4DB
  8
LAYER_1
 10
1.125270129471811
 20
29.08439063375433
 30
0.0
  0
VERTEX
  5
4DC
  8
LAYER_1
 10
1.125
 20
29.0650306042393
 30
0.0
  0
VERTEX
  5
4DD
  8
LAYER_1
 10
1.125
 20
1.065030604238874
 30
0.0
  0
VERTEX
  5
4DE
  8
LAYER_1
 10
65.37499999999667
 20
1.065030604238881
 30
0.0
  0
VERTEX
  5
4DF
  8
LAYER_1
 10
65.39846088178702
 20
1.065487928820438
 30
0.0
  0
VERTEX
  5
4E0
  8
LAYER_1
 10
65.42180644749982
 20
1.06684830469981
 30
0.0
  0
VERTEX
  5
4E1
  8
LAYER_1
 10
65.44503024026048
 20
1.069094335079052
 30
0.0
  0
VERTEX
  5
4E2
  8
LAYER_1
 10
65.46812580319447
 20
1.072208623160217
 30
0.0
  0
VERTEX
  5
4E3
  8
LAYER_1
 10
65.49108667942718
 20
1.076173772145361
 30
0.0
  0
VERTEX
  5
4E4
  8
LAYER_1
 10
65.51390641208407
 20
1.080972385236537
 30
0.0
  0
VERTEX
  5
4E5
  8
LAYER_1
 10
65.53657854429053
 20
1.0865870656358
 30
0.0
  0
VERTEX
  5
4E6
  8
LAYER_1
 10
65.55909661917201
 20
1.093000416545203
 30
0.0
  0
VERTEX
  5
4E7
  8
LAYER_1
 10
65.58145417985392
 20
1.1001950411668
 30
0.0
  0
VERTEX
  5
4E8
  8
LAYER_1
 10
65.6036447694617
 20
1.108153542702647
 30
0.0
  0
VERTEX
  5
4E9
  8
LAYER_1
 10
65.62566193112076
 20
1.116858524354796
 30
0.0
  0
VERTEX
  5
4EA
  8
LAYER_1
 10
65.64749920795651
 20
1.126292589325302
 30
0.0
  0
VERTEX
  5
4EB
  8
LAYER_1
 10
65.66915014309441
 20
1.13643834081622
 30
0.0
  0
VERTEX
  5
4EC
  8
LAYER_1
 10
65.6906082796599
 20
1.147278382029602
 30
0.0
  0
VERTEX
  5
4ED
  8
LAYER_1
 10
65.71186716077835
 20
1.158795316167505
 30
0.0
  0
VERTEX
  5
4EE
  8
LAYER_1
 10
65.73292032957522
 20
1.170971746431981
 30
0.0
  0
VERTEX
  5
4EF
  8
LAYER_1
 10
65.75376132917592
 20
1.183790276025085
 30
0.0
  0
VERTEX
  5
4F0
  8
LAYER_1
 10
65.7743837027059
 20
1.19723350814887
 30
0.0
  0
VERTEX
  5
4F1
  8
LAYER_1
 10
65.79478099329057
 20
1.211284046005392
 30
0.0
  0
VERTEX
  5
4F2
  8
LAYER_1
 10
65.81494674405536
 20
1.225924492796704
 30
0.0
  0
VERTEX
  5
4F3
  8
LAYER_1
 10
65.83487449812569
 20
1.24113745172486
 30
0.0
  0
VERTEX
  5
4F4
  8
LAYER_1
 10
65.85455779862698
 20
1.256905525991915
 30
0.0
  0
VERTEX
  5
4F5
  8
LAYER_1
 10
65.87399018868467
 20
1.273211318799923
 30
0.0
  0
VERTEX
  5
4F6
  8
LAYER_1
 10
65.89316521142416
 20
1.290037433350937
 30
0.0
  0
VERTEX
  5
4F7
  8
LAYER_1
 10
65.91207640997092
 20
1.307366472847012
 30
0.0
  0
VERTEX
  5
4F8
  8
LAYER_1
 10
65.93071732745034
 20
1.325181040490202
 30
0.0
  0
VERTEX
  5
4F9
  8
LAYER_1
 10
65.94908150698785
 20
1.343463739482562
 30
0.0
  0
VERTEX
  5
4FA
  8
LAYER_1
 10
65.96716249170888
 20
1.362197173026144
 30
0.0
  0
VERTEX
  5
4FB
  8
LAYER_1
 10
65.98495382473885
 20
1.381363944323005
 30
0.0
  0
VERTEX
  5
4FC
  8
LAYER_1
 10
66.00244904920321
 20
1.400946656575196
 30
0.0
  0
VERTEX
  5
4FD
  8
LAYER_1
 10
66.01964170822734
 20
1.420927912984774
 30
0.0
  0
VERTEX
  5
4FE
  8
LAYER_1
 10
66.0365253449367
 20
1.441290316753792
 30
0.0
  0
VERTEX
  5
4FF
  8
LAYER_1
 10
66.0530935024567
 20
1.462016471084303
 30
0.0
  0
VERTEX
  5
500
  8
LAYER_1
 10
66.0693397239128
 20
1.483088979178363
 30
0.0
  0
VERTEX
  5
501
  8
LAYER_1
 10
66.08525755243039
 20
1.504490444238025
 30
0.0
  0
VERTEX
  5
502
  8
LAYER_1
 10
66.1008405311349
 20
1.526203469465344
 30
0.0
  0
VERTEX
  5
503
  8
LAYER_1
 10
66.11608220315176
 20
1.548210658062373
 30
0.0
  0
VERTEX
  5
504
  8
LAYER_1
 10
66.13097611160639
 20
1.570494613231167
 30
0.0
  0
VERTEX
  5
505
  8
LAYER_1
 10
66.14551579962422
 20
1.59303793817378
 30
0.0
  0
VERTEX
  5
506
  8
LAYER_1
 10
66.15969481033068
 20
1.615823236092266
 30
0.0
  0
VERTEX
  5
507
  8
LAYER_1
 10
66.17350668685117
 20
1.638833110188679
 30
0.0
  0
VERTEX
  5
508
  8
LAYER_1
 10
66.18694497231117
 20
1.662050163665074
 30
0.0
  0
VERTEX
  5
509
  8
LAYER_1
 10
66.20000320983607
 20
1.685456999723504
 30
0.0
  0
VERTEX
  5
50A
  8
LAYER_1
 10
66.21267494255127
 20
1.709036221566024
 30
0.0
  0
VERTEX
  5
50B
  8
LAYER_1
 10
66.22495371358224
 20
1.732770432394687
 30
0.0
  0
VERTEX
  5
50C
  8
LAYER_1
 10
66.2368330660544
 20
1.756642235411548
 30
0.0
  0
VERTEX
  5
50D
  8
LAYER_1
 10
66.24830654309315
 20
1.780634233818662
 30
0.0
  0
VERTEX
  5
50E
  8
LAYER_1
 10
66.25936768782393
 20
1.804729030818081
 30
0.0
  0
VERTEX
  5
50F
  8
LAYER_1
 10
66.27001004337217
 20
1.828909229611861
 30
0.0
  0
VERTEX
  5
510
  8
LAYER_1
 10
66.28022715286329
 20
1.853157433402056
 30
0.0
  0
VERTEX
  5
511
  8
LAYER_1
 10
66.2900125594227
 20
1.877456245390719
 30
0.0
  0
VERTEX
  5
512
  8
LAYER_1
 10
66.29935980617587
 20
1.901788268779905
 30
0.0
  0
VERTEX
  5
513
  8
LAYER_1
 10
66.3082624362482
 20
1.926136106771667
 30
0.0
  0
VERTEX
  5
514
  8
LAYER_1
 10
66.31671399276509
 20
1.950482362568061
 30
0.0
  0
VERTEX
  5
515
  8
LAYER_1
 10
66.324708018852
 20
1.97480963937114
 30
0.0
  0
VERTEX
  5
516
  8
LAYER_1
 10
66.33223805763433
 20
1.999100540382958
 30
0.0
  0
VERTEX
  5
517
  8
LAYER_1
 10
66.33929765223752
 20
2.02333766880557
 30
0.0
  0
VERTEX
  5
518
  8
LAYER_1
 10
66.34588034578701
 20
2.04750362784103
 30
0.0
  0
VERTEX
  5
519
  8
LAYER_1
 10
66.35197968140818
 20
2.071581020691391
 30
0.0
  0
VERTEX
  5
51A
  8
LAYER_1
 10
66.35758920222654
 20
2.095552450558708
 30
0.0
  0
VERTEX
  5
51B
  8
LAYER_1
 10
66.36270245136743
 20
2.119400520645035
 30
0.0
  0
VERTEX
  5
51C
  8
LAYER_1
 10
66.36731297195632
 20
2.143107834152426
 30
0.0
  0
VERTEX
  5
51D
  8
LAYER_1
 10
66.37141430711861
 20
2.166656994282936
 30
0.0
  0
VERTEX
  5
51E
  8
LAYER_1
 10
66.37499999997974
 20
2.190030604238618
 30
0.0
  0
VERTEX
  5
51F
  8
LAYER_1
 10
69.49999999963165
 20
24.06503060411365
 30
0.0
  0
VERTEX
  5
520
  8
LAYER_1
 10
69.5055339892883
 20
24.10597208653598
 30
0.0
  0
VERTEX
  5
521
  8
LAYER_1
 10
69.51061687905954
 20
24.14828817595825
 30
0.0
  0
VERTEX
  5
522
  8
LAYER_1
 10
69.51520767254917
 20
24.19187969243908
 30
0.0
  0
VERTEX
  5
523
  8
LAYER_1
 10
69.51926537336097
 20
24.23664745603708
 30
0.0
  0
VERTEX
  5
524
  8
LAYER_1
 10
69.52274898509872
 20
24.28249228681088
 30
0.0
  0
VERTEX
  5
525
  8
LAYER_1
 10
69.52561751136619
 20
24.32931500481907
 30
0.0
  0
VERTEX
  5
526
  8
LAYER_1
 10
69.5278299557672
 20
24.37701643012029
 30
0.0
  0
VERTEX
  5
527
  8
LAYER_1
 10
69.52934532190554
 20
24.42549738277314
 30
0.0
  0
VERTEX
  5
528
  8
LAYER_1
 10
69.53012261338498
 20
24.47465868283624
 30
0.0
  0
VERTEX
  5
529
  8
LAYER_1
 10
69.53012083380929
 20
24.52440115036821
 30
0.0
  0
VERTEX
  5
52A
  8
LAYER_1
 10
69.5292989867823
 20
24.57462560542766
 30
0.0
  0
VERTEX
  5
52B
  8
LAYER_1
 10
69.52761607590776
 20
24.6252328680732
 30
0.0
  0
VERTEX
  5
52C
  8
LAYER_1
 10
69.52503110478946
 20
24.67612375836345
 30
0.0
  0
VERTEX
  5
52D
  8
LAYER_1
 10
69.52150307703118
 20
24.72719909635703
 30
0.0
  0
VERTEX
  5
52E
  8
LAYER_1
 10
69.51699099623673
 20
24.77835970211256
 30
0.0
  0
VERTEX
  5
52F
  8
LAYER_1
 10
69.5114538660099
 20
24.82950639568864
 30
0.0
  0
VERTEX
  5
530
  8
LAYER_1
 10
69.50485068995445
 20
24.8805399971439
 30
0.0
  0
VERTEX
  5
531
  8
LAYER_1
 10
69.4971404716742
 20
24.93136132653694
 30
0.0
  0
VERTEX
  5
532
  8
LAYER_1
 10
69.49285741032594
 20
24.95666139547845
 30
0.0
  0
VERTEX
  5
533
  8
LAYER_1
 10
69.48828221477291
 20
24.98187120392639
 30
0.0
  0
VERTEX
  5
534
  8
LAYER_1
 10
69.48340976046555
 20
25.00697835438807
 30
0.0
  0
VERTEX
  5
535
  8
LAYER_1
 10
69.47823492285437
 20
25.03197044937085
 30
0.0
  0
VERTEX
  5
536
  8
LAYER_1
 10
69.47275257738981
 20
25.05683509138203
 30
0.0
  0
VERTEX
  5
537
  8
LAYER_1
 10
69.46695759952236
 20
25.08155988292895
 30
0.0
  0
VERTEX
  5
538
  8
LAYER_1
 10
69.4608448647025
 20
25.10613242651893
 30
0.0
  0
VERTEX
  5
539
  8
LAYER_1
 10
69.4544092483807
 20
25.1305403246593
 30
0.0
  0
VERTEX
  5
53A
  8
LAYER_1
 10
69.44764562600743
 20
25.15477117985738
 30
0.0
  0
VERTEX
  5
53B
  8
LAYER_1
 10
69.44054887303315
 20
25.17881259462052
 30
0.0
  0
VERTEX
  5
53C
  8
LAYER_1
 10
69.43311386490834
 20
25.20265217145602
 30
0.0
  0
VERTEX
  5
53D
  8
LAYER_1
 10
69.42533547708348
 20
25.22627751287122
 30
0.0
  0
VERTEX
  5
53E
  8
LAYER_1
 10
69.41720858500904
 20
25.24967622137344
 30
0.0
  0
VERTEX
  5
53F
  8
LAYER_1
 10
69.40872806413549
 20
25.27283589947001
 30
0.0
  0
VERTEX
  5
540
  8
LAYER_1
 10
69.39988878991332
 20
25.29574414966826
 30
0.0
  0
VERTEX
  5
541
  8
LAYER_1
 10
69.390685637793
 20
25.31838857447552
 30
0.0
  0
VERTEX
  5
542
  8
LAYER_1
 10
69.381113483225
 20
25.3407567763991
 30
0.0
  0
VERTEX
  5
543
  8
LAYER_1
 10
69.37116720165977
 20
25.36283635794635
 30
0.0
  0
VERTEX
  5
544
  8
LAYER_1
 10
69.36084166854779
 20
25.38461492162458
 30
0.0
  0
VERTEX
  5
545
  8
LAYER_1
 10
69.35013175933958
 20
25.40608006994113
 30
0.0
  0
VERTEX
  5
546
  8
LAYER_1
 10
69.33903234948556
 20
25.42721940540331
 30
0.0
  0
VERTEX
  5
547
  8
LAYER_1
 10
69.32753831443623
 20
25.44802053051846
 30
0.0
  0
VERTEX
  5
548
  8
LAYER_1
 10
69.31564452964206
 20
25.4684710477939
 30
0.0
  0
VERTEX
  5
549
  8
LAYER_1
 10
69.3033458705535
 20
25.48855855973697
 30
0.0
  0
VERTEX
  5
54A
  8
LAYER_1
 10
69.29063721262105
 20
25.50827066885498
 30
0.0
  0
VERTEX
  5
54B
  8
LAYER_1
 10
69.27751343129518
 20
25.52759497765526
 30
0.0
  0
VERTEX
  5
54C
  8
LAYER_1
 10
69.26396940202633
 20
25.54651908864515
 30
0.0
  0
VERTEX
  5
54D
  8
LAYER_1
 10
69.25000000026503
 20
25.56503060433196
 30
0.0
  0
VERTEX
  5
54E
  8
LAYER_1
 10
69.23614339432874
 20
25.58246294114254
 30
0.0
  0
VERTEX
  5
54F
  8
LAYER_1
 10
69.2219118697341
 20
25.59949668869885
 30
0.0
  0
VERTEX
  5
550
  8
LAYER_1
 10
69.20731335079935
 20
25.61613785665862
 30
0.0
  0
VERTEX
  5
551
  8
LAYER_1
 10
69.19235576184272
 20
25.63239245467962
 30
0.0
  0
VERTEX
  5
552
  8
LAYER_1
 10
69.17704702718244
 20
25.6482664924196
 30
0.0
  0
VERTEX
  5
553
  8
LAYER_1
 10
69.16139507113675
 20
25.66376597953631
 30
0.0
  0
VERTEX
  5
554
  8
LAYER_1
 10
69.14540781802387
 20
25.67889692568752
 30
0.0
  0
VERTEX
  5
555
  8
LAYER_1
 10
69.12909319216206
 20
25.69366534053096
 30
0.0
  0
VERTEX
  5
556
  8
LAYER_1
 10
69.11245911786952
 20
25.70807723372439
 30
0.0
  0
VERTEX
  5
557
  8
LAYER_1
 10
69.0955135194645
 20
25.72213861492557
 30
0.0
  0
VERTEX
  5
558
  8
LAYER_1
 10
69.07826432126524
 20
25.73585549379225
 30
0.0
  0
VERTEX
  5
559
  8
LAYER_1
 10
69.06071944758995
 20
25.74923387998219
 30
0.0
  0
VERTEX
  5
55A
  8
LAYER_1
 10
69.04288682275687
 20
25.76227978315313
 30
0.0
  0
VERTEX
  5
55B
  8
LAYER_1
 10
69.02477437108422
 20
25.77499921296283
 30
0.0
  0
VERTEX
  5
55C
  8
LAYER_1
 10
69.00639001689026
 20
25.78739817906904
 30
0.0
  0
VERTEX
  5
55D
  8
LAYER_1
 10
68.98774168449323
 20
25.79948269112953
 30
0.0
  0
VERTEX
  5
55E
  8
LAYER_1
 10
68.96883729821133
 20
25.81125875880203
 30
0.0
  0
VERTEX
  5
55F
  8
LAYER_1
 10
68.9496847823628
 20
25.82273239174432
 30
0.0
  0
VERTEX
  5
560
  8
LAYER_1
 10
68.93029206126586
 20
25.83390959961412
 30
0.0
  0
VERTEX
  5
561
  8
LAYER_1
 10
68.91066705923876
 20
25.84479639206921
 30
0.0
  0
VERTEX
  5
562
  8
LAYER_1
 10
68.89081770059973
 20
25.85539877876733
 30
0.0
  0
VERTEX
  5
563
  8
LAYER_1
 10
68.870751909667
 20
25.86572276936625
 30
0.0
  0
VERTEX
  5
564
  8
LAYER_1
 10
68.85047761075882
 20
25.8757743735237
 30
0.0
  0
VERTEX
  5
565
  8
LAYER_1
 10
68.83000272819339
 20
25.88555960089745
 30
0.0
  0
VERTEX
  5
566
  8
LAYER_1
 10
68.80933518628896
 20
25.89508446114525
 30
0.0
  0
VERTEX
  5
567
  8
LAYER_1
 10
68.78848290936375
 20
25.90435496392485
 30
0.0
  0
VERTEX
  5
568
  8
LAYER_1
 10
68.74625584772397
 20
25.92215693571047
 30
0.0
  0
VERTEX
  5
569
  8
LAYER_1
 10
68.7033849378199
 20
25.93901359351634
 30
0.0
  0
VERTEX
  5
56A
  8
LAYER_1
 10
68.6599335741974
 20
25.95497301460448
 30
0.0
  0
VERTEX
  5
56B
  8
LAYER_1
 10
68.6159651514023
 20
25.97008327623693
 30
0.0
  0
VERTEX
  5
56C
  8
LAYER_1
 10
68.5715430639805
 20
25.98439245567572
 30
0.0
  0
VERTEX
  5
56D
  8
LAYER_1
 10
68.52673070647782
 20
25.99794863018286
 30
0.0
  0
VERTEX
  5
56E
  8
LAYER_1
 10
68.48159147344012
 20
26.01079987702039
 30
0.0
  0
VERTEX
  5
56F
  8
LAYER_1
 10
68.43618875941328
 20
26.02299427345033
 30
0.0
  0
VERTEX
  5
570
  8
LAYER_1
 10
68.39058595894315
 20
26.03457989673472
 30
0.0
  0
VERTEX
  5
571
  8
LAYER_1
 10
68.34484646657558
 20
26.04560482413558
 30
0.0
  0
VERTEX
  5
572
  8
LAYER_1
 10
68.29903367685642
 20
26.05611713291493
 30
0.0
  0
VERTEX
  5
573
  8
LAYER_1
 10
68.25321098433156
 20
26.06616490033481
 30
0.0
  0
VERTEX
  5
574
  8
LAYER_1
 10
68.20744178354681
 20
26.07579620365724
 30
0.0
  0
VERTEX
  5
575
  8
LAYER_1
 10
68.11631743538119
 20
26.09400172705787
 30
0.0
  0
VERTEX
  5
576
  8
LAYER_1
 10
68.02616778872638
 20
26.11111832121304
 30
0.0
  0
SEQEND
  5
610
  8
LAYER_1
  0
POLYLINE
  5
8A
  8
LAYER_1
 66
     1
 10
0.0
 20
0.0
 30
0.0
 70
     1
  0
VERTEX
  5
577
  8
LAYER_1
 10
46.4375
 20
6.315530604238884
 30
0.0
 42
0.4142135623730951
  0
VERTEX
  5
578
  8
LAYER_1
 10
46.31200000000001
 20
6.190030604238881
 30
0.0
 42
0.4142135623730951
  0
VERTEX
  5
579
  8
LAYER_1
 10
46.4375
 20
6.064530604238879
 30
0.0
 42
0.4142135623730951
  0
VERTEX
  5
57A
  8
LAYER_1
 10
46.56300000000002
 20
6.190030604238881
 30
0.0
 42
0.4142135623730951
  0
SEQEND
  5
611
  8
LAYER_1
  0
POLYLINE
  5
8B
  8
LAYER_1
 66
     1
 10
0.0
 20
0.0
 30
0.0
 70
     1
  0
VERTEX
  5
57B
  8
LAYER_1
 10
36.25
 20
18.25303060423888
 30
0.0
 42
0.4142135623730951
  0
VERTEX
  5
57C
  8
LAYER_1
 10
36.12450000000001
 20
18.12753060423887
 30
0.0
 42
0.4142135623730951
  0
VERTEX
  5
57D
  8
LAYER_1
 10
36.25
 20
18.00203060423887
 30
0.0
 42
0.4142135623730951
  0
VERTEX
  5
57E
  8
LAYER_1
 10
36.37550000000002
 20
18.12753060423887
 30
0.0
 42
0.4142135623730951
  0
SEQEND
  5
612
  8
LAYER_1
  0
POLYLINE
  5
8C
  8
LAYER_1
 66
     1
 10
0.0
 20
0.0
 30
0.0
 70
     1
  0
VERTEX
  5
57F
  8
LAYER_1
 10
34.78119999999998
 20
24.81553060423888
 30
0.0
 42
0.4142135623730951
  0
VERTEX
  5
580
  8
LAYER_1
 10
34.6557
 20
24.69003060423887
 30
0.0
 42
0.4142135623730951
  0
VERTEX
  5
581
  8
LAYER_1
 10
34.78119999999998
 20
24.56453060423887
 30
0.0
 42
0.4142135623730951
  0
VERTEX
  5
582
  8
LAYER_1
 10
34.9067
 20
24.69003060423887
 30
0.0
 42
0.4142135623730951
  0
SEQEND
  5
613
  8
LAYER_1
  0
POLYLINE
  5
8D
  8
LAYER_1
 66
     1
 10
0.0
 20
0.0
 30
0.0
 70
     1
  0
VERTEX
  5
583
  8
LAYER_1
 10
1.0
 20
28.19003060423887
 30
0.0
  0
VERTEX
  5
584
  8
LAYER_1
 10
37.4375
 20
28.19003060423887
 30
0.0
  0
VERTEX
  5
585
  8
LAYER_1
 10
37.4375
 20
28.99003060423887
 30
0.0
  0
VERTEX
  5
586
  8
LAYER_1
 10
1.0
 20
28.99003060423887
 30
0.0
  0
SEQEND
  5
614
  8
LAYER_1
  0
POLYLINE
  5
8E
  8
LAYER_1
 66
     1
 10
0.0
 20
0.0
 30
0.0
 70
     1
  0
VERTEX
  5
587
  8
LAYER_1
 10
77.35940000000002
 20
26.93403060423888
 30
0.0
 42
0.4142135623730951
  0
VERTEX
  5
588
  8
LAYER_1
 10
77.48490000000001
 20
27.05953060423887
 30
0.0
 42
0.4142135623730951
  0
VERTEX
  5
589
  8
LAYER_1
 10
77.35940000000002
 20
27.18503060423888
 30
0.0
 42
0.4142135623730951
  0
VERTEX
  5
58A
  8
LAYER_1
 10
77.2339
 20
27.05953060423887
 30
0.0
 42
0.4142135623730951
  0
SEQEND
  5
615
  8
LAYER_1
  0
POLYLINE
  5
8F
  8
LAYER_1
 66
     1
 10
0.0
 20
0.0
 30
0.0
 70
     1
  0
VERTEX
  5
58B
  8
LAYER_1
 10
89.8906
 20
32.24703060423887
 30
0.0
  0
VERTEX
  5
58C
  8
LAYER_1
 10
77.7031
 20
32.24703060423887
 30
0.0
  0
VERTEX
  5
58D
  8
LAYER_1
 10
77.7031
 20
21.74703060423887
 30
0.0
  0
VERTEX
  5
58E
  8
LAYER_1
 10
89.8906
 20
21.74703060423887
 30
0.0
  0
SEQEND
  5
616
  8
LAYER_1
  0
POLYLINE
  5
90
  8
LAYER_1
 66
     1
 10
0.0
 20
0.0
 30
0.0
 70
     1
  0
VERTEX
  5
58F
  8
LAYER_1
 10
83.79690000000002
 20
32.43403060423889
 30
0.0
 42
0.4142135623730951
  0
VERTEX
  5
590
  8
LAYER_1
 10
83.92240000000001
 20
32.55953060423888
 30
0.0
 42
0.4142135623730951
  0
VERTEX
  5
591
  8
LAYER_1
 10
83.79690000000002
 20
32.68503060423888
 30
0.0
 42
0.4142135623730951
  0
VERTEX
  5
592
  8
LAYER_1
 10
83.6714
 20
32.55953060423888
 30
0.0
 42
0.4142135623730951
  0
SEQEND
  5
617
  8
LAYER_1
  0
POLYLINE
  5
91
  8
LAYER_1
 66
     1
 10
0.0
 20
0.0
 30
0.0
 70
     1
  0
VERTEX
  5
593
  8
LAYER_1
 10
83.79690000000002
 20
21.37153060423888
 30
0.0
 42
0.4142135623730951
  0
VERTEX
  5
594
  8
LAYER_1
 10
83.92240000000001
 20
21.49703060423887
 30
0.0
 42
0.4142135623730951
  0
VERTEX
  5
595
  8
LAYER_1
 10
83.79690000000002
 20
21.62253060423889
 30
0.0
 42
0.4142135623730951
  0
VERTEX
  5
596
  8
LAYER_1
 10
83.6714
 20
21.49703060423887
 30
0.0
 42
0.4142135623730951
  0
SEQEND
  5
618
  8
LAYER_1
  0
POLYLINE
  5
92
  8
LAYER_1
 66
     1
 10
0.0
 20
0.0
 30
0.0
 70
     1
  0
VERTEX
  5
597
  8
LAYER_1
 10
90.2656
 20
26.93403060423888
 30
0.0
 42
0.4142135623730951
  0
VERTEX
  5
598
  8
LAYER_1
 10
90.3911
 20
27.05953060423887
 30
0.0
 42
0.4142135623730951
  0
VERTEX
  5
599
  8
LAYER_1
 10
90.2656
 20
27.18503060423888
 30
0.0
 42
0.4142135623730951
  0
VERTEX
  5
59A
  8
LAYER_1
 10
90.14009999999999
 20
27.05953060423887
 30
0.0
 42
0.4142135623730951
  0
SEQEND
  5
619
  8
LAYER_1
  0
POLYLINE
  5
93
  8
LAYER_1
 66
     1
 10
0.0
 20
0.0
 30
0.0
 70
     1
  0
VERTEX
  5
59B
  8
LAYER_1
 10
71.625
 20
1.065030604238874
 30
0.0
  0
VERTEX
  5
59C
  8
LAYER_1
 10
96.0
 20
1.065030604238874
 30
0.0
  0
VERTEX
  5
59D
  8
LAYER_1
 10
96.0
 20
37.12753060423888
 30
0.0
  0
VERTEX
  5
59E
  8
LAYER_1
 10
71.625
 20
37.12753060423888
 30
0.0
  0
SEQEND
  5
61A
  8
LAYER_1
  0
POLYLINE
  5
94
  8
LAYER_1
 66
     1
 10
0.0
 20
0.0
 30
0.0
 70
     1
  0
VERTEX
  5
59F
  8
LAYER_1
 10
46.17798215403883
 20
28.51634410220381
 30
0.0
  0
VERTEX
  5
5A0
  8
LAYER_1
 10
70.17798215403883
 20
28.51634410220381
 30
0.0
  0
VERTEX
  5
5A1
  8
LAYER_1
 10
70.17798215403883
 20
45.32884410220381
 30
0.0
  0
VERTEX
  5
5A2
  8
LAYER_1
 10
46.17798215403883
 20
45.32884410220381
 30
0.0
  0
SEQEND
  5
61B
  8
LAYER_1
  0
POLYLINE
  5
95
  8
LAYER_1
 66
     1
 10
0.0
 20
0.0
 30
0.0
 70
     1
  0
VERTEX
  5
5A3
  8
LAYER_1
 10
71.83778862711333
 20
38.7193321266246
 30
0.0
  0
VERTEX
  5
5A4
  8
LAYER_1
 10
95.83778862711333
 20
38.7193321266246
 30
0.0
  0
VERTEX
  5
5A5
  8
LAYER_1
 10
95.83778862711333
 20
44.0943321266246
 30
0.0
  0
VERTEX
  5
5A6
  8
LAYER_1
 10
71.83778862711333
 20
44.0943321266246
 30
0.0
  0
SEQEND
  5
61C
  8
LAYER_1
  0
POLYLINE
  5
96
  8
LAYER_1
 66
     1
 10
0.0
 20
0.0
 30
0.0
 70
     1
  0
VERTEX
  5
5A7
  8
LAYER_1
 10
78.65028862711333
 20
41.3443321266246
 30
0.0
  0
VERTEX
  5
5A8
  8
LAYER_1
 10
89.02528862711333
 20
41.3443321266246
 30
0.0
  0
VERTEX
  5
5A9
  8
LAYER_1
 10
89.02528862711333
 20
43.3443321266246
 30
0.0
  0
VERTEX
  5
5AA
  8
LAYER_1
 10
78.65028862711333
 20
43.3443321266246
 30
0.0
  0
SEQEND
  5
61D
  8
LAYER_1
  0
POLYLINE
  5
97
  8
LAYER_1
 66
     1
 10
0.0
 20
0.0
 30
0.0
 70
     1
  0
VERTEX
  5
5AB
  8
LAYER_1
 10
26.40409948340638
 20
36.66012687850311
 30
0.0
  0
VERTEX
  5
5AC
  8
LAYER_1
 10
39.52909948340638
 20
36.66012687850311
 30
0.0
  0
VERTEX
  5
5AD
  8
LAYER_1
 10
39.52909948340638
 20
37.28512687850311
 30
0.0
  0
VERTEX
  5
5AE
  8
LAYER_1
 10
26.40409948340638
 20
37.28512687850311
 30
0.0
  0
SEQEND
  5
61E
  8
LAYER_1
  0
POLYLINE
  5
98
  8
LAYER_1
 66
     1
 10
0.0
 20
0.0
 30
0.0
 70
     1
  0
VERTEX
  5
5AF
  8
LAYER_1
 10
22.79622633404307
 20
44.97262687850311
 30
0.0
  0
VERTEX
  5
5B0
  8
LAYER_1
 10
20.96659948340638
 20
44.97262687850311
 30
0.0
  0
VERTEX
  5
5B1
  8
LAYER_1
 10
20.96659948340638
 20
32.41012687850311
 30
0.0
  0
VERTEX
  5
5B2
  8
LAYER_1
 10
44.96659948340638
 20
32.41012687850311
 30
0.0
  0
VERTEX
  5
5B3
  8
LAYER_1
 10
44.96659948340638
 20
44.97262687850311
 30
0.0
  0
VERTEX
  5
5B4
  8
LAYER_1
 10
23.76039708262762
 20
44.97262687850311
 30
0.0
  0
VERTEX
  5
5B5
  8
LAYER_1
 10
23.71659948340638
 20
44.97262687850311
 30
0.0
  0
VERTEX
  5
5B6
  8
LAYER_1
 10
23.71659948340638
 20
44.34762687850311
 30
0.0
  0
VERTEX
  5
5B7
  8
LAYER_1
 10
22.84159948340638
 20
44.34762687850311
 30
0.0
  0
VERTEX
  5
5B8
  8
LAYER_1
 10
22.84159948340638
 20
44.97262687850311
 30
0.0
  0
SEQEND
  5
61F
  8
LAYER_1
  0
POLYLINE
  5
99
  8
LAYER_1
 66
     1
 10
0.0
 20
0.0
 30
0.0
 70
     1
  0
VERTEX
  5
5B9
  8
LAYER_1
 10
6.893141437069502
 20
31.03318965245427
 30
0.0
  0
VERTEX
  5
5BA
  8
LAYER_1
 10
12.6431414370695
 20
31.03318965245427
 30
0.0
  0
VERTEX
  5
5BB
  8
LAYER_1
 10
12.6431414370695
 20
36.78318965245428
 30
0.0
  0
VERTEX
  5
5BC
  8
LAYER_1
 10
6.893141437069502
 20
36.78318965245428
 30
0.0
  0
SEQEND
  5
620
  8
LAYER_1
  0
POLYLINE
  5
9A
  8
LAYER_1
 66
     1
 10
0.0
 20
0.0
 30
0.0
 70
     1
  0
VERTEX
  5
5BD
  8
LAYER_1
 10
14.12126810620632
 20
31.15143867693385
 30
0.0
  0
VERTEX
  5
5BE
  8
LAYER_1
 10
19.87126810620632
 20
31.15143867693385
 30
0.0
  0
VERTEX
  5
5BF
  8
LAYER_1
 10
19.87126810620632
 20
36.90143867693384
 30
0.0
  0
VERTEX
  5
5C0
  8
LAYER_1
 10
14.12126810620632
 20
36.90143867693384
 30
0.0
  0
SEQEND
  5
621
  8
LAYER_1
  0
POLYLINE
  5
9B
  8
LAYER_1
 66
     1
 10
0.0
 20
0.0
 30
0.0
 70
     1
  0
VERTEX
  5
5C1
  8
LAYER_1
 10
70.3539655574946
 20
8.17577747249921
 30
0.0
  0
VERTEX
  5
5C2
  8
LAYER_1
 10
70.3539655574946
 20
13.17577747249921
 30
0.0
  0
VERTEX
  5
5C3
  8
LAYER_1
 10
68.8539655574946
 20
13.17577747249921
 30
0.0
  0
VERTEX
  5
5C4
  8
LAYER_1
 10
68.8539655574946
 20
8.17577747249921
 30
0.0
  0
SEQEND
  5
622
  8
LAYER_1
  0
POLYLINE
  5
9C
  8
LAYER_1
 66
     1
 10
0.0
 20
0.0
 30
0.0
 70
     1
  0
VERTEX
  5
5C5
  8
LAYER_1
 10
70.10255839366377
 20
1.387784049065569
 30
0.0
  0
VERTEX
  5
5C6
  8
LAYER_1
 10
70.10255839366377
 20
6.387784049065562
 30
0.0
  0
VERTEX
  5
5C7
  8
LAYER_1
 10
68.60255839366377
 20
6.387784049065562
 30
0.0
  0
VERTEX
  5
5C8
  8
LAYER_1
 10
68.60255839366377
 20
1.387784049065569
 30
0.0
  0
SEQEND
  5
623
  8
LAYER_1
  0
POLYLINE
  5
9D
  8
LAYER_1
 66
     1
 10
0.0
 20
0.0
 30
0.0
 70
     1
  0
VERTEX
  5
5C9
  8
LAYER_1
 10
7.613375543010335
 20
38.21167678164181
 30
0.0
  0
VERTEX
  5
5CA
  8
LAYER_1
 10
19.61337554301033
 20
38.21167678164181
 30
0.0
  0
VERTEX
  5
5CB
  8
LAYER_1
 10
19.61337554301033
 20
39.71167678164181
 30
0.0
  0
VERTEX
  5
5CC
  8
LAYER_1
 10
7.613375543010335
 20
39.71167678164181
 30
0.0
  0
SEQEND
  5
624
  8
LAYER_1
  0
POLYLINE
  5
9E
  8
LAYER_1
 66
     1
 10
0.0
 20
0.0
 30
0.0
 70
     1
  0
VERTEX
  5
5CD
  8
LAYER_1
 10
45.60483658324202
 20
25.59975733795834
 30
0.0
  0
VERTEX
  5
5CE
  8
LAYER_1
 10
57.60483658324202
 20
25.59975733795834
 30
0.0
  0
VERTEX
  5
5CF
  8
LAYER_1
 10
57.60483658324202
 20
27.09975733795834
 30
0.0
  0
VERTEX
  5
5D0
  8
LAYER_1
 10
45.60483658324202
 20
27.09975733795834
 30
0.0
  0
SEQEND
  5
625
  8
LAYER_1
  0
POLYLINE
  5
9F
  8
LAYER_1
 66
     1
 10
0.0
 20
0.0
 30
0.0
 70
     1
  0
VERTEX
  5
5D1
  8
LAYER_1
 10
71.83926293714086
 20
45.63777152475298
 30
0.0
  0
VERTEX
  5
5D2
  8
LAYER_1
 10
95.83926293714086
 20
45.63777152475298
 30
0.0
  0
VERTEX
  5
5D3
  8
LAYER_1
 10
95.83926293714086
 20
47.13777152475298
 30
0.0
  0
VERTEX
  5
5D4
  8
LAYER_1
 10
71.83926293714086
 20
47.13777152475298
 30
0.0
  0
SEQEND
  5
626
  8
LAYER_1
  0
POLYLINE
  5
A0
  8
LAYER_1
 66
     1
 10
0.0
 20
0.0
 30
0.0
 70
     1
  0
VERTEX
  5
5D5
  8
LAYER_1
 10
46.12963159712834
 20
46.43496939576112
 30
0.0
  0
VERTEX
  5
5D6
  8
LAYER_1
 10
70.12963159712834
 20
46.43496939576112
 30
0.0
  0
VERTEX
  5
5D7
  8
LAYER_1
 10
70.12963159712834
 20
47.93496939576112
 30
0.0
  0
VERTEX
  5
5D8
  8
LAYER_1
 10
46.12963159712834
 20
47.93496939576112
 30
0.0
  0
SEQEND
  5
627
  8
LAYER_1
  0
POLYLINE
  5
A1
  8
LAYER_1
 66
     1
 10
0.0
 20
0.0
 30
0.0
 70
     1
  0
VERTEX
  5
5D9
  8
LAYER_1
 10
23.91299493463617
 20
46.3353196618851
 30
0.0
  0
VERTEX
  5
5DA
  8
LAYER_1
 10
44.91299493463617
 20
46.3353196618851
 30
0.0
  0
VERTEX
  5
5DB
  8
LAYER_1
 10
44.91299493463617
 20
47.8353196618851
 30
0.0
  0
VERTEX
  5
5DC
  8
LAYER_1
 10
23.91299493463617
 20
47.8353196618851
 30
0.0
  0
SEQEND
  5
628
  8
LAYER_1
  0
POLYLINE
  5
A2
  8
LAYER_1
 66
     1
 10
0.0
 20
0.0
 30
0.0
 70
     1
  0
VERTEX
  5
5DD
  8
LAYER_1
 10
3.445252683540389
 20
46.23566992800908
 30
0.0
  0
VERTEX
  5
5DE
  8
LAYER_1
 10
22.13275268354039
 20
46.23566992800908
 30
0.0
  0
VERTEX
  5
5DF
  8
LAYER_1
 10
22.13275268354039
 20
47.73566992800908
 30
0.0
  0
VERTEX
  5
5E0
  8
LAYER_1
 10
3.445252683540389
 20
47.73566992800908
 30
0.0
  0
SEQEND
  5
629
  8
LAYER_1
  0
POLYLINE
  5
A3
  8
LAYER_1
 66
     1
 10
0.0
 20
0.0
 30
0.0
 70
     1
  0
VERTEX
  5
5E1
  8
LAYER_1
 10
1.252958538268004
 20
43.4454773794806
 30
0.0
  0
VERTEX
  5
5E2
  8
LAYER_1
 10
19.940458538268
 20
43.4454773794806
 30
0.0
  0
VERTEX
  5
5E3
  8
LAYER_1
 10
19.940458538268
 20
44.9454773794806
 30
0.0
  0
VERTEX
  5
5E4
  8
LAYER_1
 10
1.252958538268004
 20
44.9454773794806
 30
0.0
  0
SEQEND
  5
62A
  8
LAYER_1
  0
POLYLINE
  5
A4
  8
LAYER_1
 66
     1
 10
0.0
 20
0.0
 30
0.0
 70
     1
  0
VERTEX
  5
5E5
  8
LAYER_1
 10
98.91953937592584
 20
-32.2248900909615
 30
0.0
  0
VERTEX
  5
5E6
  8
LAYER_1
 10
125.5445393759258
 20
-32.2248900909615
 30
0.0
  0
VERTEX
  5
5E7
  8
LAYER_1
 10
125.5445393759258
 20
-8.224890090961502
 30
0.0
  0
VERTEX
  5
5E8
  8
LAYER_1
 10
98.91953937592584
 20
-8.224890090961502
 30
0.0
  0
SEQEND
  5
62B
  8
LAYER_1
  0
POLYLINE
  5
A5
  8
LAYER_1
 66
     1
 10
0.0
 20
0.0
 30
0.0
 70
     1
  0
VERTEX
  5
5E9
  8
LAYER_1
 10
98.86750382097907
 20
-0.5298011546747219
 30
0.0
  0
VERTEX
  5
5EA
  8
LAYER_1
 10
122.8675038209791
 20
-0.5298011546747219
 30
0.0
  0
VERTEX
  5
5EB
  8
LAYER_1
 10
122.8675038209791
 20
5.220198845325278
 30
0.0
  0
VERTEX
  5
5EC
  8
LAYER_1
 10
98.86750382097907
 20
5.220198845325278
 30
0.0
  0
SEQEND
  5
62C
  8
LAYER_1
  0
POLYLINE
  5
A6
  8
LAYER_1
 66
     1
 10
0.0
 20
0.0
 30
0.0
 70
     1
  0
VERTEX
  5
5ED
  8
LAYER_1
 10
122.8167434014426
 20
31.50238746855046
 30
0.0
  0
VERTEX
  5
5EE
  8
LAYER_1
 10
98.81674340144261
 20
31.50238746855046
 30
0.0
  0
VERTEX
  5
5EF
  8
LAYER_1
 10
98.81674340144261
 20
7.439887468550438
 30
0.0
  0
VERTEX
  5
5F0
  8
LAYER_1
 10
122.8167434014426
 20
7.439887468550438
 30
0.0
  0
SEQEND
  5
62D
  8
LAYER_1
  0
POLYLINE
  5
A7
  8
LAYER_1
 66
     1
 10
0.0
 20
0.0
 30
0.0
 70
     1
  0
VERTEX
  5
5F1
  8
LAYER_1
 10
98.92562549442928
 20
-6.756596023960874
 30
0.0
  0
VERTEX
  5
5F2
  8
LAYER_1
 10
125.3006254944293
 20
-6.756596023960874
 30
0.0
  0
VERTEX
  5
5F3
  8
LAYER_1
 10
125.3006254944293
 20
-1.756596023960874
 30
0.0
  0
VERTEX
  5
5F4
  8
LAYER_1
 10
98.92562549442928
 20
-1.756596023960874
 30
0.0
  0
SEQEND
  5
62E
  8
LAYER_1
  0
ENDSEC
  0
EOF
