  0
SECTION
  2
HEADER
  9
$ACADVER
  1
AC1006
  9
$EXTMIN
 10
-21.706638
 20
-5.342937
  9
$EXTMAX
 10
20.553382
 20
45.293819
  9
$LTSCALE
 40
0.000394
  9
$PDMODE
 70
    35
  9
$PDSIZE
 40
0.000315
  0
ENDSEC
  0
SECTION
  2
TABLES
  0
TABLE
  2
LTYPE
 70
     9
  0
LTYPE
  2
CONTINUOUS
 70
    64
  3
Solid line
 72
    65
 73
     0
 40
0.000000
  0
LTYPE
  2
DASHED
 70
    64
  3
__ __ __ __ __ __ __ __ __ __ __ __ __ __ __
 72
    65
 73
     2
 40
0.000003
 49
0.000002
 49
-0.000001
  0
LTYPE
  2
HIDDEN
 70
    64
  3
 _ _ _ _ _ _ _ _ _ _ _ _ _ _ _ _ _ _ _ _ _ _
 72
    65
 73
     2
 40
0.000001
 49
0.000001
 49
-0.000000
  0
LTYPE
  2
CENTER
 70
    64
  3
____ _ ____ _ ____ _ ____ _ ____ _ ____ _ ____
 72
    65
 73
     4
 40
0.000008
 49
0.000005
 49
-0.000001
 49
0.000001
 49
-0.000001
  0
LTYPE
  2
PHANTOM
 70
    64
  3
_____ _ _ _____ _ _ _____ _ _ _____ _ _ ____
 72
    65
 73
     6
 40
0.000010
 49
0.000005
 49
-0.000001
 49
0.000001
 49
-0.000001
 49
0.000001
 49
-0.000001
  0
LTYPE
  2
DOT
 70
    64
  3
...............................................
 72
    65
 73
     2
 40
0.000001
 49
0.000000
 49
-0.000001
  0
LTYPE
  2
DASHDOT
 70
    64
  3
__ . __ . __ . __ . __ . __ . __ . __ . __ . __
 72
    65
 73
     4
 40
0.000004
 49
0.000002
 49
-0.000001
 49
0.000000
 49
-0.000001
  0
LTYPE
  2
BORDER
 70
    64
  3
__ __ . __ __ . __ __ . __ __ . __ __ . __ __
 72
    65
 73
     6
 40
0.000007
 49
0.000002
 49
-0.000001
 49
0.000002
 49
-0.000001
 49
0.000000
 49
-0.000001
  0
LTYPE
  2
DIVIDE
 70
    64
  3
__ . . __ . . __ . . __ . . __ . . __ . . __
 72
    65
 73
     6
 40
0.000005
 49
0.000002
 49
-0.000001
 49
0.000000
 49
-0.000001
 49
0.000000
 49
-0.000001
  0
LTYPE
  2
DOTDOT
 70
    64
  3
 . .  . .  . .  . .  . .  . . 
 72
    65
 73
     5
 40
0.000002
 49
-0.000001
 49
0.000000
 49
-0.000001
 49
0.000000
 49
-0.000001
  0
ENDTAB
  0
TABLE
  2
STYLE
 70
     0
  0
ENDTAB
  0
TABLE
  2
LAYER
 70
     3
  0
LAYER
  2
FOREGROUND
 70
    64
 62
     7
  6
CONTINUOUS
  0
LAYER
  2
BACKGROUND
 70
    65
 62
    -7
  6
CONTINUOUS
  0
LAYER
  2
LAYER_1
 70
    64
 62
     7
  6
CONTINUOUS
  0
ENDTAB
  0
ENDSEC
  0
SECTION
  2
ENTITIES
  0
POLYLINE
  8
LAYER_1
 62
    20
  6
CONTINUOUS
 66
     1
 40
0.003000
 41
0.003000
 70
     1
  0
VERTEX
  8
LAYER_1
 62
    20
  6
CONTINUOUS
 10
-21.705138
 20
20.855319
  0
VERTEX
  8
LAYER_1
 62
    20
  6
CONTINUOUS
 10
1.419862
 20
20.855319
  0
VERTEX
  8
LAYER_1
 62
    20
  6
CONTINUOUS
 10
1.419862
 20
45.292319
  0
VERTEX
  8
LAYER_1
 62
    20
  6
CONTINUOUS
 10
-21.705138
 20
45.292319
  0
SEQEND
  8
0
  0
POLYLINE
  8
LAYER_1
 62
    20
  6
CONTINUOUS
 66
     1
 40
0.003000
 41
0.003000
 70
     1
  0
VERTEX
  8
LAYER_1
 62
    20
  6
CONTINUOUS
 10
-2.841457
 20
23.951733
  0
VERTEX
  8
LAYER_1
 62
    20
  6
CONTINUOUS
 10
-2.841461
 20
23.955190
  0
VERTEX
  8
LAYER_1
 62
    20
  6
CONTINUOUS
 10
-2.841481
 20
23.958648
  0
VERTEX
  8
LAYER_1
 62
    20
  6
CONTINUOUS
 10
-2.841517
 20
23.962105
  0
VERTEX
  8
LAYER_1
 62
    20
  6
CONTINUOUS
 10
-2.841568
 20
23.965561
  0
VERTEX
  8
LAYER_1
 62
    20
  6
CONTINUOUS
 10
-2.841636
 20
23.969018
  0
VERTEX
  8
LAYER_1
 62
    20
  6
CONTINUOUS
 10
-2.841719
 20
23.972474
  0
VERTEX
  8
LAYER_1
 62
    20
  6
CONTINUOUS
 10
-2.841819
 20
23.975930
  0
VERTEX
  8
LAYER_1
 62
    20
  6
CONTINUOUS
 10
-2.841934
 20
23.979385
  0
VERTEX
  8
LAYER_1
 62
    20
  6
CONTINUOUS
 10
-2.842066
 20
23.982840
  0
VERTEX
  8
LAYER_1
 62
    20
  6
CONTINUOUS
 10
-2.842213
 20
23.986294
  0
VERTEX
  8
LAYER_1
 62
    20
  6
CONTINUOUS
 10
-2.842376
 20
23.989748
  0
VERTEX
  8
LAYER_1
 62
    20
  6
CONTINUOUS
 10
-2.842555
 20
23.993200
  0
VERTEX
  8
LAYER_1
 62
    20
  6
CONTINUOUS
 10
-2.842750
 20
23.996652
  0
VERTEX
  8
LAYER_1
 62
    20
  6
CONTINUOUS
 10
-2.842961
 20
24.000103
  0
VERTEX
  8
LAYER_1
 62
    20
  6
CONTINUOUS
 10
-2.843188
 20
24.003553
  0
VERTEX
  8
LAYER_1
 62
    20
  6
CONTINUOUS
 10
-2.843431
 20
24.007002
  0
VERTEX
  8
LAYER_1
 62
    20
  6
CONTINUOUS
 10
-2.843689
 20
24.010449
  0
VERTEX
  8
LAYER_1
 62
    20
  6
CONTINUOUS
 10
-2.843964
 20
24.013895
  0
VERTEX
  8
LAYER_1
 62
    20
  6
CONTINUOUS
 10
-2.844254
 20
24.017340
  0
VERTEX
  8
LAYER_1
 62
    20
  6
CONTINUOUS
 10
-2.844560
 20
24.020784
  0
VERTEX
  8
LAYER_1
 62
    20
  6
CONTINUOUS
 10
-2.844883
 20
24.024226
  0
VERTEX
  8
LAYER_1
 62
    20
  6
CONTINUOUS
 10
-2.845221
 20
24.027667
  0
VERTEX
  8
LAYER_1
 62
    20
  6
CONTINUOUS
 10
-2.845575
 20
24.031106
  0
VERTEX
  8
LAYER_1
 62
    20
  6
CONTINUOUS
 10
-2.845944
 20
24.034544
  0
VERTEX
  8
LAYER_1
 62
    20
  6
CONTINUOUS
 10
-2.846330
 20
24.037979
  0
VERTEX
  8
LAYER_1
 62
    20
  6
CONTINUOUS
 10
-2.846731
 20
24.041413
  0
VERTEX
  8
LAYER_1
 62
    20
  6
CONTINUOUS
 10
-2.847148
 20
24.044845
  0
VERTEX
  8
LAYER_1
 62
    20
  6
CONTINUOUS
 10
-2.847581
 20
24.048275
  0
VERTEX
  8
LAYER_1
 62
    20
  6
CONTINUOUS
 10
-2.848030
 20
24.051703
  0
VERTEX
  8
LAYER_1
 62
    20
  6
CONTINUOUS
 10
-2.848495
 20
24.055129
  0
VERTEX
  8
LAYER_1
 62
    20
  6
CONTINUOUS
 10
-2.848975
 20
24.058553
  0
VERTEX
  8
LAYER_1
 62
    20
  6
CONTINUOUS
 10
-2.849471
 20
24.061974
  0
VERTEX
  8
LAYER_1
 62
    20
  6
CONTINUOUS
 10
-2.849983
 20
24.065393
  0
VERTEX
  8
LAYER_1
 62
    20
  6
CONTINUOUS
 10
-2.850511
 20
24.068810
  0
VERTEX
  8
LAYER_1
 62
    20
  6
CONTINUOUS
 10
-2.851055
 20
24.072224
  0
VERTEX
  8
LAYER_1
 62
    20
  6
CONTINUOUS
 10
-2.851614
 20
24.075636
  0
VERTEX
  8
LAYER_1
 62
    20
  6
CONTINUOUS
 10
-2.852189
 20
24.079045
  0
VERTEX
  8
LAYER_1
 62
    20
  6
CONTINUOUS
 10
-2.852779
 20
24.082452
  0
VERTEX
  8
LAYER_1
 62
    20
  6
CONTINUOUS
 10
-2.853386
 20
24.085855
  0
VERTEX
  8
LAYER_1
 62
    20
  6
CONTINUOUS
 10
-2.854008
 20
24.089256
  0
VERTEX
  8
LAYER_1
 62
    20
  6
CONTINUOUS
 10
-2.854645
 20
24.092654
  0
VERTEX
  8
LAYER_1
 62
    20
  6
CONTINUOUS
 10
-2.855299
 20
24.096049
  0
VERTEX
  8
LAYER_1
 62
    20
  6
CONTINUOUS
 10
-2.855968
 20
24.099441
  0
VERTEX
  8
LAYER_1
 62
    20
  6
CONTINUOUS
 10
-2.856652
 20
24.102830
  0
VERTEX
  8
LAYER_1
 62
    20
  6
CONTINUOUS
 10
-2.857352
 20
24.106216
  0
VERTEX
  8
LAYER_1
 62
    20
  6
CONTINUOUS
 10
-2.858068
 20
24.109598
  0
VERTEX
  8
LAYER_1
 62
    20
  6
CONTINUOUS
 10
-2.858800
 20
24.112977
  0
VERTEX
  8
LAYER_1
 62
    20
  6
CONTINUOUS
 10
-2.859547
 20
24.116352
  0
VERTEX
  8
LAYER_1
 62
    20
  6
CONTINUOUS
 10
-2.860309
 20
24.119725
  0
VERTEX
  8
LAYER_1
 62
    20
  6
CONTINUOUS
 10
-2.861087
 20
24.123093
  0
VERTEX
  8
LAYER_1
 62
    20
  6
CONTINUOUS
 10
-2.861881
 20
24.126458
  0
VERTEX
  8
LAYER_1
 62
    20
  6
CONTINUOUS
 10
-2.862690
 20
24.129819
  0
VERTEX
  8
LAYER_1
 62
    20
  6
CONTINUOUS
 10
-2.863514
 20
24.133177
  0
VERTEX
  8
LAYER_1
 62
    20
  6
CONTINUOUS
 10
-2.864354
 20
24.136531
  0
VERTEX
  8
LAYER_1
 62
    20
  6
CONTINUOUS
 10
-2.865210
 20
24.139880
  0
VERTEX
  8
LAYER_1
 62
    20
  6
CONTINUOUS
 10
-2.866081
 20
24.143226
  0
VERTEX
  8
LAYER_1
 62
    20
  6
CONTINUOUS
 10
-2.866967
 20
24.146568
  0
VERTEX
  8
LAYER_1
 62
    20
  6
CONTINUOUS
 10
-2.867869
 20
24.149905
  0
VERTEX
  8
LAYER_1
 62
    20
  6
CONTINUOUS
 10
-2.868786
 20
24.153239
  0
VERTEX
  8
LAYER_1
 62
    20
  6
CONTINUOUS
 10
-2.869718
 20
24.156568
  0
VERTEX
  8
LAYER_1
 62
    20
  6
CONTINUOUS
 10
-2.870666
 20
24.159893
  0
VERTEX
  8
LAYER_1
 62
    20
  6
CONTINUOUS
 10
-2.871629
 20
24.163213
  0
VERTEX
  8
LAYER_1
 62
    20
  6
CONTINUOUS
 10
-2.872608
 20
24.166529
  0
VERTEX
  8
LAYER_1
 62
    20
  6
CONTINUOUS
 10
-2.873601
 20
24.169840
  0
VERTEX
  8
LAYER_1
 62
    20
  6
CONTINUOUS
 10
-2.874610
 20
24.173147
  0
VERTEX
  8
LAYER_1
 62
    20
  6
CONTINUOUS
 10
-2.875635
 20
24.176449
  0
VERTEX
  8
LAYER_1
 62
    20
  6
CONTINUOUS
 10
-2.876674
 20
24.179747
  0
VERTEX
  8
LAYER_1
 62
    20
  6
CONTINUOUS
 10
-2.877728
 20
24.183039
  0
VERTEX
  8
LAYER_1
 62
    20
  6
CONTINUOUS
 10
-2.878798
 20
24.186327
  0
VERTEX
  8
LAYER_1
 62
    20
  6
CONTINUOUS
 10
-2.879883
 20
24.189609
  0
VERTEX
  8
LAYER_1
 62
    20
  6
CONTINUOUS
 10
-2.880983
 20
24.192887
  0
VERTEX
  8
LAYER_1
 62
    20
  6
CONTINUOUS
 10
-2.882098
 20
24.196159
  0
VERTEX
  8
LAYER_1
 62
    20
  6
CONTINUOUS
 10
-2.883228
 20
24.199427
  0
VERTEX
  8
LAYER_1
 62
    20
  6
CONTINUOUS
 10
-2.884374
 20
24.202689
  0
VERTEX
  8
LAYER_1
 62
    20
  6
CONTINUOUS
 10
-2.885534
 20
24.205946
  0
VERTEX
  8
LAYER_1
 62
    20
  6
CONTINUOUS
 10
-2.886709
 20
24.209197
  0
VERTEX
  8
LAYER_1
 62
    20
  6
CONTINUOUS
 10
-2.887899
 20
24.212443
  0
VERTEX
  8
LAYER_1
 62
    20
  6
CONTINUOUS
 10
-2.889104
 20
24.215683
  0
VERTEX
  8
LAYER_1
 62
    20
  6
CONTINUOUS
 10
-2.890324
 20
24.218918
  0
VERTEX
  8
LAYER_1
 62
    20
  6
CONTINUOUS
 10
-2.891559
 20
24.222147
  0
VERTEX
  8
LAYER_1
 62
    20
  6
CONTINUOUS
 10
-2.892809
 20
24.225371
  0
VERTEX
  8
LAYER_1
 62
    20
  6
CONTINUOUS
 10
-2.894074
 20
24.228588
  0
VERTEX
  8
LAYER_1
 62
    20
  6
CONTINUOUS
 10
-2.895354
 20
24.231800
  0
VERTEX
  8
LAYER_1
 62
    20
  6
CONTINUOUS
 10
-2.896648
 20
24.235006
  0
VERTEX
  8
LAYER_1
 62
    20
  6
CONTINUOUS
 10
-2.897957
 20
24.238206
  0
VERTEX
  8
LAYER_1
 62
    20
  6
CONTINUOUS
 10
-2.899281
 20
24.241400
  0
VERTEX
  8
LAYER_1
 62
    20
  6
CONTINUOUS
 10
-2.900619
 20
24.244587
  0
VERTEX
  8
LAYER_1
 62
    20
  6
CONTINUOUS
 10
-2.901972
 20
24.247769
  0
VERTEX
  8
LAYER_1
 62
    20
  6
CONTINUOUS
 10
-2.903340
 20
24.250944
  0
VERTEX
  8
LAYER_1
 62
    20
  6
CONTINUOUS
 10
-2.904723
 20
24.254113
  0
VERTEX
  8
LAYER_1
 62
    20
  6
CONTINUOUS
 10
-2.906120
 20
24.257275
  0
VERTEX
  8
LAYER_1
 62
    20
  6
CONTINUOUS
 10
-2.907531
 20
24.260431
  0
VERTEX
  8
LAYER_1
 62
    20
  6
CONTINUOUS
 10
-2.908958
 20
24.263580
  0
VERTEX
  8
LAYER_1
 62
    20
  6
CONTINUOUS
 10
-2.910398
 20
24.266723
  0
VERTEX
  8
LAYER_1
 62
    20
  6
CONTINUOUS
 10
-2.911853
 20
24.269859
  0
VERTEX
  8
LAYER_1
 62
    20
  6
CONTINUOUS
 10
-2.913323
 20
24.272989
  0
VERTEX
  8
LAYER_1
 62
    20
  6
CONTINUOUS
 10
-2.914807
 20
24.276111
  0
VERTEX
  8
LAYER_1
 62
    20
  6
CONTINUOUS
 10
-2.916305
 20
24.279227
  0
VERTEX
  8
LAYER_1
 62
    20
  6
CONTINUOUS
 10
-2.917818
 20
24.282336
  0
VERTEX
  8
LAYER_1
 62
    20
  6
CONTINUOUS
 10
-2.919345
 20
24.285437
  0
VERTEX
  8
LAYER_1
 62
    20
  6
CONTINUOUS
 10
-2.920886
 20
24.288532
  0
VERTEX
  8
LAYER_1
 62
    20
  6
CONTINUOUS
 10
-2.922442
 20
24.291620
  0
VERTEX
  8
LAYER_1
 62
    20
  6
CONTINUOUS
 10
-2.924012
 20
24.294700
  0
VERTEX
  8
LAYER_1
 62
    20
  6
CONTINUOUS
 10
-2.925596
 20
24.297773
  0
VERTEX
  8
LAYER_1
 62
    20
  6
CONTINUOUS
 10
-2.927194
 20
24.300839
  0
VERTEX
  8
LAYER_1
 62
    20
  6
CONTINUOUS
 10
-2.928806
 20
24.303897
  0
VERTEX
  8
LAYER_1
 62
    20
  6
CONTINUOUS
 10
-2.930432
 20
24.306948
  0
VERTEX
  8
LAYER_1
 62
    20
  6
CONTINUOUS
 10
-2.932073
 20
24.309991
  0
VERTEX
  8
LAYER_1
 62
    20
  6
CONTINUOUS
 10
-2.933727
 20
24.313027
  0
VERTEX
  8
LAYER_1
 62
    20
  6
CONTINUOUS
 10
-2.935395
 20
24.316055
  0
VERTEX
  8
LAYER_1
 62
    20
  6
CONTINUOUS
 10
-2.937078
 20
24.319075
  0
VERTEX
  8
LAYER_1
 62
    20
  6
CONTINUOUS
 10
-2.938774
 20
24.322088
  0
VERTEX
  8
LAYER_1
 62
    20
  6
CONTINUOUS
 10
-2.940484
 20
24.325093
  0
VERTEX
  8
LAYER_1
 62
    20
  6
CONTINUOUS
 10
-2.942208
 20
24.328090
  0
VERTEX
  8
LAYER_1
 62
    20
  6
CONTINUOUS
 10
-2.943945
 20
24.331078
  0
VERTEX
  8
LAYER_1
 62
    20
  6
CONTINUOUS
 10
-2.945697
 20
24.334059
  0
VERTEX
  8
LAYER_1
 62
    20
  6
CONTINUOUS
 10
-2.947462
 20
24.337032
  0
VERTEX
  8
LAYER_1
 62
    20
  6
CONTINUOUS
 10
-2.949241
 20
24.339996
  0
VERTEX
  8
LAYER_1
 62
    20
  6
CONTINUOUS
 10
-2.951033
 20
24.342953
  0
VERTEX
  8
LAYER_1
 62
    20
  6
CONTINUOUS
 10
-2.952840
 20
24.345901
  0
VERTEX
  8
LAYER_1
 62
    20
  6
CONTINUOUS
 10
-2.954659
 20
24.348840
  0
VERTEX
  8
LAYER_1
 62
    20
  6
CONTINUOUS
 10
-2.956492
 20
24.351772
  0
VERTEX
  8
LAYER_1
 62
    20
  6
CONTINUOUS
 10
-2.958339
 20
24.354694
  0
VERTEX
  8
LAYER_1
 62
    20
  6
CONTINUOUS
 10
-2.960199
 20
24.357608
  0
VERTEX
  8
LAYER_1
 62
    20
  6
CONTINUOUS
 10
-2.962073
 20
24.360514
  0
VERTEX
  8
LAYER_1
 62
    20
  6
CONTINUOUS
 10
-2.963960
 20
24.363411
  0
VERTEX
  8
LAYER_1
 62
    20
  6
CONTINUOUS
 10
-2.965860
 20
24.366299
  0
VERTEX
  8
LAYER_1
 62
    20
  6
CONTINUOUS
 10
-2.967774
 20
24.369179
  0
VERTEX
  8
LAYER_1
 62
    20
  6
CONTINUOUS
 10
-2.969700
 20
24.372049
  0
VERTEX
  8
LAYER_1
 62
    20
  6
CONTINUOUS
 10
-2.971640
 20
24.374911
  0
VERTEX
  8
LAYER_1
 62
    20
  6
CONTINUOUS
 10
-2.973594
 20
24.377763
  0
VERTEX
  8
LAYER_1
 62
    20
  6
CONTINUOUS
 10
-2.975560
 20
24.380607
  0
VERTEX
  8
LAYER_1
 62
    20
  6
CONTINUOUS
 10
-2.977539
 20
24.383442
  0
VERTEX
  8
LAYER_1
 62
    20
  6
CONTINUOUS
 10
-2.979532
 20
24.386267
  0
VERTEX
  8
LAYER_1
 62
    20
  6
CONTINUOUS
 10
-2.981537
 20
24.389083
  0
VERTEX
  8
LAYER_1
 62
    20
  6
CONTINUOUS
 10
-2.983556
 20
24.391890
  0
VERTEX
  8
LAYER_1
 62
    20
  6
CONTINUOUS
 10
-2.985587
 20
24.394688
  0
VERTEX
  8
LAYER_1
 62
    20
  6
CONTINUOUS
 10
-2.987631
 20
24.397476
  0
VERTEX
  8
LAYER_1
 62
    20
  6
CONTINUOUS
 10
-2.989688
 20
24.400254
  0
VERTEX
  8
LAYER_1
 62
    20
  6
CONTINUOUS
 10
-2.991758
 20
24.403024
  0
VERTEX
  8
LAYER_1
 62
    20
  6
CONTINUOUS
 10
-2.993841
 20
24.405783
  0
VERTEX
  8
LAYER_1
 62
    20
  6
CONTINUOUS
 10
-2.995936
 20
24.408533
  0
VERTEX
  8
LAYER_1
 62
    20
  6
CONTINUOUS
 10
-2.998044
 20
24.411274
  0
VERTEX
  8
LAYER_1
 62
    20
  6
CONTINUOUS
 10
-3.000164
 20
24.414004
  0
VERTEX
  8
LAYER_1
 62
    20
  6
CONTINUOUS
 10
-3.002297
 20
24.416725
  0
VERTEX
  8
LAYER_1
 62
    20
  6
CONTINUOUS
 10
-3.004443
 20
24.419436
  0
VERTEX
  8
LAYER_1
 62
    20
  6
CONTINUOUS
 10
-3.006601
 20
24.422137
  0
VERTEX
  8
LAYER_1
 62
    20
  6
CONTINUOUS
 10
-3.008772
 20
24.424828
  0
VERTEX
  8
LAYER_1
 62
    20
  6
CONTINUOUS
 10
-3.010955
 20
24.427509
  0
VERTEX
  8
LAYER_1
 62
    20
  6
CONTINUOUS
 10
-3.013150
 20
24.430180
  0
VERTEX
  8
LAYER_1
 62
    20
  6
CONTINUOUS
 10
-3.015357
 20
24.432840
  0
VERTEX
  8
LAYER_1
 62
    20
  6
CONTINUOUS
 10
-3.017577
 20
24.435491
  0
VERTEX
  8
LAYER_1
 62
    20
  6
CONTINUOUS
 10
-3.019809
 20
24.438131
  0
VERTEX
  8
LAYER_1
 62
    20
  6
CONTINUOUS
 10
-3.022053
 20
24.440761
  0
VERTEX
  8
LAYER_1
 62
    20
  6
CONTINUOUS
 10
-3.024309
 20
24.443381
  0
VERTEX
  8
LAYER_1
 62
    20
  6
CONTINUOUS
 10
-3.026578
 20
24.445990
  0
VERTEX
  8
LAYER_1
 62
    20
  6
CONTINUOUS
 10
-3.028858
 20
24.448588
  0
VERTEX
  8
LAYER_1
 62
    20
  6
CONTINUOUS
 10
-3.031150
 20
24.451177
  0
VERTEX
  8
LAYER_1
 62
    20
  6
CONTINUOUS
 10
-3.033454
 20
24.453754
  0
VERTEX
  8
LAYER_1
 62
    20
  6
CONTINUOUS
 10
-3.035770
 20
24.456321
  0
VERTEX
  8
LAYER_1
 62
    20
  6
CONTINUOUS
 10
-3.038098
 20
24.458877
  0
VERTEX
  8
LAYER_1
 62
    20
  6
CONTINUOUS
 10
-3.040438
 20
24.461423
  0
VERTEX
  8
LAYER_1
 62
    20
  6
CONTINUOUS
 10
-3.042789
 20
24.463957
  0
VERTEX
  8
LAYER_1
 62
    20
  6
CONTINUOUS
 10
-3.045152
 20
24.466481
  0
VERTEX
  8
LAYER_1
 62
    20
  6
CONTINUOUS
 10
-3.047526
 20
24.468994
  0
VERTEX
  8
LAYER_1
 62
    20
  6
CONTINUOUS
 10
-3.049912
 20
24.471496
  0
VERTEX
  8
LAYER_1
 62
    20
  6
CONTINUOUS
 10
-3.052310
 20
24.473986
  0
VERTEX
  8
LAYER_1
 62
    20
  6
CONTINUOUS
 10
-3.054719
 20
24.476466
  0
VERTEX
  8
LAYER_1
 62
    20
  6
CONTINUOUS
 10
-3.057139
 20
24.478935
  0
VERTEX
  8
LAYER_1
 62
    20
  6
CONTINUOUS
 10
-3.059571
 20
24.481392
  0
VERTEX
  8
LAYER_1
 62
    20
  6
CONTINUOUS
 10
-3.062014
 20
24.483838
  0
VERTEX
  8
LAYER_1
 62
    20
  6
CONTINUOUS
 10
-3.064469
 20
24.486273
  0
VERTEX
  8
LAYER_1
 62
    20
  6
CONTINUOUS
 10
-3.066934
 20
24.488697
  0
VERTEX
  8
LAYER_1
 62
    20
  6
CONTINUOUS
 10
-3.069411
 20
24.491109
  0
VERTEX
  8
LAYER_1
 62
    20
  6
CONTINUOUS
 10
-3.071899
 20
24.493510
  0
VERTEX
  8
LAYER_1
 62
    20
  6
CONTINUOUS
 10
-3.074398
 20
24.495899
  0
VERTEX
  8
LAYER_1
 62
    20
  6
CONTINUOUS
 10
-3.076907
 20
24.498277
  0
VERTEX
  8
LAYER_1
 62
    20
  6
CONTINUOUS
 10
-3.079428
 20
24.500643
  0
VERTEX
  8
LAYER_1
 62
    20
  6
CONTINUOUS
 10
-3.081960
 20
24.502997
  0
VERTEX
  8
LAYER_1
 62
    20
  6
CONTINUOUS
 10
-3.084502
 20
24.505340
  0
VERTEX
  8
LAYER_1
 62
    20
  6
CONTINUOUS
 10
-3.087056
 20
24.507671
  0
VERTEX
  8
LAYER_1
 62
    20
  6
CONTINUOUS
 10
-3.089619
 20
24.509990
  0
VERTEX
  8
LAYER_1
 62
    20
  6
CONTINUOUS
 10
-3.092194
 20
24.512298
  0
VERTEX
  8
LAYER_1
 62
    20
  6
CONTINUOUS
 10
-3.094779
 20
24.514593
  0
VERTEX
  8
LAYER_1
 62
    20
  6
CONTINUOUS
 10
-3.097375
 20
24.516877
  0
VERTEX
  8
LAYER_1
 62
    20
  6
CONTINUOUS
 10
-3.099981
 20
24.519148
  0
VERTEX
  8
LAYER_1
 62
    20
  6
CONTINUOUS
 10
-3.102598
 20
24.521408
  0
VERTEX
  8
LAYER_1
 62
    20
  6
CONTINUOUS
 10
-3.105225
 20
24.523655
  0
VERTEX
  8
LAYER_1
 62
    20
  6
CONTINUOUS
 10
-3.107863
 20
24.525891
  0
VERTEX
  8
LAYER_1
 62
    20
  6
CONTINUOUS
 10
-3.110510
 20
24.528114
  0
VERTEX
  8
LAYER_1
 62
    20
  6
CONTINUOUS
 10
-3.113168
 20
24.530325
  0
VERTEX
  8
LAYER_1
 62
    20
  6
CONTINUOUS
 10
-3.115836
 20
24.532523
  0
VERTEX
  8
LAYER_1
 62
    20
  6
CONTINUOUS
 10
-3.118515
 20
24.534709
  0
VERTEX
  8
LAYER_1
 62
    20
  6
CONTINUOUS
 10
-3.121203
 20
24.536883
  0
VERTEX
  8
LAYER_1
 62
    20
  6
CONTINUOUS
 10
-3.123901
 20
24.539045
  0
VERTEX
  8
LAYER_1
 62
    20
  6
CONTINUOUS
 10
-3.126609
 20
24.541194
  0
VERTEX
  8
LAYER_1
 62
    20
  6
CONTINUOUS
 10
-3.129327
 20
24.543330
  0
VERTEX
  8
LAYER_1
 62
    20
  6
CONTINUOUS
 10
-3.132055
 20
24.545454
  0
VERTEX
  8
LAYER_1
 62
    20
  6
CONTINUOUS
 10
-3.134793
 20
24.547566
  0
VERTEX
  8
LAYER_1
 62
    20
  6
CONTINUOUS
 10
-3.137540
 20
24.549665
  0
VERTEX
  8
LAYER_1
 62
    20
  6
CONTINUOUS
 10
-3.140297
 20
24.551751
  0
VERTEX
  8
LAYER_1
 62
    20
  6
CONTINUOUS
 10
-3.143064
 20
24.553824
  0
VERTEX
  8
LAYER_1
 62
    20
  6
CONTINUOUS
 10
-3.145840
 20
24.555885
  0
VERTEX
  8
LAYER_1
 62
    20
  6
CONTINUOUS
 10
-3.148625
 20
24.557932
  0
VERTEX
  8
LAYER_1
 62
    20
  6
CONTINUOUS
 10
-3.151420
 20
24.559967
  0
VERTEX
  8
LAYER_1
 62
    20
  6
CONTINUOUS
 10
-3.154225
 20
24.561989
  0
VERTEX
  8
LAYER_1
 62
    20
  6
CONTINUOUS
 10
-3.157038
 20
24.563998
  0
VERTEX
  8
LAYER_1
 62
    20
  6
CONTINUOUS
 10
-3.159861
 20
24.565994
  0
VERTEX
  8
LAYER_1
 62
    20
  6
CONTINUOUS
 10
-3.162693
 20
24.567977
  0
VERTEX
  8
LAYER_1
 62
    20
  6
CONTINUOUS
 10
-3.165534
 20
24.569947
  0
VERTEX
  8
LAYER_1
 62
    20
  6
CONTINUOUS
 10
-3.168385
 20
24.571904
  0
VERTEX
  8
LAYER_1
 62
    20
  6
CONTINUOUS
 10
-3.171244
 20
24.573848
  0
VERTEX
  8
LAYER_1
 62
    20
  6
CONTINUOUS
 10
-3.174112
 20
24.575778
  0
VERTEX
  8
LAYER_1
 62
    20
  6
CONTINUOUS
 10
-3.176989
 20
24.577695
  0
VERTEX
  8
LAYER_1
 62
    20
  6
CONTINUOUS
 10
-3.179875
 20
24.579599
  0
VERTEX
  8
LAYER_1
 62
    20
  6
CONTINUOUS
 10
-3.182769
 20
24.581490
  0
VERTEX
  8
LAYER_1
 62
    20
  6
CONTINUOUS
 10
-3.185672
 20
24.583367
  0
VERTEX
  8
LAYER_1
 62
    20
  6
CONTINUOUS
 10
-3.188584
 20
24.585231
  0
VERTEX
  8
LAYER_1
 62
    20
  6
CONTINUOUS
 10
-3.191505
 20
24.587081
  0
VERTEX
  8
LAYER_1
 62
    20
  6
CONTINUOUS
 10
-3.194434
 20
24.588918
  0
VERTEX
  8
LAYER_1
 62
    20
  6
CONTINUOUS
 10
-3.197371
 20
24.590741
  0
VERTEX
  8
LAYER_1
 62
    20
  6
CONTINUOUS
 10
-3.200317
 20
24.592551
  0
VERTEX
  8
LAYER_1
 62
    20
  6
CONTINUOUS
 10
-3.203271
 20
24.594347
  0
VERTEX
  8
LAYER_1
 62
    20
  6
CONTINUOUS
 10
-3.206233
 20
24.596130
  0
VERTEX
  8
LAYER_1
 62
    20
  6
CONTINUOUS
 10
-3.209203
 20
24.597899
  0
VERTEX
  8
LAYER_1
 62
    20
  6
CONTINUOUS
 10
-3.212182
 20
24.599654
  0
VERTEX
  8
LAYER_1
 62
    20
  6
CONTINUOUS
 10
-3.215168
 20
24.601396
  0
VERTEX
  8
LAYER_1
 62
    20
  6
CONTINUOUS
 10
-3.218163
 20
24.603123
  0
VERTEX
  8
LAYER_1
 62
    20
  6
CONTINUOUS
 10
-3.221166
 20
24.604837
  0
VERTEX
  8
LAYER_1
 62
    20
  6
CONTINUOUS
 10
-3.224176
 20
24.606537
  0
VERTEX
  8
LAYER_1
 62
    20
  6
CONTINUOUS
 10
-3.227194
 20
24.608223
  0
VERTEX
  8
LAYER_1
 62
    20
  6
CONTINUOUS
 10
-3.230220
 20
24.609895
  0
VERTEX
  8
LAYER_1
 62
    20
  6
CONTINUOUS
 10
-3.233254
 20
24.611554
  0
VERTEX
  8
LAYER_1
 62
    20
  6
CONTINUOUS
 10
-3.236295
 20
24.613198
  0
VERTEX
  8
LAYER_1
 62
    20
  6
CONTINUOUS
 10
-3.239344
 20
24.614828
  0
VERTEX
  8
LAYER_1
 62
    20
  6
CONTINUOUS
 10
-3.242400
 20
24.616444
  0
VERTEX
  8
LAYER_1
 62
    20
  6
CONTINUOUS
 10
-3.245464
 20
24.618046
  0
VERTEX
  8
LAYER_1
 62
    20
  6
CONTINUOUS
 10
-3.248535
 20
24.619634
  0
VERTEX
  8
LAYER_1
 62
    20
  6
CONTINUOUS
 10
-3.251613
 20
24.621208
  0
VERTEX
  8
LAYER_1
 62
    20
  6
CONTINUOUS
 10
-3.254699
 20
24.622767
  0
VERTEX
  8
LAYER_1
 62
    20
  6
CONTINUOUS
 10
-3.257792
 20
24.624312
  0
VERTEX
  8
LAYER_1
 62
    20
  6
CONTINUOUS
 10
-3.260892
 20
24.625843
  0
VERTEX
  8
LAYER_1
 62
    20
  6
CONTINUOUS
 10
-3.263998
 20
24.627360
  0
VERTEX
  8
LAYER_1
 62
    20
  6
CONTINUOUS
 10
-3.267112
 20
24.628862
  0
VERTEX
  8
LAYER_1
 62
    20
  6
CONTINUOUS
 10
-3.270233
 20
24.630350
  0
VERTEX
  8
LAYER_1
 62
    20
  6
CONTINUOUS
 10
-3.273360
 20
24.631824
  0
VERTEX
  8
LAYER_1
 62
    20
  6
CONTINUOUS
 10
-3.276495
 20
24.633283
  0
VERTEX
  8
LAYER_1
 62
    20
  6
CONTINUOUS
 10
-3.279636
 20
24.634727
  0
VERTEX
  8
LAYER_1
 62
    20
  6
CONTINUOUS
 10
-3.282783
 20
24.636157
  0
VERTEX
  8
LAYER_1
 62
    20
  6
CONTINUOUS
 10
-3.285937
 20
24.637573
  0
VERTEX
  8
LAYER_1
 62
    20
  6
CONTINUOUS
 10
-3.289098
 20
24.638974
  0
VERTEX
  8
LAYER_1
 62
    20
  6
CONTINUOUS
 10
-3.292265
 20
24.640361
  0
VERTEX
  8
LAYER_1
 62
    20
  6
CONTINUOUS
 10
-3.295438
 20
24.641733
  0
VERTEX
  8
LAYER_1
 62
    20
  6
CONTINUOUS
 10
-3.298618
 20
24.643090
  0
VERTEX
  8
LAYER_1
 62
    20
  6
CONTINUOUS
 10
-3.301804
 20
24.644432
  0
VERTEX
  8
LAYER_1
 62
    20
  6
CONTINUOUS
 10
-3.304996
 20
24.645760
  0
VERTEX
  8
LAYER_1
 62
    20
  6
CONTINUOUS
 10
-3.308194
 20
24.647073
  0
VERTEX
  8
LAYER_1
 62
    20
  6
CONTINUOUS
 10
-3.311399
 20
24.648372
  0
VERTEX
  8
LAYER_1
 62
    20
  6
CONTINUOUS
 10
-3.314609
 20
24.649655
  0
VERTEX
  8
LAYER_1
 62
    20
  6
CONTINUOUS
 10
-3.317825
 20
24.650924
  0
VERTEX
  8
LAYER_1
 62
    20
  6
CONTINUOUS
 10
-3.321047
 20
24.652178
  0
VERTEX
  8
LAYER_1
 62
    20
  6
CONTINUOUS
 10
-3.324274
 20
24.653417
  0
VERTEX
  8
LAYER_1
 62
    20
  6
CONTINUOUS
 10
-3.327508
 20
24.654641
  0
VERTEX
  8
LAYER_1
 62
    20
  6
CONTINUOUS
 10
-3.330746
 20
24.655850
  0
VERTEX
  8
LAYER_1
 62
    20
  6
CONTINUOUS
 10
-3.333991
 20
24.657045
  0
VERTEX
  8
LAYER_1
 62
    20
  6
CONTINUOUS
 10
-3.337241
 20
24.658224
  0
VERTEX
  8
LAYER_1
 62
    20
  6
CONTINUOUS
 10
-3.340496
 20
24.659388
  0
VERTEX
  8
LAYER_1
 62
    20
  6
CONTINUOUS
 10
-3.343757
 20
24.660538
  0
VERTEX
  8
LAYER_1
 62
    20
  6
CONTINUOUS
 10
-3.347023
 20
24.661672
  0
VERTEX
  8
LAYER_1
 62
    20
  6
CONTINUOUS
 10
-3.350294
 20
24.662791
  0
VERTEX
  8
LAYER_1
 62
    20
  6
CONTINUOUS
 10
-3.353570
 20
24.663895
  0
VERTEX
  8
LAYER_1
 62
    20
  6
CONTINUOUS
 10
-3.356851
 20
24.664984
  0
VERTEX
  8
LAYER_1
 62
    20
  6
CONTINUOUS
 10
-3.360137
 20
24.666058
  0
VERTEX
  8
LAYER_1
 62
    20
  6
CONTINUOUS
 10
-3.363428
 20
24.667117
  0
VERTEX
  8
LAYER_1
 62
    20
  6
CONTINUOUS
 10
-3.366724
 20
24.668161
  0
VERTEX
  8
LAYER_1
 62
    20
  6
CONTINUOUS
 10
-3.370025
 20
24.669189
  0
VERTEX
  8
LAYER_1
 62
    20
  6
CONTINUOUS
 10
-3.373331
 20
24.670202
  0
VERTEX
  8
LAYER_1
 62
    20
  6
CONTINUOUS
 10
-3.376641
 20
24.671200
  0
VERTEX
  8
LAYER_1
 62
    20
  6
CONTINUOUS
 10
-3.379956
 20
24.672183
  0
VERTEX
  8
LAYER_1
 62
    20
  6
CONTINUOUS
 10
-3.383275
 20
24.673150
  0
VERTEX
  8
LAYER_1
 62
    20
  6
CONTINUOUS
 10
-3.386598
 20
24.674102
  0
VERTEX
  8
LAYER_1
 62
    20
  6
CONTINUOUS
 10
-3.389926
 20
24.675038
  0
VERTEX
  8
LAYER_1
 62
    20
  6
CONTINUOUS
 10
-3.393259
 20
24.675960
  0
VERTEX
  8
LAYER_1
 62
    20
  6
CONTINUOUS
 10
-3.396595
 20
24.676866
  0
VERTEX
  8
LAYER_1
 62
    20
  6
CONTINUOUS
 10
-3.399936
 20
24.677756
  0
VERTEX
  8
LAYER_1
 62
    20
  6
CONTINUOUS
 10
-3.403280
 20
24.678631
  0
VERTEX
  8
LAYER_1
 62
    20
  6
CONTINUOUS
 10
-3.406629
 20
24.679491
  0
VERTEX
  8
LAYER_1
 62
    20
  6
CONTINUOUS
 10
-3.409982
 20
24.680335
  0
VERTEX
  8
LAYER_1
 62
    20
  6
CONTINUOUS
 10
-3.413338
 20
24.681164
  0
VERTEX
  8
LAYER_1
 62
    20
  6
CONTINUOUS
 10
-3.416698
 20
24.681978
  0
VERTEX
  8
LAYER_1
 62
    20
  6
CONTINUOUS
 10
-3.420062
 20
24.682775
  0
VERTEX
  8
LAYER_1
 62
    20
  6
CONTINUOUS
 10
-3.423430
 20
24.683558
  0
VERTEX
  8
LAYER_1
 62
    20
  6
CONTINUOUS
 10
-3.426801
 20
24.684324
  0
VERTEX
  8
LAYER_1
 62
    20
  6
CONTINUOUS
 10
-3.430176
 20
24.685076
  0
VERTEX
  8
LAYER_1
 62
    20
  6
CONTINUOUS
 10
-3.433554
 20
24.685811
  0
VERTEX
  8
LAYER_1
 62
    20
  6
CONTINUOUS
 10
-3.436935
 20
24.686531
  0
VERTEX
  8
LAYER_1
 62
    20
  6
CONTINUOUS
 10
-3.440320
 20
24.687236
  0
VERTEX
  8
LAYER_1
 62
    20
  6
CONTINUOUS
 10
-3.443708
 20
24.687925
  0
VERTEX
  8
LAYER_1
 62
    20
  6
CONTINUOUS
 10
-3.447099
 20
24.688598
  0
VERTEX
  8
LAYER_1
 62
    20
  6
CONTINUOUS
 10
-3.450493
 20
24.689256
  0
VERTEX
  8
LAYER_1
 62
    20
  6
CONTINUOUS
 10
-3.453890
 20
24.689898
  0
VERTEX
  8
LAYER_1
 62
    20
  6
CONTINUOUS
 10
-3.457290
 20
24.690524
  0
VERTEX
  8
LAYER_1
 62
    20
  6
CONTINUOUS
 10
-3.460693
 20
24.691135
  0
VERTEX
  8
LAYER_1
 62
    20
  6
CONTINUOUS
 10
-3.464099
 20
24.691730
  0
VERTEX
  8
LAYER_1
 62
    20
  6
CONTINUOUS
 10
-3.467507
 20
24.692309
  0
VERTEX
  8
LAYER_1
 62
    20
  6
CONTINUOUS
 10
-3.470918
 20
24.692872
  0
VERTEX
  8
LAYER_1
 62
    20
  6
CONTINUOUS
 10
-3.474332
 20
24.693420
  0
VERTEX
  8
LAYER_1
 62
    20
  6
CONTINUOUS
 10
-3.477748
 20
24.693952
  0
VERTEX
  8
LAYER_1
 62
    20
  6
CONTINUOUS
 10
-3.481166
 20
24.694468
  0
VERTEX
  8
LAYER_1
 62
    20
  6
CONTINUOUS
 10
-3.484587
 20
24.694969
  0
VERTEX
  8
LAYER_1
 62
    20
  6
CONTINUOUS
 10
-3.488010
 20
24.695454
  0
VERTEX
  8
LAYER_1
 62
    20
  6
CONTINUOUS
 10
-3.491436
 20
24.695923
  0
VERTEX
  8
LAYER_1
 62
    20
  6
CONTINUOUS
 10
-3.494863
 20
24.696376
  0
VERTEX
  8
LAYER_1
 62
    20
  6
CONTINUOUS
 10
-3.498292
 20
24.696813
  0
VERTEX
  8
LAYER_1
 62
    20
  6
CONTINUOUS
 10
-3.501724
 20
24.697235
  0
VERTEX
  8
LAYER_1
 62
    20
  6
CONTINUOUS
 10
-3.505157
 20
24.697640
  0
VERTEX
  8
LAYER_1
 62
    20
  6
CONTINUOUS
 10
-3.508592
 20
24.698030
  0
VERTEX
  8
LAYER_1
 62
    20
  6
CONTINUOUS
 10
-3.512029
 20
24.698404
  0
VERTEX
  8
LAYER_1
 62
    20
  6
CONTINUOUS
 10
-3.515468
 20
24.698763
  0
VERTEX
  8
LAYER_1
 62
    20
  6
CONTINUOUS
 10
-3.518908
 20
24.699105
  0
VERTEX
  8
LAYER_1
 62
    20
  6
CONTINUOUS
 10
-3.522350
 20
24.699431
  0
VERTEX
  8
LAYER_1
 62
    20
  6
CONTINUOUS
 10
-3.525793
 20
24.699742
  0
VERTEX
  8
LAYER_1
 62
    20
  6
CONTINUOUS
 10
-3.529238
 20
24.700037
  0
VERTEX
  8
LAYER_1
 62
    20
  6
CONTINUOUS
 10
-3.532684
 20
24.700316
  0
VERTEX
  8
LAYER_1
 62
    20
  6
CONTINUOUS
 10
-3.536131
 20
24.700579
  0
VERTEX
  8
LAYER_1
 62
    20
  6
CONTINUOUS
 10
-3.539580
 20
24.700826
  0
VERTEX
  8
LAYER_1
 62
    20
  6
CONTINUOUS
 10
-3.543029
 20
24.701057
  0
VERTEX
  8
LAYER_1
 62
    20
  6
CONTINUOUS
 10
-3.546480
 20
24.701272
  0
VERTEX
  8
LAYER_1
 62
    20
  6
CONTINUOUS
 10
-3.549931
 20
24.701472
  0
VERTEX
  8
LAYER_1
 62
    20
  6
CONTINUOUS
 10
-3.553384
 20
24.701655
  0
VERTEX
  8
LAYER_1
 62
    20
  6
CONTINUOUS
 10
-3.556837
 20
24.701823
  0
VERTEX
  8
LAYER_1
 62
    20
  6
CONTINUOUS
 10
-3.560291
 20
24.701974
  0
VERTEX
  8
LAYER_1
 62
    20
  6
CONTINUOUS
 10
-3.563745
 20
24.702110
  0
VERTEX
  8
LAYER_1
 62
    20
  6
CONTINUOUS
 10
-3.567201
 20
24.702230
  0
VERTEX
  8
LAYER_1
 62
    20
  6
CONTINUOUS
 10
-3.570656
 20
24.702334
  0
VERTEX
  8
LAYER_1
 62
    20
  6
CONTINUOUS
 10
-3.574113
 20
24.702421
  0
VERTEX
  8
LAYER_1
 62
    20
  6
CONTINUOUS
 10
-3.577569
 20
24.702493
  0
VERTEX
  8
LAYER_1
 62
    20
  6
CONTINUOUS
 10
-3.581026
 20
24.702550
  0
VERTEX
  8
LAYER_1
 62
    20
  6
CONTINUOUS
 10
-3.584483
 20
24.702590
  0
VERTEX
  8
LAYER_1
 62
    20
  6
CONTINUOUS
 10
-3.587940
 20
24.702614
  0
VERTEX
  8
LAYER_1
 62
    20
  6
CONTINUOUS
 10
-3.591397
 20
24.702622
  0
VERTEX
  8
LAYER_1
 62
    20
  6
CONTINUOUS
 10
-3.594855
 20
24.702614
  0
VERTEX
  8
LAYER_1
 62
    20
  6
CONTINUOUS
 10
-3.598312
 20
24.702591
  0
VERTEX
  8
LAYER_1
 62
    20
  6
CONTINUOUS
 10
-3.601769
 20
24.702551
  0
VERTEX
  8
LAYER_1
 62
    20
  6
CONTINUOUS
 10
-3.605226
 20
24.702496
  0
VERTEX
  8
LAYER_1
 62
    20
  6
CONTINUOUS
 10
-3.608682
 20
24.702424
  0
VERTEX
  8
LAYER_1
 62
    20
  6
CONTINUOUS
 10
-3.612138
 20
24.702337
  0
VERTEX
  8
LAYER_1
 62
    20
  6
CONTINUOUS
 10
-3.615594
 20
24.702234
  0
VERTEX
  8
LAYER_1
 62
    20
  6
CONTINUOUS
 10
-3.619049
 20
24.702114
  0
VERTEX
  8
LAYER_1
 62
    20
  6
CONTINUOUS
 10
-3.622504
 20
24.701979
  0
VERTEX
  8
LAYER_1
 62
    20
  6
CONTINUOUS
 10
-3.625958
 20
24.701828
  0
VERTEX
  8
LAYER_1
 62
    20
  6
CONTINUOUS
 10
-3.629411
 20
24.701661
  0
VERTEX
  8
LAYER_1
 62
    20
  6
CONTINUOUS
 10
-3.632863
 20
24.701478
  0
VERTEX
  8
LAYER_1
 62
    20
  6
CONTINUOUS
 10
-3.636315
 20
24.701279
  0
VERTEX
  8
LAYER_1
 62
    20
  6
CONTINUOUS
 10
-3.639766
 20
24.701065
  0
VERTEX
  8
LAYER_1
 62
    20
  6
CONTINUOUS
 10
-3.643215
 20
24.700834
  0
VERTEX
  8
LAYER_1
 62
    20
  6
CONTINUOUS
 10
-3.646664
 20
24.700587
  0
VERTEX
  8
LAYER_1
 62
    20
  6
CONTINUOUS
 10
-3.650111
 20
24.700325
  0
VERTEX
  8
LAYER_1
 62
    20
  6
CONTINUOUS
 10
-3.653557
 20
24.700047
  0
VERTEX
  8
LAYER_1
 62
    20
  6
CONTINUOUS
 10
-3.657002
 20
24.699752
  0
VERTEX
  8
LAYER_1
 62
    20
  6
CONTINUOUS
 10
-3.660445
 20
24.699442
  0
VERTEX
  8
LAYER_1
 62
    20
  6
CONTINUOUS
 10
-3.663887
 20
24.699116
  0
VERTEX
  8
LAYER_1
 62
    20
  6
CONTINUOUS
 10
-3.667327
 20
24.698775
  0
VERTEX
  8
LAYER_1
 62
    20
  6
CONTINUOUS
 10
-3.670766
 20
24.698417
  0
VERTEX
  8
LAYER_1
 62
    20
  6
CONTINUOUS
 10
-3.674203
 20
24.698043
  0
VERTEX
  8
LAYER_1
 62
    20
  6
CONTINUOUS
 10
-3.677638
 20
24.697654
  0
VERTEX
  8
LAYER_1
 62
    20
  6
CONTINUOUS
 10
-3.681072
 20
24.697249
  0
VERTEX
  8
LAYER_1
 62
    20
  6
CONTINUOUS
 10
-3.684503
 20
24.696828
  0
VERTEX
  8
LAYER_1
 62
    20
  6
CONTINUOUS
 10
-3.687933
 20
24.696391
  0
VERTEX
  8
LAYER_1
 62
    20
  6
CONTINUOUS
 10
-3.691360
 20
24.695938
  0
VERTEX
  8
LAYER_1
 62
    20
  6
CONTINUOUS
 10
-3.694785
 20
24.695470
  0
VERTEX
  8
LAYER_1
 62
    20
  6
CONTINUOUS
 10
-3.698209
 20
24.694986
  0
VERTEX
  8
LAYER_1
 62
    20
  6
CONTINUOUS
 10
-3.701630
 20
24.694486
  0
VERTEX
  8
LAYER_1
 62
    20
  6
CONTINUOUS
 10
-3.705048
 20
24.693970
  0
VERTEX
  8
LAYER_1
 62
    20
  6
CONTINUOUS
 10
-3.708464
 20
24.693439
  0
VERTEX
  8
LAYER_1
 62
    20
  6
CONTINUOUS
 10
-3.711878
 20
24.692891
  0
VERTEX
  8
LAYER_1
 62
    20
  6
CONTINUOUS
 10
-3.715289
 20
24.692328
  0
VERTEX
  8
LAYER_1
 62
    20
  6
CONTINUOUS
 10
-3.718698
 20
24.691750
  0
VERTEX
  8
LAYER_1
 62
    20
  6
CONTINUOUS
 10
-3.722103
 20
24.691155
  0
VERTEX
  8
LAYER_1
 62
    20
  6
CONTINUOUS
 10
-3.725506
 20
24.690545
  0
VERTEX
  8
LAYER_1
 62
    20
  6
CONTINUOUS
 10
-3.728907
 20
24.689920
  0
VERTEX
  8
LAYER_1
 62
    20
  6
CONTINUOUS
 10
-3.732304
 20
24.689278
  0
VERTEX
  8
LAYER_1
 62
    20
  6
CONTINUOUS
 10
-3.735698
 20
24.688621
  0
VERTEX
  8
LAYER_1
 62
    20
  6
CONTINUOUS
 10
-3.739089
 20
24.687948
  0
VERTEX
  8
LAYER_1
 62
    20
  6
CONTINUOUS
 10
-3.742477
 20
24.687260
  0
VERTEX
  8
LAYER_1
 62
    20
  6
CONTINUOUS
 10
-3.745862
 20
24.686556
  0
VERTEX
  8
LAYER_1
 62
    20
  6
CONTINUOUS
 10
-3.749244
 20
24.685836
  0
VERTEX
  8
LAYER_1
 62
    20
  6
CONTINUOUS
 10
-3.752622
 20
24.685101
  0
VERTEX
  8
LAYER_1
 62
    20
  6
CONTINUOUS
 10
-3.755997
 20
24.684351
  0
VERTEX
  8
LAYER_1
 62
    20
  6
CONTINUOUS
 10
-3.759368
 20
24.683584
  0
VERTEX
  8
LAYER_1
 62
    20
  6
CONTINUOUS
 10
-3.762736
 20
24.682803
  0
VERTEX
  8
LAYER_1
 62
    20
  6
CONTINUOUS
 10
-3.766100
 20
24.682005
  0
VERTEX
  8
LAYER_1
 62
    20
  6
CONTINUOUS
 10
-3.769460
 20
24.681192
  0
VERTEX
  8
LAYER_1
 62
    20
  6
CONTINUOUS
 10
-3.772817
 20
24.680364
  0
VERTEX
  8
LAYER_1
 62
    20
  6
CONTINUOUS
 10
-3.776169
 20
24.679520
  0
VERTEX
  8
LAYER_1
 62
    20
  6
CONTINUOUS
 10
-3.779518
 20
24.678661
  0
VERTEX
  8
LAYER_1
 62
    20
  6
CONTINUOUS
 10
-3.782863
 20
24.677787
  0
VERTEX
  8
LAYER_1
 62
    20
  6
CONTINUOUS
 10
-3.786204
 20
24.676897
  0
VERTEX
  8
LAYER_1
 62
    20
  6
CONTINUOUS
 10
-3.789540
 20
24.675991
  0
VERTEX
  8
LAYER_1
 62
    20
  6
CONTINUOUS
 10
-3.792873
 20
24.675070
  0
VERTEX
  8
LAYER_1
 62
    20
  6
CONTINUOUS
 10
-3.796201
 20
24.674134
  0
VERTEX
  8
LAYER_1
 62
    20
  6
CONTINUOUS
 10
-3.799524
 20
24.673183
  0
VERTEX
  8
LAYER_1
 62
    20
  6
CONTINUOUS
 10
-3.802844
 20
24.672216
  0
VERTEX
  8
LAYER_1
 62
    20
  6
CONTINUOUS
 10
-3.806159
 20
24.671234
  0
VERTEX
  8
LAYER_1
 62
    20
  6
CONTINUOUS
 10
-3.809469
 20
24.670237
  0
VERTEX
  8
LAYER_1
 62
    20
  6
CONTINUOUS
 10
-3.812775
 20
24.669224
  0
VERTEX
  8
LAYER_1
 62
    20
  6
CONTINUOUS
 10
-3.816076
 20
24.668196
  0
VERTEX
  8
LAYER_1
 62
    20
  6
CONTINUOUS
 10
-3.819372
 20
24.667153
  0
VERTEX
  8
LAYER_1
 62
    20
  6
CONTINUOUS
 10
-3.822663
 20
24.666095
  0
VERTEX
  8
LAYER_1
 62
    20
  6
CONTINUOUS
 10
-3.825949
 20
24.665022
  0
VERTEX
  8
LAYER_1
 62
    20
  6
CONTINUOUS
 10
-3.829231
 20
24.663933
  0
VERTEX
  8
LAYER_1
 62
    20
  6
CONTINUOUS
 10
-3.832507
 20
24.662829
  0
VERTEX
  8
LAYER_1
 62
    20
  6
CONTINUOUS
 10
-3.835779
 20
24.661711
  0
VERTEX
  8
LAYER_1
 62
    20
  6
CONTINUOUS
 10
-3.839045
 20
24.660577
  0
VERTEX
  8
LAYER_1
 62
    20
  6
CONTINUOUS
 10
-3.842305
 20
24.659428
  0
VERTEX
  8
LAYER_1
 62
    20
  6
CONTINUOUS
 10
-3.845561
 20
24.658264
  0
VERTEX
  8
LAYER_1
 62
    20
  6
CONTINUOUS
 10
-3.848811
 20
24.657086
  0
VERTEX
  8
LAYER_1
 62
    20
  6
CONTINUOUS
 10
-3.852056
 20
24.655892
  0
VERTEX
  8
LAYER_1
 62
    20
  6
CONTINUOUS
 10
-3.855295
 20
24.654683
  0
VERTEX
  8
LAYER_1
 62
    20
  6
CONTINUOUS
 10
-3.858528
 20
24.653459
  0
VERTEX
  8
LAYER_1
 62
    20
  6
CONTINUOUS
 10
-3.861756
 20
24.652221
  0
VERTEX
  8
LAYER_1
 62
    20
  6
CONTINUOUS
 10
-3.864978
 20
24.650967
  0
VERTEX
  8
LAYER_1
 62
    20
  6
CONTINUOUS
 10
-3.868194
 20
24.649699
  0
VERTEX
  8
LAYER_1
 62
    20
  6
CONTINUOUS
 10
-3.871405
 20
24.648416
  0
VERTEX
  8
LAYER_1
 62
    20
  6
CONTINUOUS
 10
-3.874609
 20
24.647118
  0
VERTEX
  8
LAYER_1
 62
    20
  6
CONTINUOUS
 10
-3.877807
 20
24.645806
  0
VERTEX
  8
LAYER_1
 62
    20
  6
CONTINUOUS
 10
-3.881000
 20
24.644478
  0
VERTEX
  8
LAYER_1
 62
    20
  6
CONTINUOUS
 10
-3.884186
 20
24.643136
  0
VERTEX
  8
LAYER_1
 62
    20
  6
CONTINUOUS
 10
-3.887366
 20
24.641779
  0
VERTEX
  8
LAYER_1
 62
    20
  6
CONTINUOUS
 10
-3.890539
 20
24.640408
  0
VERTEX
  8
LAYER_1
 62
    20
  6
CONTINUOUS
 10
-3.893707
 20
24.639022
  0
VERTEX
  8
LAYER_1
 62
    20
  6
CONTINUOUS
 10
-3.896868
 20
24.637621
  0
VERTEX
  8
LAYER_1
 62
    20
  6
CONTINUOUS
 10
-3.900022
 20
24.636206
  0
VERTEX
  8
LAYER_1
 62
    20
  6
CONTINUOUS
 10
-3.903170
 20
24.634777
  0
VERTEX
  8
LAYER_1
 62
    20
  6
CONTINUOUS
 10
-3.906311
 20
24.633333
  0
VERTEX
  8
LAYER_1
 62
    20
  6
CONTINUOUS
 10
-3.909445
 20
24.631874
  0
VERTEX
  8
LAYER_1
 62
    20
  6
CONTINUOUS
 10
-3.912573
 20
24.630401
  0
VERTEX
  8
LAYER_1
 62
    20
  6
CONTINUOUS
 10
-3.915694
 20
24.628913
  0
VERTEX
  8
LAYER_1
 62
    20
  6
CONTINUOUS
 10
-3.918808
 20
24.627412
  0
VERTEX
  8
LAYER_1
 62
    20
  6
CONTINUOUS
 10
-3.921915
 20
24.625896
  0
VERTEX
  8
LAYER_1
 62
    20
  6
CONTINUOUS
 10
-3.925015
 20
24.624365
  0
VERTEX
  8
LAYER_1
 62
    20
  6
CONTINUOUS
 10
-3.928108
 20
24.622820
  0
VERTEX
  8
LAYER_1
 62
    20
  6
CONTINUOUS
 10
-3.931194
 20
24.621261
  0
VERTEX
  8
LAYER_1
 62
    20
  6
CONTINUOUS
 10
-3.934273
 20
24.619688
  0
VERTEX
  8
LAYER_1
 62
    20
  6
CONTINUOUS
 10
-3.937344
 20
24.618101
  0
VERTEX
  8
LAYER_1
 62
    20
  6
CONTINUOUS
 10
-3.940408
 20
24.616499
  0
VERTEX
  8
LAYER_1
 62
    20
  6
CONTINUOUS
 10
-3.943464
 20
24.614884
  0
VERTEX
  8
LAYER_1
 62
    20
  6
CONTINUOUS
 10
-3.946514
 20
24.613254
  0
VERTEX
  8
LAYER_1
 62
    20
  6
CONTINUOUS
 10
-3.949555
 20
24.611610
  0
VERTEX
  8
LAYER_1
 62
    20
  6
CONTINUOUS
 10
-3.952589
 20
24.609953
  0
VERTEX
  8
LAYER_1
 62
    20
  6
CONTINUOUS
 10
-3.955615
 20
24.608281
  0
VERTEX
  8
LAYER_1
 62
    20
  6
CONTINUOUS
 10
-3.958634
 20
24.606595
  0
VERTEX
  8
LAYER_1
 62
    20
  6
CONTINUOUS
 10
-3.961644
 20
24.604896
  0
VERTEX
  8
LAYER_1
 62
    20
  6
CONTINUOUS
 10
-3.964647
 20
24.603182
  0
VERTEX
  8
LAYER_1
 62
    20
  6
CONTINUOUS
 10
-3.967642
 20
24.601455
  0
VERTEX
  8
LAYER_1
 62
    20
  6
CONTINUOUS
 10
-3.970629
 20
24.599714
  0
VERTEX
  8
LAYER_1
 62
    20
  6
CONTINUOUS
 10
-3.973608
 20
24.597960
  0
VERTEX
  8
LAYER_1
 62
    20
  6
CONTINUOUS
 10
-3.976579
 20
24.596191
  0
VERTEX
  8
LAYER_1
 62
    20
  6
CONTINUOUS
 10
-3.979541
 20
24.594409
  0
VERTEX
  8
LAYER_1
 62
    20
  6
CONTINUOUS
 10
-3.982495
 20
24.592613
  0
VERTEX
  8
LAYER_1
 62
    20
  6
CONTINUOUS
 10
-3.985441
 20
24.590804
  0
VERTEX
  8
LAYER_1
 62
    20
  6
CONTINUOUS
 10
-3.988379
 20
24.588981
  0
VERTEX
  8
LAYER_1
 62
    20
  6
CONTINUOUS
 10
-3.991308
 20
24.587144
  0
VERTEX
  8
LAYER_1
 62
    20
  6
CONTINUOUS
 10
-3.994229
 20
24.585295
  0
VERTEX
  8
LAYER_1
 62
    20
  6
CONTINUOUS
 10
-3.997141
 20
24.583431
  0
VERTEX
  8
LAYER_1
 62
    20
  6
CONTINUOUS
 10
-4.000045
 20
24.581554
  0
VERTEX
  8
LAYER_1
 62
    20
  6
CONTINUOUS
 10
-4.002939
 20
24.579664
  0
VERTEX
  8
LAYER_1
 62
    20
  6
CONTINUOUS
 10
-4.005826
 20
24.577761
  0
VERTEX
  8
LAYER_1
 62
    20
  6
CONTINUOUS
 10
-4.008703
 20
24.575844
  0
VERTEX
  8
LAYER_1
 62
    20
  6
CONTINUOUS
 10
-4.011571
 20
24.573914
  0
VERTEX
  8
LAYER_1
 62
    20
  6
CONTINUOUS
 10
-4.014431
 20
24.571971
  0
VERTEX
  8
LAYER_1
 62
    20
  6
CONTINUOUS
 10
-4.017281
 20
24.570015
  0
VERTEX
  8
LAYER_1
 62
    20
  6
CONTINUOUS
 10
-4.020123
 20
24.568045
  0
VERTEX
  8
LAYER_1
 62
    20
  6
CONTINUOUS
 10
-4.022955
 20
24.566063
  0
VERTEX
  8
LAYER_1
 62
    20
  6
CONTINUOUS
 10
-4.025778
 20
24.564067
  0
VERTEX
  8
LAYER_1
 62
    20
  6
CONTINUOUS
 10
-4.028592
 20
24.562058
  0
VERTEX
  8
LAYER_1
 62
    20
  6
CONTINUOUS
 10
-4.031397
 20
24.560037
  0
VERTEX
  8
LAYER_1
 62
    20
  6
CONTINUOUS
 10
-4.034192
 20
24.558002
  0
VERTEX
  8
LAYER_1
 62
    20
  6
CONTINUOUS
 10
-4.036978
 20
24.555955
  0
VERTEX
  8
LAYER_1
 62
    20
  6
CONTINUOUS
 10
-4.039754
 20
24.553895
  0
VERTEX
  8
LAYER_1
 62
    20
  6
CONTINUOUS
 10
-4.042521
 20
24.551822
  0
VERTEX
  8
LAYER_1
 62
    20
  6
CONTINUOUS
 10
-4.045279
 20
24.549736
  0
VERTEX
  8
LAYER_1
 62
    20
  6
CONTINUOUS
 10
-4.048026
 20
24.547638
  0
VERTEX
  8
LAYER_1
 62
    20
  6
CONTINUOUS
 10
-4.050764
 20
24.545527
  0
VERTEX
  8
LAYER_1
 62
    20
  6
CONTINUOUS
 10
-4.053492
 20
24.543404
  0
VERTEX
  8
LAYER_1
 62
    20
  6
CONTINUOUS
 10
-4.056211
 20
24.541268
  0
VERTEX
  8
LAYER_1
 62
    20
  6
CONTINUOUS
 10
-4.058919
 20
24.539119
  0
VERTEX
  8
LAYER_1
 62
    20
  6
CONTINUOUS
 10
-4.061618
 20
24.536958
  0
VERTEX
  8
LAYER_1
 62
    20
  6
CONTINUOUS
 10
-4.064307
 20
24.534784
  0
VERTEX
  8
LAYER_1
 62
    20
  6
CONTINUOUS
 10
-4.066985
 20
24.532599
  0
VERTEX
  8
LAYER_1
 62
    20
  6
CONTINUOUS
 10
-4.069654
 20
24.530400
  0
VERTEX
  8
LAYER_1
 62
    20
  6
CONTINUOUS
 10
-4.072312
 20
24.528190
  0
VERTEX
  8
LAYER_1
 62
    20
  6
CONTINUOUS
 10
-4.074960
 20
24.525967
  0
VERTEX
  8
LAYER_1
 62
    20
  6
CONTINUOUS
 10
-4.077598
 20
24.523732
  0
VERTEX
  8
LAYER_1
 62
    20
  6
CONTINUOUS
 10
-4.080225
 20
24.521485
  0
VERTEX
  8
LAYER_1
 62
    20
  6
CONTINUOUS
 10
-4.082842
 20
24.519226
  0
VERTEX
  8
LAYER_1
 62
    20
  6
CONTINUOUS
 10
-4.085449
 20
24.516955
  0
VERTEX
  8
LAYER_1
 62
    20
  6
CONTINUOUS
 10
-4.088045
 20
24.514672
  0
VERTEX
  8
LAYER_1
 62
    20
  6
CONTINUOUS
 10
-4.090631
 20
24.512377
  0
VERTEX
  8
LAYER_1
 62
    20
  6
CONTINUOUS
 10
-4.093206
 20
24.510070
  0
VERTEX
  8
LAYER_1
 62
    20
  6
CONTINUOUS
 10
-4.095770
 20
24.507751
  0
VERTEX
  8
LAYER_1
 62
    20
  6
CONTINUOUS
 10
-4.098324
 20
24.505420
  0
VERTEX
  8
LAYER_1
 62
    20
  6
CONTINUOUS
 10
-4.100866
 20
24.503078
  0
VERTEX
  8
LAYER_1
 62
    20
  6
CONTINUOUS
 10
-4.103398
 20
24.500724
  0
VERTEX
  8
LAYER_1
 62
    20
  6
CONTINUOUS
 10
-4.105920
 20
24.498358
  0
VERTEX
  8
LAYER_1
 62
    20
  6
CONTINUOUS
 10
-4.108430
 20
24.495981
  0
VERTEX
  8
LAYER_1
 62
    20
  6
CONTINUOUS
 10
-4.110929
 20
24.493592
  0
VERTEX
  8
LAYER_1
 62
    20
  6
CONTINUOUS
 10
-4.113417
 20
24.491192
  0
VERTEX
  8
LAYER_1
 62
    20
  6
CONTINUOUS
 10
-4.115894
 20
24.488780
  0
VERTEX
  8
LAYER_1
 62
    20
  6
CONTINUOUS
 10
-4.118360
 20
24.486357
  0
VERTEX
  8
LAYER_1
 62
    20
  6
CONTINUOUS
 10
-4.120815
 20
24.483922
  0
VERTEX
  8
LAYER_1
 62
    20
  6
CONTINUOUS
 10
-4.123258
 20
24.481476
  0
VERTEX
  8
LAYER_1
 62
    20
  6
CONTINUOUS
 10
-4.125691
 20
24.479019
  0
VERTEX
  8
LAYER_1
 62
    20
  6
CONTINUOUS
 10
-4.128111
 20
24.476551
  0
VERTEX
  8
LAYER_1
 62
    20
  6
CONTINUOUS
 10
-4.130521
 20
24.474072
  0
VERTEX
  8
LAYER_1
 62
    20
  6
CONTINUOUS
 10
-4.132919
 20
24.471581
  0
VERTEX
  8
LAYER_1
 62
    20
  6
CONTINUOUS
 10
-4.135305
 20
24.469080
  0
VERTEX
  8
LAYER_1
 62
    20
  6
CONTINUOUS
 10
-4.137680
 20
24.466567
  0
VERTEX
  8
LAYER_1
 62
    20
  6
CONTINUOUS
 10
-4.140044
 20
24.464044
  0
VERTEX
  8
LAYER_1
 62
    20
  6
CONTINUOUS
 10
-4.142395
 20
24.461510
  0
VERTEX
  8
LAYER_1
 62
    20
  6
CONTINUOUS
 10
-4.144735
 20
24.458965
  0
VERTEX
  8
LAYER_1
 62
    20
  6
CONTINUOUS
 10
-4.147063
 20
24.456409
  0
VERTEX
  8
LAYER_1
 62
    20
  6
CONTINUOUS
 10
-4.149380
 20
24.453842
  0
VERTEX
  8
LAYER_1
 62
    20
  6
CONTINUOUS
 10
-4.151684
 20
24.451265
  0
VERTEX
  8
LAYER_1
 62
    20
  6
CONTINUOUS
 10
-4.153977
 20
24.448678
  0
VERTEX
  8
LAYER_1
 62
    20
  6
CONTINUOUS
 10
-4.156258
 20
24.446079
  0
VERTEX
  8
LAYER_1
 62
    20
  6
CONTINUOUS
 10
-4.158526
 20
24.443470
  0
VERTEX
  8
LAYER_1
 62
    20
  6
CONTINUOUS
 10
-4.160783
 20
24.440851
  0
VERTEX
  8
LAYER_1
 62
    20
  6
CONTINUOUS
 10
-4.163027
 20
24.438222
  0
VERTEX
  8
LAYER_1
 62
    20
  6
CONTINUOUS
 10
-4.165260
 20
24.435582
  0
VERTEX
  8
LAYER_1
 62
    20
  6
CONTINUOUS
 10
-4.167480
 20
24.432932
  0
VERTEX
  8
LAYER_1
 62
    20
  6
CONTINUOUS
 10
-4.169688
 20
24.430271
  0
VERTEX
  8
LAYER_1
 62
    20
  6
CONTINUOUS
 10
-4.171884
 20
24.427601
  0
VERTEX
  8
LAYER_1
 62
    20
  6
CONTINUOUS
 10
-4.174067
 20
24.424920
  0
VERTEX
  8
LAYER_1
 62
    20
  6
CONTINUOUS
 10
-4.176238
 20
24.422229
  0
VERTEX
  8
LAYER_1
 62
    20
  6
CONTINUOUS
 10
-4.178396
 20
24.419529
  0
VERTEX
  8
LAYER_1
 62
    20
  6
CONTINUOUS
 10
-4.180542
 20
24.416818
  0
VERTEX
  8
LAYER_1
 62
    20
  6
CONTINUOUS
 10
-4.182676
 20
24.414098
  0
VERTEX
  8
LAYER_1
 62
    20
  6
CONTINUOUS
 10
-4.184797
 20
24.411368
  0
VERTEX
  8
LAYER_1
 62
    20
  6
CONTINUOUS
 10
-4.186905
 20
24.408628
  0
VERTEX
  8
LAYER_1
 62
    20
  6
CONTINUOUS
 10
-4.189001
 20
24.405878
  0
VERTEX
  8
LAYER_1
 62
    20
  6
CONTINUOUS
 10
-4.191084
 20
24.403119
  0
VERTEX
  8
LAYER_1
 62
    20
  6
CONTINUOUS
 10
-4.193154
 20
24.400350
  0
VERTEX
  8
LAYER_1
 62
    20
  6
CONTINUOUS
 10
-4.195212
 20
24.397571
  0
VERTEX
  8
LAYER_1
 62
    20
  6
CONTINUOUS
 10
-4.197256
 20
24.394784
  0
VERTEX
  8
LAYER_1
 62
    20
  6
CONTINUOUS
 10
-4.199288
 20
24.391986
  0
VERTEX
  8
LAYER_1
 62
    20
  6
CONTINUOUS
 10
-4.201307
 20
24.389180
  0
VERTEX
  8
LAYER_1
 62
    20
  6
CONTINUOUS
 10
-4.203313
 20
24.386364
  0
VERTEX
  8
LAYER_1
 62
    20
  6
CONTINUOUS
 10
-4.205306
 20
24.383539
  0
VERTEX
  8
LAYER_1
 62
    20
  6
CONTINUOUS
 10
-4.207286
 20
24.380705
  0
VERTEX
  8
LAYER_1
 62
    20
  6
CONTINUOUS
 10
-4.209252
 20
24.377861
  0
VERTEX
  8
LAYER_1
 62
    20
  6
CONTINUOUS
 10
-4.211206
 20
24.375009
  0
VERTEX
  8
LAYER_1
 62
    20
  6
CONTINUOUS
 10
-4.213147
 20
24.372148
  0
VERTEX
  8
LAYER_1
 62
    20
  6
CONTINUOUS
 10
-4.215074
 20
24.369277
  0
VERTEX
  8
LAYER_1
 62
    20
  6
CONTINUOUS
 10
-4.216988
 20
24.366398
  0
VERTEX
  8
LAYER_1
 62
    20
  6
CONTINUOUS
 10
-4.218889
 20
24.363510
  0
VERTEX
  8
LAYER_1
 62
    20
  6
CONTINUOUS
 10
-4.220776
 20
24.360614
  0
VERTEX
  8
LAYER_1
 62
    20
  6
CONTINUOUS
 10
-4.222650
 20
24.357708
  0
VERTEX
  8
LAYER_1
 62
    20
  6
CONTINUOUS
 10
-4.224511
 20
24.354795
  0
VERTEX
  8
LAYER_1
 62
    20
  6
CONTINUOUS
 10
-4.226358
 20
24.351872
  0
VERTEX
  8
LAYER_1
 62
    20
  6
CONTINUOUS
 10
-4.228191
 20
24.348941
  0
VERTEX
  8
LAYER_1
 62
    20
  6
CONTINUOUS
 10
-4.230012
 20
24.346002
  0
VERTEX
  8
LAYER_1
 62
    20
  6
CONTINUOUS
 10
-4.231818
 20
24.343054
  0
VERTEX
  8
LAYER_1
 62
    20
  6
CONTINUOUS
 10
-4.233611
 20
24.340098
  0
VERTEX
  8
LAYER_1
 62
    20
  6
CONTINUOUS
 10
-4.235390
 20
24.337134
  0
VERTEX
  8
LAYER_1
 62
    20
  6
CONTINUOUS
 10
-4.237156
 20
24.334161
  0
VERTEX
  8
LAYER_1
 62
    20
  6
CONTINUOUS
 10
-4.238908
 20
24.331181
  0
VERTEX
  8
LAYER_1
 62
    20
  6
CONTINUOUS
 10
-4.240646
 20
24.328192
  0
VERTEX
  8
LAYER_1
 62
    20
  6
CONTINUOUS
 10
-4.242370
 20
24.325196
  0
VERTEX
  8
LAYER_1
 62
    20
  6
CONTINUOUS
 10
-4.244081
 20
24.322191
  0
VERTEX
  8
LAYER_1
 62
    20
  6
CONTINUOUS
 10
-4.245778
 20
24.319179
  0
VERTEX
  8
LAYER_1
 62
    20
  6
CONTINUOUS
 10
-4.247460
 20
24.316159
  0
VERTEX
  8
LAYER_1
 62
    20
  6
CONTINUOUS
 10
-4.249129
 20
24.313131
  0
VERTEX
  8
LAYER_1
 62
    20
  6
CONTINUOUS
 10
-4.250784
 20
24.310096
  0
VERTEX
  8
LAYER_1
 62
    20
  6
CONTINUOUS
 10
-4.252425
 20
24.307053
  0
VERTEX
  8
LAYER_1
 62
    20
  6
CONTINUOUS
 10
-4.254052
 20
24.304002
  0
VERTEX
  8
LAYER_1
 62
    20
  6
CONTINUOUS
 10
-4.255664
 20
24.300944
  0
VERTEX
  8
LAYER_1
 62
    20
  6
CONTINUOUS
 10
-4.257263
 20
24.297878
  0
VERTEX
  8
LAYER_1
 62
    20
  6
CONTINUOUS
 10
-4.258847
 20
24.294806
  0
VERTEX
  8
LAYER_1
 62
    20
  6
CONTINUOUS
 10
-4.260418
 20
24.291726
  0
VERTEX
  8
LAYER_1
 62
    20
  6
CONTINUOUS
 10
-4.261974
 20
24.288638
  0
VERTEX
  8
LAYER_1
 62
    20
  6
CONTINUOUS
 10
-4.263516
 20
24.285544
  0
VERTEX
  8
LAYER_1
 62
    20
  6
CONTINUOUS
 10
-4.265043
 20
24.282442
  0
VERTEX
  8
LAYER_1
 62
    20
  6
CONTINUOUS
 10
-4.266556
 20
24.279334
  0
VERTEX
  8
LAYER_1
 62
    20
  6
CONTINUOUS
 10
-4.268055
 20
24.276218
  0
VERTEX
  8
LAYER_1
 62
    20
  6
CONTINUOUS
 10
-4.269540
 20
24.273096
  0
VERTEX
  8
LAYER_1
 62
    20
  6
CONTINUOUS
 10
-4.271010
 20
24.269967
  0
VERTEX
  8
LAYER_1
 62
    20
  6
CONTINUOUS
 10
-4.272465
 20
24.266831
  0
VERTEX
  8
LAYER_1
 62
    20
  6
CONTINUOUS
 10
-4.273906
 20
24.263688
  0
VERTEX
  8
LAYER_1
 62
    20
  6
CONTINUOUS
 10
-4.275333
 20
24.260539
  0
VERTEX
  8
LAYER_1
 62
    20
  6
CONTINUOUS
 10
-4.276745
 20
24.257384
  0
VERTEX
  8
LAYER_1
 62
    20
  6
CONTINUOUS
 10
-4.278143
 20
24.254221
  0
VERTEX
  8
LAYER_1
 62
    20
  6
CONTINUOUS
 10
-4.279526
 20
24.251053
  0
VERTEX
  8
LAYER_1
 62
    20
  6
CONTINUOUS
 10
-4.280894
 20
24.247878
  0
VERTEX
  8
LAYER_1
 62
    20
  6
CONTINUOUS
 10
-4.282248
 20
24.244697
  0
VERTEX
  8
LAYER_1
 62
    20
  6
CONTINUOUS
 10
-4.283587
 20
24.241509
  0
VERTEX
  8
LAYER_1
 62
    20
  6
CONTINUOUS
 10
-4.284911
 20
24.238316
  0
VERTEX
  8
LAYER_1
 62
    20
  6
CONTINUOUS
 10
-4.286221
 20
24.235116
  0
VERTEX
  8
LAYER_1
 62
    20
  6
CONTINUOUS
 10
-4.287516
 20
24.231910
  0
VERTEX
  8
LAYER_1
 62
    20
  6
CONTINUOUS
 10
-4.288796
 20
24.228699
  0
VERTEX
  8
LAYER_1
 62
    20
  6
CONTINUOUS
 10
-4.290061
 20
24.225481
  0
VERTEX
  8
LAYER_1
 62
    20
  6
CONTINUOUS
 10
-4.291311
 20
24.222258
  0
VERTEX
  8
LAYER_1
 62
    20
  6
CONTINUOUS
 10
-4.292547
 20
24.219029
  0
VERTEX
  8
LAYER_1
 62
    20
  6
CONTINUOUS
 10
-4.293767
 20
24.215795
  0
VERTEX
  8
LAYER_1
 62
    20
  6
CONTINUOUS
 10
-4.294973
 20
24.212554
  0
VERTEX
  8
LAYER_1
 62
    20
  6
CONTINUOUS
 10
-4.296164
 20
24.209309
  0
VERTEX
  8
LAYER_1
 62
    20
  6
CONTINUOUS
 10
-4.297339
 20
24.206057
  0
VERTEX
  8
LAYER_1
 62
    20
  6
CONTINUOUS
 10
-4.298500
 20
24.202801
  0
VERTEX
  8
LAYER_1
 62
    20
  6
CONTINUOUS
 10
-4.299646
 20
24.199539
  0
VERTEX
  8
LAYER_1
 62
    20
  6
CONTINUOUS
 10
-4.300777
 20
24.196272
  0
VERTEX
  8
LAYER_1
 62
    20
  6
CONTINUOUS
 10
-4.301892
 20
24.192999
  0
VERTEX
  8
LAYER_1
 62
    20
  6
CONTINUOUS
 10
-4.302993
 20
24.189722
  0
VERTEX
  8
LAYER_1
 62
    20
  6
CONTINUOUS
 10
-4.304078
 20
24.186440
  0
VERTEX
  8
LAYER_1
 62
    20
  6
CONTINUOUS
 10
-4.305148
 20
24.183152
  0
VERTEX
  8
LAYER_1
 62
    20
  6
CONTINUOUS
 10
-4.306203
 20
24.179860
  0
VERTEX
  8
LAYER_1
 62
    20
  6
CONTINUOUS
 10
-4.307243
 20
24.176563
  0
VERTEX
  8
LAYER_1
 62
    20
  6
CONTINUOUS
 10
-4.308268
 20
24.173261
  0
VERTEX
  8
LAYER_1
 62
    20
  6
CONTINUOUS
 10
-4.309278
 20
24.169954
  0
VERTEX
  8
LAYER_1
 62
    20
  6
CONTINUOUS
 10
-4.310272
 20
24.166643
  0
VERTEX
  8
LAYER_1
 62
    20
  6
CONTINUOUS
 10
-4.311251
 20
24.163327
  0
VERTEX
  8
LAYER_1
 62
    20
  6
CONTINUOUS
 10
-4.312214
 20
24.160007
  0
VERTEX
  8
LAYER_1
 62
    20
  6
CONTINUOUS
 10
-4.313163
 20
24.156682
  0
VERTEX
  8
LAYER_1
 62
    20
  6
CONTINUOUS
 10
-4.314096
 20
24.153353
  0
VERTEX
  8
LAYER_1
 62
    20
  6
CONTINUOUS
 10
-4.315013
 20
24.150020
  0
VERTEX
  8
LAYER_1
 62
    20
  6
CONTINUOUS
 10
-4.315915
 20
24.146683
  0
VERTEX
  8
LAYER_1
 62
    20
  6
CONTINUOUS
 10
-4.316802
 20
24.143341
  0
VERTEX
  8
LAYER_1
 62
    20
  6
CONTINUOUS
 10
-4.317674
 20
24.139995
  0
VERTEX
  8
LAYER_1
 62
    20
  6
CONTINUOUS
 10
-4.318530
 20
24.136646
  0
VERTEX
  8
LAYER_1
 62
    20
  6
CONTINUOUS
 10
-4.319370
 20
24.133292
  0
VERTEX
  8
LAYER_1
 62
    20
  6
CONTINUOUS
 10
-4.320195
 20
24.129935
  0
VERTEX
  8
LAYER_1
 62
    20
  6
CONTINUOUS
 10
-4.321005
 20
24.126574
  0
VERTEX
  8
LAYER_1
 62
    20
  6
CONTINUOUS
 10
-4.321799
 20
24.123209
  0
VERTEX
  8
LAYER_1
 62
    20
  6
CONTINUOUS
 10
-4.322578
 20
24.119840
  0
VERTEX
  8
LAYER_1
 62
    20
  6
CONTINUOUS
 10
-4.323341
 20
24.116468
  0
VERTEX
  8
LAYER_1
 62
    20
  6
CONTINUOUS
 10
-4.324088
 20
24.113093
  0
VERTEX
  8
LAYER_1
 62
    20
  6
CONTINUOUS
 10
-4.324820
 20
24.109714
  0
VERTEX
  8
LAYER_1
 62
    20
  6
CONTINUOUS
 10
-4.325537
 20
24.106332
  0
VERTEX
  8
LAYER_1
 62
    20
  6
CONTINUOUS
 10
-4.326237
 20
24.102946
  0
VERTEX
  8
LAYER_1
 62
    20
  6
CONTINUOUS
 10
-4.326922
 20
24.099558
  0
VERTEX
  8
LAYER_1
 62
    20
  6
CONTINUOUS
 10
-4.327592
 20
24.096166
  0
VERTEX
  8
LAYER_1
 62
    20
  6
CONTINUOUS
 10
-4.328246
 20
24.092771
  0
VERTEX
  8
LAYER_1
 62
    20
  6
CONTINUOUS
 10
-4.328884
 20
24.089373
  0
VERTEX
  8
LAYER_1
 62
    20
  6
CONTINUOUS
 10
-4.329507
 20
24.085972
  0
VERTEX
  8
LAYER_1
 62
    20
  6
CONTINUOUS
 10
-4.330113
 20
24.082569
  0
VERTEX
  8
LAYER_1
 62
    20
  6
CONTINUOUS
 10
-4.330705
 20
24.079162
  0
VERTEX
  8
LAYER_1
 62
    20
  6
CONTINUOUS
 10
-4.331280
 20
24.075753
  0
VERTEX
  8
LAYER_1
 62
    20
  6
CONTINUOUS
 10
-4.331840
 20
24.072342
  0
VERTEX
  8
LAYER_1
 62
    20
  6
CONTINUOUS
 10
-4.332384
 20
24.068928
  0
VERTEX
  8
LAYER_1
 62
    20
  6
CONTINUOUS
 10
-4.332912
 20
24.065511
  0
VERTEX
  8
LAYER_1
 62
    20
  6
CONTINUOUS
 10
-4.333425
 20
24.062092
  0
VERTEX
  8
LAYER_1
 62
    20
  6
CONTINUOUS
 10
-4.333921
 20
24.058670
  0
VERTEX
  8
LAYER_1
 62
    20
  6
CONTINUOUS
 10
-4.334402
 20
24.055247
  0
VERTEX
  8
LAYER_1
 62
    20
  6
CONTINUOUS
 10
-4.334867
 20
24.051821
  0
VERTEX
  8
LAYER_1
 62
    20
  6
CONTINUOUS
 10
-4.335317
 20
24.048393
  0
VERTEX
  8
LAYER_1
 62
    20
  6
CONTINUOUS
 10
-4.335750
 20
24.044963
  0
VERTEX
  8
LAYER_1
 62
    20
  6
CONTINUOUS
 10
-4.336168
 20
24.041531
  0
VERTEX
  8
LAYER_1
 62
    20
  6
CONTINUOUS
 10
-4.336570
 20
24.038097
  0
VERTEX
  8
LAYER_1
 62
    20
  6
CONTINUOUS
 10
-4.336956
 20
24.034662
  0
VERTEX
  8
LAYER_1
 62
    20
  6
CONTINUOUS
 10
-4.337326
 20
24.031224
  0
VERTEX
  8
LAYER_1
 62
    20
  6
CONTINUOUS
 10
-4.337681
 20
24.027785
  0
VERTEX
  8
LAYER_1
 62
    20
  6
CONTINUOUS
 10
-4.338019
 20
24.024345
  0
VERTEX
  8
LAYER_1
 62
    20
  6
CONTINUOUS
 10
-4.338342
 20
24.020902
  0
VERTEX
  8
LAYER_1
 62
    20
  6
CONTINUOUS
 10
-4.338649
 20
24.017459
  0
VERTEX
  8
LAYER_1
 62
    20
  6
CONTINUOUS
 10
-4.338940
 20
24.014014
  0
VERTEX
  8
LAYER_1
 62
    20
  6
CONTINUOUS
 10
-4.339215
 20
24.010568
  0
VERTEX
  8
LAYER_1
 62
    20
  6
CONTINUOUS
 10
-4.339474
 20
24.007120
  0
VERTEX
  8
LAYER_1
 62
    20
  6
CONTINUOUS
 10
-4.339717
 20
24.003671
  0
VERTEX
  8
LAYER_1
 62
    20
  6
CONTINUOUS
 10
-4.339945
 20
24.000222
  0
VERTEX
  8
LAYER_1
 62
    20
  6
CONTINUOUS
 10
-4.340156
 20
23.996771
  0
VERTEX
  8
LAYER_1
 62
    20
  6
CONTINUOUS
 10
-4.340352
 20
23.993319
  0
VERTEX
  8
LAYER_1
 62
    20
  6
CONTINUOUS
 10
-4.340531
 20
23.989866
  0
VERTEX
  8
LAYER_1
 62
    20
  6
CONTINUOUS
 10
-4.340695
 20
23.986413
  0
VERTEX
  8
LAYER_1
 62
    20
  6
CONTINUOUS
 10
-4.340843
 20
23.982959
  0
VERTEX
  8
LAYER_1
 62
    20
  6
CONTINUOUS
 10
-4.340975
 20
23.979504
  0
VERTEX
  8
LAYER_1
 62
    20
  6
CONTINUOUS
 10
-4.341091
 20
23.976049
  0
VERTEX
  8
LAYER_1
 62
    20
  6
CONTINUOUS
 10
-4.341191
 20
23.972593
  0
VERTEX
  8
LAYER_1
 62
    20
  6
CONTINUOUS
 10
-4.341275
 20
23.969137
  0
VERTEX
  8
LAYER_1
 62
    20
  6
CONTINUOUS
 10
-4.341343
 20
23.965680
  0
VERTEX
  8
LAYER_1
 62
    20
  6
CONTINUOUS
 10
-4.341395
 20
23.962223
  0
VERTEX
  8
LAYER_1
 62
    20
  6
CONTINUOUS
 10
-4.341432
 20
23.958766
  0
VERTEX
  8
LAYER_1
 62
    20
  6
CONTINUOUS
 10
-4.341452
 20
23.955309
  0
VERTEX
  8
LAYER_1
 62
    20
  6
CONTINUOUS
 10
-4.341456
 20
23.951852
  0
VERTEX
  8
LAYER_1
 62
    20
  6
CONTINUOUS
 10
-4.341445
 20
23.948395
  0
VERTEX
  8
LAYER_1
 62
    20
  6
CONTINUOUS
 10
-4.341417
 20
23.944937
  0
VERTEX
  8
LAYER_1
 62
    20
  6
CONTINUOUS
 10
-4.341374
 20
23.941481
  0
VERTEX
  8
LAYER_1
 62
    20
  6
CONTINUOUS
 10
-4.341315
 20
23.938024
  0
VERTEX
  8
LAYER_1
 62
    20
  6
CONTINUOUS
 10
-4.341239
 20
23.934567
  0
VERTEX
  8
LAYER_1
 62
    20
  6
CONTINUOUS
 10
-4.341148
 20
23.931111
  0
VERTEX
  8
LAYER_1
 62
    20
  6
CONTINUOUS
 10
-4.341041
 20
23.927656
  0
VERTEX
  8
LAYER_1
 62
    20
  6
CONTINUOUS
 10
-4.340918
 20
23.924201
  0
VERTEX
  8
LAYER_1
 62
    20
  6
CONTINUOUS
 10
-4.340779
 20
23.920746
  0
VERTEX
  8
LAYER_1
 62
    20
  6
CONTINUOUS
 10
-4.340624
 20
23.917292
  0
VERTEX
  8
LAYER_1
 62
    20
  6
CONTINUOUS
 10
-4.340453
 20
23.913839
  0
VERTEX
  8
LAYER_1
 62
    20
  6
CONTINUOUS
 10
-4.340267
 20
23.910387
  0
VERTEX
  8
LAYER_1
 62
    20
  6
CONTINUOUS
 10
-4.340064
 20
23.906936
  0
VERTEX
  8
LAYER_1
 62
    20
  6
CONTINUOUS
 10
-4.339845
 20
23.903485
  0
VERTEX
  8
LAYER_1
 62
    20
  6
CONTINUOUS
 10
-4.339611
 20
23.900036
  0
VERTEX
  8
LAYER_1
 62
    20
  6
CONTINUOUS
 10
-4.339361
 20
23.896588
  0
VERTEX
  8
LAYER_1
 62
    20
  6
CONTINUOUS
 10
-4.339094
 20
23.893141
  0
VERTEX
  8
LAYER_1
 62
    20
  6
CONTINUOUS
 10
-4.338812
 20
23.889695
  0
VERTEX
  8
LAYER_1
 62
    20
  6
CONTINUOUS
 10
-4.338514
 20
23.886251
  0
VERTEX
  8
LAYER_1
 62
    20
  6
CONTINUOUS
 10
-4.338200
 20
23.882808
  0
VERTEX
  8
LAYER_1
 62
    20
  6
CONTINUOUS
 10
-4.337871
 20
23.879366
  0
VERTEX
  8
LAYER_1
 62
    20
  6
CONTINUOUS
 10
-4.337525
 20
23.875926
  0
VERTEX
  8
LAYER_1
 62
    20
  6
CONTINUOUS
 10
-4.337163
 20
23.872488
  0
VERTEX
  8
LAYER_1
 62
    20
  6
CONTINUOUS
 10
-4.336786
 20
23.869051
  0
VERTEX
  8
LAYER_1
 62
    20
  6
CONTINUOUS
 10
-4.336393
 20
23.865617
  0
VERTEX
  8
LAYER_1
 62
    20
  6
CONTINUOUS
 10
-4.335984
 20
23.862184
  0
VERTEX
  8
LAYER_1
 62
    20
  6
CONTINUOUS
 10
-4.335559
 20
23.858753
  0
VERTEX
  8
LAYER_1
 62
    20
  6
CONTINUOUS
 10
-4.335119
 20
23.855324
  0
VERTEX
  8
LAYER_1
 62
    20
  6
CONTINUOUS
 10
-4.334662
 20
23.851897
  0
VERTEX
  8
LAYER_1
 62
    20
  6
CONTINUOUS
 10
-4.334190
 20
23.848472
  0
VERTEX
  8
LAYER_1
 62
    20
  6
CONTINUOUS
 10
-4.333702
 20
23.845049
  0
VERTEX
  8
LAYER_1
 62
    20
  6
CONTINUOUS
 10
-4.333198
 20
23.841629
  0
VERTEX
  8
LAYER_1
 62
    20
  6
CONTINUOUS
 10
-4.332679
 20
23.838211
  0
VERTEX
  8
LAYER_1
 62
    20
  6
CONTINUOUS
 10
-4.332143
 20
23.834795
  0
VERTEX
  8
LAYER_1
 62
    20
  6
CONTINUOUS
 10
-4.331592
 20
23.831382
  0
VERTEX
  8
LAYER_1
 62
    20
  6
CONTINUOUS
 10
-4.331026
 20
23.827972
  0
VERTEX
  8
LAYER_1
 62
    20
  6
CONTINUOUS
 10
-4.330443
 20
23.824564
  0
VERTEX
  8
LAYER_1
 62
    20
  6
CONTINUOUS
 10
-4.329845
 20
23.821159
  0
VERTEX
  8
LAYER_1
 62
    20
  6
CONTINUOUS
 10
-4.329231
 20
23.817756
  0
VERTEX
  8
LAYER_1
 62
    20
  6
CONTINUOUS
 10
-4.328602
 20
23.814357
  0
VERTEX
  8
LAYER_1
 62
    20
  6
CONTINUOUS
 10
-4.327956
 20
23.810960
  0
VERTEX
  8
LAYER_1
 62
    20
  6
CONTINUOUS
 10
-4.327296
 20
23.807567
  0
VERTEX
  8
LAYER_1
 62
    20
  6
CONTINUOUS
 10
-4.326619
 20
23.804176
  0
VERTEX
  8
LAYER_1
 62
    20
  6
CONTINUOUS
 10
-4.325927
 20
23.800789
  0
VERTEX
  8
LAYER_1
 62
    20
  6
CONTINUOUS
 10
-4.325219
 20
23.797405
  0
VERTEX
  8
LAYER_1
 62
    20
  6
CONTINUOUS
 10
-4.324496
 20
23.794024
  0
VERTEX
  8
LAYER_1
 62
    20
  6
CONTINUOUS
 10
-4.323757
 20
23.790647
  0
VERTEX
  8
LAYER_1
 62
    20
  6
CONTINUOUS
 10
-4.323003
 20
23.787273
  0
VERTEX
  8
LAYER_1
 62
    20
  6
CONTINUOUS
 10
-4.322233
 20
23.783902
  0
VERTEX
  8
LAYER_1
 62
    20
  6
CONTINUOUS
 10
-4.321447
 20
23.780536
  0
VERTEX
  8
LAYER_1
 62
    20
  6
CONTINUOUS
 10
-4.320646
 20
23.777172
  0
VERTEX
  8
LAYER_1
 62
    20
  6
CONTINUOUS
 10
-4.319830
 20
23.773813
  0
VERTEX
  8
LAYER_1
 62
    20
  6
CONTINUOUS
 10
-4.318998
 20
23.770457
  0
VERTEX
  8
LAYER_1
 62
    20
  6
CONTINUOUS
 10
-4.318150
 20
23.767106
  0
VERTEX
  8
LAYER_1
 62
    20
  6
CONTINUOUS
 10
-4.317287
 20
23.763758
  0
VERTEX
  8
LAYER_1
 62
    20
  6
CONTINUOUS
 10
-4.316409
 20
23.760414
  0
VERTEX
  8
LAYER_1
 62
    20
  6
CONTINUOUS
 10
-4.315515
 20
23.757074
  0
VERTEX
  8
LAYER_1
 62
    20
  6
CONTINUOUS
 10
-4.314606
 20
23.753739
  0
VERTEX
  8
LAYER_1
 62
    20
  6
CONTINUOUS
 10
-4.313682
 20
23.750407
  0
VERTEX
  8
LAYER_1
 62
    20
  6
CONTINUOUS
 10
-4.312742
 20
23.747080
  0
VERTEX
  8
LAYER_1
 62
    20
  6
CONTINUOUS
 10
-4.311787
 20
23.743757
  0
VERTEX
  8
LAYER_1
 62
    20
  6
CONTINUOUS
 10
-4.310816
 20
23.740439
  0
VERTEX
  8
LAYER_1
 62
    20
  6
CONTINUOUS
 10
-4.309831
 20
23.737125
  0
VERTEX
  8
LAYER_1
 62
    20
  6
CONTINUOUS
 10
-4.308830
 20
23.733816
  0
VERTEX
  8
LAYER_1
 62
    20
  6
CONTINUOUS
 10
-4.307813
 20
23.730512
  0
VERTEX
  8
LAYER_1
 62
    20
  6
CONTINUOUS
 10
-4.306782
 20
23.727212
  0
VERTEX
  8
LAYER_1
 62
    20
  6
CONTINUOUS
 10
-4.305735
 20
23.723917
  0
VERTEX
  8
LAYER_1
 62
    20
  6
CONTINUOUS
 10
-4.304673
 20
23.720627
  0
VERTEX
  8
LAYER_1
 62
    20
  6
CONTINUOUS
 10
-4.303596
 20
23.717341
  0
VERTEX
  8
LAYER_1
 62
    20
  6
CONTINUOUS
 10
-4.302504
 20
23.714061
  0
VERTEX
  8
LAYER_1
 62
    20
  6
CONTINUOUS
 10
-4.301397
 20
23.710786
  0
VERTEX
  8
LAYER_1
 62
    20
  6
CONTINUOUS
 10
-4.300275
 20
23.707516
  0
VERTEX
  8
LAYER_1
 62
    20
  6
CONTINUOUS
 10
-4.299137
 20
23.704251
  0
VERTEX
  8
LAYER_1
 62
    20
  6
CONTINUOUS
 10
-4.297985
 20
23.700992
  0
VERTEX
  8
LAYER_1
 62
    20
  6
CONTINUOUS
 10
-4.296817
 20
23.697737
  0
VERTEX
  8
LAYER_1
 62
    20
  6
CONTINUOUS
 10
-4.295635
 20
23.694489
  0
VERTEX
  8
LAYER_1
 62
    20
  6
CONTINUOUS
 10
-4.294438
 20
23.691245
  0
VERTEX
  8
LAYER_1
 62
    20
  6
CONTINUOUS
 10
-4.293225
 20
23.688008
  0
VERTEX
  8
LAYER_1
 62
    20
  6
CONTINUOUS
 10
-4.291998
 20
23.684776
  0
VERTEX
  8
LAYER_1
 62
    20
  6
CONTINUOUS
 10
-4.290756
 20
23.681549
  0
VERTEX
  8
LAYER_1
 62
    20
  6
CONTINUOUS
 10
-4.289499
 20
23.678329
  0
VERTEX
  8
LAYER_1
 62
    20
  6
CONTINUOUS
 10
-4.288227
 20
23.675114
  0
VERTEX
  8
LAYER_1
 62
    20
  6
CONTINUOUS
 10
-4.286941
 20
23.671905
  0
VERTEX
  8
LAYER_1
 62
    20
  6
CONTINUOUS
 10
-4.285639
 20
23.668702
  0
VERTEX
  8
LAYER_1
 62
    20
  6
CONTINUOUS
 10
-4.284323
 20
23.665505
  0
VERTEX
  8
LAYER_1
 62
    20
  6
CONTINUOUS
 10
-4.282992
 20
23.662314
  0
VERTEX
  8
LAYER_1
 62
    20
  6
CONTINUOUS
 10
-4.281647
 20
23.659129
  0
VERTEX
  8
LAYER_1
 62
    20
  6
CONTINUOUS
 10
-4.280286
 20
23.655951
  0
VERTEX
  8
LAYER_1
 62
    20
  6
CONTINUOUS
 10
-4.278911
 20
23.652779
  0
VERTEX
  8
LAYER_1
 62
    20
  6
CONTINUOUS
 10
-4.277522
 20
23.649613
  0
VERTEX
  8
LAYER_1
 62
    20
  6
CONTINUOUS
 10
-4.276118
 20
23.646454
  0
VERTEX
  8
LAYER_1
 62
    20
  6
CONTINUOUS
 10
-4.274699
 20
23.643301
  0
VERTEX
  8
LAYER_1
 62
    20
  6
CONTINUOUS
 10
-4.273266
 20
23.640155
  0
VERTEX
  8
LAYER_1
 62
    20
  6
CONTINUOUS
 10
-4.271819
 20
23.637015
  0
VERTEX
  8
LAYER_1
 62
    20
  6
CONTINUOUS
 10
-4.270356
 20
23.633882
  0
VERTEX
  8
LAYER_1
 62
    20
  6
CONTINUOUS
 10
-4.268880
 20
23.630756
  0
VERTEX
  8
LAYER_1
 62
    20
  6
CONTINUOUS
 10
-4.267389
 20
23.627637
  0
VERTEX
  8
LAYER_1
 62
    20
  6
CONTINUOUS
 10
-4.265884
 20
23.624524
  0
VERTEX
  8
LAYER_1
 62
    20
  6
CONTINUOUS
 10
-4.264364
 20
23.621419
  0
VERTEX
  8
LAYER_1
 62
    20
  6
CONTINUOUS
 10
-4.262830
 20
23.618321
  0
VERTEX
  8
LAYER_1
 62
    20
  6
CONTINUOUS
 10
-4.261282
 20
23.615229
  0
VERTEX
  8
LAYER_1
 62
    20
  6
CONTINUOUS
 10
-4.259720
 20
23.612145
  0
VERTEX
  8
LAYER_1
 62
    20
  6
CONTINUOUS
 10
-4.258143
 20
23.609068
  0
VERTEX
  8
LAYER_1
 62
    20
  6
CONTINUOUS
 10
-4.256552
 20
23.605999
  0
VERTEX
  8
LAYER_1
 62
    20
  6
CONTINUOUS
 10
-4.254948
 20
23.602937
  0
VERTEX
  8
LAYER_1
 62
    20
  6
CONTINUOUS
 10
-4.253329
 20
23.599882
  0
VERTEX
  8
LAYER_1
 62
    20
  6
CONTINUOUS
 10
-4.251696
 20
23.596835
  0
VERTEX
  8
LAYER_1
 62
    20
  6
CONTINUOUS
 10
-4.250048
 20
23.593795
  0
VERTEX
  8
LAYER_1
 62
    20
  6
CONTINUOUS
 10
-4.248387
 20
23.590763
  0
VERTEX
  8
LAYER_1
 62
    20
  6
CONTINUOUS
 10
-4.246712
 20
23.587739
  0
VERTEX
  8
LAYER_1
 62
    20
  6
CONTINUOUS
 10
-4.245023
 20
23.584722
  0
VERTEX
  8
LAYER_1
 62
    20
  6
CONTINUOUS
 10
-4.243321
 20
23.581713
  0
VERTEX
  8
LAYER_1
 62
    20
  6
CONTINUOUS
 10
-4.241604
 20
23.578712
  0
VERTEX
  8
LAYER_1
 62
    20
  6
CONTINUOUS
 10
-4.239873
 20
23.575719
  0
VERTEX
  8
LAYER_1
 62
    20
  6
CONTINUOUS
 10
-4.238129
 20
23.572734
  0
VERTEX
  8
LAYER_1
 62
    20
  6
CONTINUOUS
 10
-4.236371
 20
23.569757
  0
VERTEX
  8
LAYER_1
 62
    20
  6
CONTINUOUS
 10
-4.234599
 20
23.566789
  0
VERTEX
  8
LAYER_1
 62
    20
  6
CONTINUOUS
 10
-4.232814
 20
23.563828
  0
VERTEX
  8
LAYER_1
 62
    20
  6
CONTINUOUS
 10
-4.231015
 20
23.560876
  0
VERTEX
  8
LAYER_1
 62
    20
  6
CONTINUOUS
 10
-4.229202
 20
23.557932
  0
VERTEX
  8
LAYER_1
 62
    20
  6
CONTINUOUS
 10
-4.227376
 20
23.554996
  0
VERTEX
  8
LAYER_1
 62
    20
  6
CONTINUOUS
 10
-4.225536
 20
23.552069
  0
VERTEX
  8
LAYER_1
 62
    20
  6
CONTINUOUS
 10
-4.223683
 20
23.549150
  0
VERTEX
  8
LAYER_1
 62
    20
  6
CONTINUOUS
 10
-4.221817
 20
23.546240
  0
VERTEX
  8
LAYER_1
 62
    20
  6
CONTINUOUS
 10
-4.219937
 20
23.543339
  0
VERTEX
  8
LAYER_1
 62
    20
  6
CONTINUOUS
 10
-4.218043
 20
23.540446
  0
VERTEX
  8
LAYER_1
 62
    20
  6
CONTINUOUS
 10
-4.216137
 20
23.537562
  0
VERTEX
  8
LAYER_1
 62
    20
  6
CONTINUOUS
 10
-4.214217
 20
23.534687
  0
VERTEX
  8
LAYER_1
 62
    20
  6
CONTINUOUS
 10
-4.212284
 20
23.531821
  0
VERTEX
  8
LAYER_1
 62
    20
  6
CONTINUOUS
 10
-4.210337
 20
23.528963
  0
VERTEX
  8
LAYER_1
 62
    20
  6
CONTINUOUS
 10
-4.208378
 20
23.526115
  0
VERTEX
  8
LAYER_1
 62
    20
  6
CONTINUOUS
 10
-4.206405
 20
23.523276
  0
VERTEX
  8
LAYER_1
 62
    20
  6
CONTINUOUS
 10
-4.204420
 20
23.520446
  0
VERTEX
  8
LAYER_1
 62
    20
  6
CONTINUOUS
 10
-4.202421
 20
23.517625
  0
VERTEX
  8
LAYER_1
 62
    20
  6
CONTINUOUS
 10
-4.200409
 20
23.514813
  0
VERTEX
  8
LAYER_1
 62
    20
  6
CONTINUOUS
 10
-4.198385
 20
23.512010
  0
VERTEX
  8
LAYER_1
 62
    20
  6
CONTINUOUS
 10
-4.196347
 20
23.509217
  0
VERTEX
  8
LAYER_1
 62
    20
  6
CONTINUOUS
 10
-4.194297
 20
23.506434
  0
VERTEX
  8
LAYER_1
 62
    20
  6
CONTINUOUS
 10
-4.192233
 20
23.503660
  0
VERTEX
  8
LAYER_1
 62
    20
  6
CONTINUOUS
 10
-4.190157
 20
23.500895
  0
VERTEX
  8
LAYER_1
 62
    20
  6
CONTINUOUS
 10
-4.188069
 20
23.498140
  0
VERTEX
  8
LAYER_1
 62
    20
  6
CONTINUOUS
 10
-4.185967
 20
23.495395
  0
VERTEX
  8
LAYER_1
 62
    20
  6
CONTINUOUS
 10
-4.183853
 20
23.492659
  0
VERTEX
  8
LAYER_1
 62
    20
  6
CONTINUOUS
 10
-4.181727
 20
23.489933
  0
VERTEX
  8
LAYER_1
 62
    20
  6
CONTINUOUS
 10
-4.179588
 20
23.487217
  0
VERTEX
  8
LAYER_1
 62
    20
  6
CONTINUOUS
 10
-4.177436
 20
23.484511
  0
VERTEX
  8
LAYER_1
 62
    20
  6
CONTINUOUS
 10
-4.175272
 20
23.481815
  0
VERTEX
  8
LAYER_1
 62
    20
  6
CONTINUOUS
 10
-4.173096
 20
23.479129
  0
VERTEX
  8
LAYER_1
 62
    20
  6
CONTINUOUS
 10
-4.170907
 20
23.476452
  0
VERTEX
  8
LAYER_1
 62
    20
  6
CONTINUOUS
 10
-4.168706
 20
23.473786
  0
VERTEX
  8
LAYER_1
 62
    20
  6
CONTINUOUS
 10
-4.166492
 20
23.471131
  0
VERTEX
  8
LAYER_1
 62
    20
  6
CONTINUOUS
 10
-4.164267
 20
23.468485
  0
VERTEX
  8
LAYER_1
 62
    20
  6
CONTINUOUS
 10
-4.162029
 20
23.465850
  0
VERTEX
  8
LAYER_1
 62
    20
  6
CONTINUOUS
 10
-4.159779
 20
23.463225
  0
VERTEX
  8
LAYER_1
 62
    20
  6
CONTINUOUS
 10
-4.157517
 20
23.460610
  0
VERTEX
  8
LAYER_1
 62
    20
  6
CONTINUOUS
 10
-4.155243
 20
23.458006
  0
VERTEX
  8
LAYER_1
 62
    20
  6
CONTINUOUS
 10
-4.152957
 20
23.455412
  0
VERTEX
  8
LAYER_1
 62
    20
  6
CONTINUOUS
 10
-4.150659
 20
23.452829
  0
VERTEX
  8
LAYER_1
 62
    20
  6
CONTINUOUS
 10
-4.148349
 20
23.450257
  0
VERTEX
  8
LAYER_1
 62
    20
  6
CONTINUOUS
 10
-4.146027
 20
23.447695
  0
VERTEX
  8
LAYER_1
 62
    20
  6
CONTINUOUS
 10
-4.143694
 20
23.445144
  0
VERTEX
  8
LAYER_1
 62
    20
  6
CONTINUOUS
 10
-4.141349
 20
23.442604
  0
VERTEX
  8
LAYER_1
 62
    20
  6
CONTINUOUS
 10
-4.138992
 20
23.440074
  0
VERTEX
  8
LAYER_1
 62
    20
  6
CONTINUOUS
 10
-4.136624
 20
23.437556
  0
VERTEX
  8
LAYER_1
 62
    20
  6
CONTINUOUS
 10
-4.134243
 20
23.435048
  0
VERTEX
  8
LAYER_1
 62
    20
  6
CONTINUOUS
 10
-4.131852
 20
23.432552
  0
VERTEX
  8
LAYER_1
 62
    20
  6
CONTINUOUS
 10
-4.129449
 20
23.430066
  0
VERTEX
  8
LAYER_1
 62
    20
  6
CONTINUOUS
 10
-4.127034
 20
23.427592
  0
VERTEX
  8
LAYER_1
 62
    20
  6
CONTINUOUS
 10
-4.124608
 20
23.425129
  0
VERTEX
  8
LAYER_1
 62
    20
  6
CONTINUOUS
 10
-4.122171
 20
23.422677
  0
VERTEX
  8
LAYER_1
 62
    20
  6
CONTINUOUS
 10
-4.119723
 20
23.420236
  0
VERTEX
  8
LAYER_1
 62
    20
  6
CONTINUOUS
 10
-4.117263
 20
23.417806
  0
VERTEX
  8
LAYER_1
 62
    20
  6
CONTINUOUS
 10
-4.114792
 20
23.415388
  0
VERTEX
  8
LAYER_1
 62
    20
  6
CONTINUOUS
 10
-4.112310
 20
23.412981
  0
VERTEX
  8
LAYER_1
 62
    20
  6
CONTINUOUS
 10
-4.109817
 20
23.410586
  0
VERTEX
  8
LAYER_1
 62
    20
  6
CONTINUOUS
 10
-4.107313
 20
23.408203
  0
VERTEX
  8
LAYER_1
 62
    20
  6
CONTINUOUS
 10
-4.104798
 20
23.405830
  0
VERTEX
  8
LAYER_1
 62
    20
  6
CONTINUOUS
 10
-4.102272
 20
23.403470
  0
VERTEX
  8
LAYER_1
 62
    20
  6
CONTINUOUS
 10
-4.099735
 20
23.401121
  0
VERTEX
  8
LAYER_1
 62
    20
  6
CONTINUOUS
 10
-4.097187
 20
23.398784
  0
VERTEX
  8
LAYER_1
 62
    20
  6
CONTINUOUS
 10
-4.094629
 20
23.396459
  0
VERTEX
  8
LAYER_1
 62
    20
  6
CONTINUOUS
 10
-4.092060
 20
23.394145
  0
VERTEX
  8
LAYER_1
 62
    20
  6
CONTINUOUS
 10
-4.089480
 20
23.391843
  0
VERTEX
  8
LAYER_1
 62
    20
  6
CONTINUOUS
 10
-4.086890
 20
23.389554
  0
VERTEX
  8
LAYER_1
 62
    20
  6
CONTINUOUS
 10
-4.084289
 20
23.387276
  0
VERTEX
  8
LAYER_1
 62
    20
  6
CONTINUOUS
 10
-4.081678
 20
23.385010
  0
VERTEX
  8
LAYER_1
 62
    20
  6
CONTINUOUS
 10
-4.079056
 20
23.382756
  0
VERTEX
  8
LAYER_1
 62
    20
  6
CONTINUOUS
 10
-4.076424
 20
23.380515
  0
VERTEX
  8
LAYER_1
 62
    20
  6
CONTINUOUS
 10
-4.073781
 20
23.378285
  0
VERTEX
  8
LAYER_1
 62
    20
  6
CONTINUOUS
 10
-4.071129
 20
23.376068
  0
VERTEX
  8
LAYER_1
 62
    20
  6
CONTINUOUS
 10
-4.068466
 20
23.373863
  0
VERTEX
  8
LAYER_1
 62
    20
  6
CONTINUOUS
 10
-4.065793
 20
23.371670
  0
VERTEX
  8
LAYER_1
 62
    20
  6
CONTINUOUS
 10
-4.063110
 20
23.369490
  0
VERTEX
  8
LAYER_1
 62
    20
  6
CONTINUOUS
 10
-4.060417
 20
23.367322
  0
VERTEX
  8
LAYER_1
 62
    20
  6
CONTINUOUS
 10
-4.057714
 20
23.365166
  0
VERTEX
  8
LAYER_1
 62
    20
  6
CONTINUOUS
 10
-4.055001
 20
23.363023
  0
VERTEX
  8
LAYER_1
 62
    20
  6
CONTINUOUS
 10
-4.052278
 20
23.360893
  0
VERTEX
  8
LAYER_1
 62
    20
  6
CONTINUOUS
 10
-4.049546
 20
23.358775
  0
VERTEX
  8
LAYER_1
 62
    20
  6
CONTINUOUS
 10
-4.046803
 20
23.356669
  0
VERTEX
  8
LAYER_1
 62
    20
  6
CONTINUOUS
 10
-4.044051
 20
23.354577
  0
VERTEX
  8
LAYER_1
 62
    20
  6
CONTINUOUS
 10
-4.041290
 20
23.352497
  0
VERTEX
  8
LAYER_1
 62
    20
  6
CONTINUOUS
 10
-4.038519
 20
23.350430
  0
VERTEX
  8
LAYER_1
 62
    20
  6
CONTINUOUS
 10
-4.035738
 20
23.348375
  0
VERTEX
  8
LAYER_1
 62
    20
  6
CONTINUOUS
 10
-4.032948
 20
23.346334
  0
VERTEX
  8
LAYER_1
 62
    20
  6
CONTINUOUS
 10
-4.030148
 20
23.344305
  0
VERTEX
  8
LAYER_1
 62
    20
  6
CONTINUOUS
 10
-4.027340
 20
23.342289
  0
VERTEX
  8
LAYER_1
 62
    20
  6
CONTINUOUS
 10
-4.024521
 20
23.340286
  0
VERTEX
  8
LAYER_1
 62
    20
  6
CONTINUOUS
 10
-4.021694
 20
23.338297
  0
VERTEX
  8
LAYER_1
 62
    20
  6
CONTINUOUS
 10
-4.018858
 20
23.336320
  0
VERTEX
  8
LAYER_1
 62
    20
  6
CONTINUOUS
 10
-4.016012
 20
23.334356
  0
VERTEX
  8
LAYER_1
 62
    20
  6
CONTINUOUS
 10
-4.013158
 20
23.332406
  0
VERTEX
  8
LAYER_1
 62
    20
  6
CONTINUOUS
 10
-4.010294
 20
23.330468
  0
VERTEX
  8
LAYER_1
 62
    20
  6
CONTINUOUS
 10
-4.007422
 20
23.328544
  0
VERTEX
  8
LAYER_1
 62
    20
  6
CONTINUOUS
 10
-4.004541
 20
23.326634
  0
VERTEX
  8
LAYER_1
 62
    20
  6
CONTINUOUS
 10
-4.001651
 20
23.324736
  0
VERTEX
  8
LAYER_1
 62
    20
  6
CONTINUOUS
 10
-3.998752
 20
23.322852
  0
VERTEX
  8
LAYER_1
 62
    20
  6
CONTINUOUS
 10
-3.995845
 20
23.320981
  0
VERTEX
  8
LAYER_1
 62
    20
  6
CONTINUOUS
 10
-3.992929
 20
23.319124
  0
VERTEX
  8
LAYER_1
 62
    20
  6
CONTINUOUS
 10
-3.990004
 20
23.317280
  0
VERTEX
  8
LAYER_1
 62
    20
  6
CONTINUOUS
 10
-3.987071
 20
23.315449
  0
VERTEX
  8
LAYER_1
 62
    20
  6
CONTINUOUS
 10
-3.984130
 20
23.313632
  0
VERTEX
  8
LAYER_1
 62
    20
  6
CONTINUOUS
 10
-3.981180
 20
23.311829
  0
VERTEX
  8
LAYER_1
 62
    20
  6
CONTINUOUS
 10
-3.978222
 20
23.310039
  0
VERTEX
  8
LAYER_1
 62
    20
  6
CONTINUOUS
 10
-3.975256
 20
23.308263
  0
VERTEX
  8
LAYER_1
 62
    20
  6
CONTINUOUS
 10
-3.972282
 20
23.306501
  0
VERTEX
  8
LAYER_1
 62
    20
  6
CONTINUOUS
 10
-3.969299
 20
23.304752
  0
VERTEX
  8
LAYER_1
 62
    20
  6
CONTINUOUS
 10
-3.966309
 20
23.303018
  0
VERTEX
  8
LAYER_1
 62
    20
  6
CONTINUOUS
 10
-3.963310
 20
23.301297
  0
VERTEX
  8
LAYER_1
 62
    20
  6
CONTINUOUS
 10
-3.960304
 20
23.299589
  0
VERTEX
  8
LAYER_1
 62
    20
  6
CONTINUOUS
 10
-3.957290
 20
23.297896
  0
VERTEX
  8
LAYER_1
 62
    20
  6
CONTINUOUS
 10
-3.954268
 20
23.296217
  0
VERTEX
  8
LAYER_1
 62
    20
  6
CONTINUOUS
 10
-3.951238
 20
23.294551
  0
VERTEX
  8
LAYER_1
 62
    20
  6
CONTINUOUS
 10
-3.948201
 20
23.292900
  0
VERTEX
  8
LAYER_1
 62
    20
  6
CONTINUOUS
 10
-3.945156
 20
23.291262
  0
VERTEX
  8
LAYER_1
 62
    20
  6
CONTINUOUS
 10
-3.942104
 20
23.289639
  0
VERTEX
  8
LAYER_1
 62
    20
  6
CONTINUOUS
 10
-3.939044
 20
23.288029
  0
VERTEX
  8
LAYER_1
 62
    20
  6
CONTINUOUS
 10
-3.935976
 20
23.286434
  0
VERTEX
  8
LAYER_1
 62
    20
  6
CONTINUOUS
 10
-3.932902
 20
23.284853
  0
VERTEX
  8
LAYER_1
 62
    20
  6
CONTINUOUS
 10
-3.929820
 20
23.283286
  0
VERTEX
  8
LAYER_1
 62
    20
  6
CONTINUOUS
 10
-3.926731
 20
23.281734
  0
VERTEX
  8
LAYER_1
 62
    20
  6
CONTINUOUS
 10
-3.923635
 20
23.280195
  0
VERTEX
  8
LAYER_1
 62
    20
  6
CONTINUOUS
 10
-3.920532
 20
23.278671
  0
VERTEX
  8
LAYER_1
 62
    20
  6
CONTINUOUS
 10
-3.917422
 20
23.277162
  0
VERTEX
  8
LAYER_1
 62
    20
  6
CONTINUOUS
 10
-3.914304
 20
23.275666
  0
VERTEX
  8
LAYER_1
 62
    20
  6
CONTINUOUS
 10
-3.911180
 20
23.274185
  0
VERTEX
  8
LAYER_1
 62
    20
  6
CONTINUOUS
 10
-3.908050
 20
23.272718
  0
VERTEX
  8
LAYER_1
 62
    20
  6
CONTINUOUS
 10
-3.904912
 20
23.271266
  0
VERTEX
  8
LAYER_1
 62
    20
  6
CONTINUOUS
 10
-3.901768
 20
23.269829
  0
VERTEX
  8
LAYER_1
 62
    20
  6
CONTINUOUS
 10
-3.898617
 20
23.268405
  0
VERTEX
  8
LAYER_1
 62
    20
  6
CONTINUOUS
 10
-3.895460
 20
23.266997
  0
VERTEX
  8
LAYER_1
 62
    20
  6
CONTINUOUS
 10
-3.892296
 20
23.265603
  0
VERTEX
  8
LAYER_1
 62
    20
  6
CONTINUOUS
 10
-3.889126
 20
23.264223
  0
VERTEX
  8
LAYER_1
 62
    20
  6
CONTINUOUS
 10
-3.885950
 20
23.262858
  0
VERTEX
  8
LAYER_1
 62
    20
  6
CONTINUOUS
 10
-3.882767
 20
23.261508
  0
VERTEX
  8
LAYER_1
 62
    20
  6
CONTINUOUS
 10
-3.879578
 20
23.260173
  0
VERTEX
  8
LAYER_1
 62
    20
  6
CONTINUOUS
 10
-3.876383
 20
23.258852
  0
VERTEX
  8
LAYER_1
 62
    20
  6
CONTINUOUS
 10
-3.873182
 20
23.257546
  0
VERTEX
  8
LAYER_1
 62
    20
  6
CONTINUOUS
 10
-3.869975
 20
23.256255
  0
VERTEX
  8
LAYER_1
 62
    20
  6
CONTINUOUS
 10
-3.866762
 20
23.254978
  0
VERTEX
  8
LAYER_1
 62
    20
  6
CONTINUOUS
 10
-3.863543
 20
23.253716
  0
VERTEX
  8
LAYER_1
 62
    20
  6
CONTINUOUS
 10
-3.860319
 20
23.252470
  0
VERTEX
  8
LAYER_1
 62
    20
  6
CONTINUOUS
 10
-3.857088
 20
23.251238
  0
VERTEX
  8
LAYER_1
 62
    20
  6
CONTINUOUS
 10
-3.853852
 20
23.250021
  0
VERTEX
  8
LAYER_1
 62
    20
  6
CONTINUOUS
 10
-3.850611
 20
23.248819
  0
VERTEX
  8
LAYER_1
 62
    20
  6
CONTINUOUS
 10
-3.847364
 20
23.247632
  0
VERTEX
  8
LAYER_1
 62
    20
  6
CONTINUOUS
 10
-3.844111
 20
23.246459
  0
VERTEX
  8
LAYER_1
 62
    20
  6
CONTINUOUS
 10
-3.840853
 20
23.245302
  0
VERTEX
  8
LAYER_1
 62
    20
  6
CONTINUOUS
 10
-3.837590
 20
23.244160
  0
VERTEX
  8
LAYER_1
 62
    20
  6
CONTINUOUS
 10
-3.834322
 20
23.243033
  0
VERTEX
  8
LAYER_1
 62
    20
  6
CONTINUOUS
 10
-3.831048
 20
23.241921
  0
VERTEX
  8
LAYER_1
 62
    20
  6
CONTINUOUS
 10
-3.827770
 20
23.240824
  0
VERTEX
  8
LAYER_1
 62
    20
  6
CONTINUOUS
 10
-3.824486
 20
23.239742
  0
VERTEX
  8
LAYER_1
 62
    20
  6
CONTINUOUS
 10
-3.821197
 20
23.238676
  0
VERTEX
  8
LAYER_1
 62
    20
  6
CONTINUOUS
 10
-3.817904
 20
23.237624
  0
VERTEX
  8
LAYER_1
 62
    20
  6
CONTINUOUS
 10
-3.814605
 20
23.236588
  0
VERTEX
  8
LAYER_1
 62
    20
  6
CONTINUOUS
 10
-3.811302
 20
23.235567
  0
VERTEX
  8
LAYER_1
 62
    20
  6
CONTINUOUS
 10
-3.807995
 20
23.234561
  0
VERTEX
  8
LAYER_1
 62
    20
  6
CONTINUOUS
 10
-3.804682
 20
23.233571
  0
VERTEX
  8
LAYER_1
 62
    20
  6
CONTINUOUS
 10
-3.801366
 20
23.232595
  0
VERTEX
  8
LAYER_1
 62
    20
  6
CONTINUOUS
 10
-3.798044
 20
23.231635
  0
VERTEX
  8
LAYER_1
 62
    20
  6
CONTINUOUS
 10
-3.794718
 20
23.230691
  0
VERTEX
  8
LAYER_1
 62
    20
  6
CONTINUOUS
 10
-3.791388
 20
23.229762
  0
VERTEX
  8
LAYER_1
 62
    20
  6
CONTINUOUS
 10
-3.788054
 20
23.228848
  0
VERTEX
  8
LAYER_1
 62
    20
  6
CONTINUOUS
 10
-3.784716
 20
23.227949
  0
VERTEX
  8
LAYER_1
 62
    20
  6
CONTINUOUS
 10
-3.781373
 20
23.227066
  0
VERTEX
  8
LAYER_1
 62
    20
  6
CONTINUOUS
 10
-3.778027
 20
23.226198
  0
VERTEX
  8
LAYER_1
 62
    20
  6
CONTINUOUS
 10
-3.774676
 20
23.225346
  0
VERTEX
  8
LAYER_1
 62
    20
  6
CONTINUOUS
 10
-3.771322
 20
23.224509
  0
VERTEX
  8
LAYER_1
 62
    20
  6
CONTINUOUS
 10
-3.767963
 20
23.223688
  0
VERTEX
  8
LAYER_1
 62
    20
  6
CONTINUOUS
 10
-3.764601
 20
23.222882
  0
VERTEX
  8
LAYER_1
 62
    20
  6
CONTINUOUS
 10
-3.761236
 20
23.222091
  0
VERTEX
  8
LAYER_1
 62
    20
  6
CONTINUOUS
 10
-3.757866
 20
23.221316
  0
VERTEX
  8
LAYER_1
 62
    20
  6
CONTINUOUS
 10
-3.754493
 20
23.220557
  0
VERTEX
  8
LAYER_1
 62
    20
  6
CONTINUOUS
 10
-3.751117
 20
23.219813
  0
VERTEX
  8
LAYER_1
 62
    20
  6
CONTINUOUS
 10
-3.747737
 20
23.219085
  0
VERTEX
  8
LAYER_1
 62
    20
  6
CONTINUOUS
 10
-3.744354
 20
23.218373
  0
VERTEX
  8
LAYER_1
 62
    20
  6
CONTINUOUS
 10
-3.740968
 20
23.217676
  0
VERTEX
  8
LAYER_1
 62
    20
  6
CONTINUOUS
 10
-3.737579
 20
23.216994
  0
VERTEX
  8
LAYER_1
 62
    20
  6
CONTINUOUS
 10
-3.734186
 20
23.216328
  0
VERTEX
  8
LAYER_1
 62
    20
  6
CONTINUOUS
 10
-3.730791
 20
23.215678
  0
VERTEX
  8
LAYER_1
 62
    20
  6
CONTINUOUS
 10
-3.727392
 20
23.215044
  0
VERTEX
  8
LAYER_1
 62
    20
  6
CONTINUOUS
 10
-3.723991
 20
23.214425
  0
VERTEX
  8
LAYER_1
 62
    20
  6
CONTINUOUS
 10
-3.720586
 20
23.213822
  0
VERTEX
  8
LAYER_1
 62
    20
  6
CONTINUOUS
 10
-3.717179
 20
23.213235
  0
VERTEX
  8
LAYER_1
 62
    20
  6
CONTINUOUS
 10
-3.713770
 20
23.212663
  0
VERTEX
  8
LAYER_1
 62
    20
  6
CONTINUOUS
 10
-3.710357
 20
23.212107
  0
VERTEX
  8
LAYER_1
 62
    20
  6
CONTINUOUS
 10
-3.706943
 20
23.211567
  0
VERTEX
  8
LAYER_1
 62
    20
  6
CONTINUOUS
 10
-3.703525
 20
23.211042
  0
VERTEX
  8
LAYER_1
 62
    20
  6
CONTINUOUS
 10
-3.700106
 20
23.210534
  0
VERTEX
  8
LAYER_1
 62
    20
  6
CONTINUOUS
 10
-3.696684
 20
23.210041
  0
VERTEX
  8
LAYER_1
 62
    20
  6
CONTINUOUS
 10
-3.693260
 20
23.209563
  0
VERTEX
  8
LAYER_1
 62
    20
  6
CONTINUOUS
 10
-3.689833
 20
23.209102
  0
VERTEX
  8
LAYER_1
 62
    20
  6
CONTINUOUS
 10
-3.686405
 20
23.208656
  0
VERTEX
  8
LAYER_1
 62
    20
  6
CONTINUOUS
 10
-3.682974
 20
23.208227
  0
VERTEX
  8
LAYER_1
 62
    20
  6
CONTINUOUS
 10
-3.679542
 20
23.207813
  0
VERTEX
  8
LAYER_1
 62
    20
  6
CONTINUOUS
 10
-3.676108
 20
23.207415
  0
VERTEX
  8
LAYER_1
 62
    20
  6
CONTINUOUS
 10
-3.672672
 20
23.207032
  0
VERTEX
  8
LAYER_1
 62
    20
  6
CONTINUOUS
 10
-3.669234
 20
23.206666
  0
VERTEX
  8
LAYER_1
 62
    20
  6
CONTINUOUS
 10
-3.665794
 20
23.206315
  0
VERTEX
  8
LAYER_1
 62
    20
  6
CONTINUOUS
 10
-3.662353
 20
23.205980
  0
VERTEX
  8
LAYER_1
 62
    20
  6
CONTINUOUS
 10
-3.658911
 20
23.205662
  0
VERTEX
  8
LAYER_1
 62
    20
  6
CONTINUOUS
 10
-3.655467
 20
23.205359
  0
VERTEX
  8
LAYER_1
 62
    20
  6
CONTINUOUS
 10
-3.652022
 20
23.205071
  0
VERTEX
  8
LAYER_1
 62
    20
  6
CONTINUOUS
 10
-3.648575
 20
23.204800
  0
VERTEX
  8
LAYER_1
 62
    20
  6
CONTINUOUS
 10
-3.645127
 20
23.204545
  0
VERTEX
  8
LAYER_1
 62
    20
  6
CONTINUOUS
 10
-3.641678
 20
23.204305
  0
VERTEX
  8
LAYER_1
 62
    20
  6
CONTINUOUS
 10
-3.638228
 20
23.204082
  0
VERTEX
  8
LAYER_1
 62
    20
  6
CONTINUOUS
 10
-3.634777
 20
23.203874
  0
VERTEX
  8
LAYER_1
 62
    20
  6
CONTINUOUS
 10
-3.631325
 20
23.203682
  0
VERTEX
  8
LAYER_1
 62
    20
  6
CONTINUOUS
 10
-3.627873
 20
23.203507
  0
VERTEX
  8
LAYER_1
 62
    20
  6
CONTINUOUS
 10
-3.624419
 20
23.203347
  0
VERTEX
  8
LAYER_1
 62
    20
  6
CONTINUOUS
 10
-3.620965
 20
23.203203
  0
VERTEX
  8
LAYER_1
 62
    20
  6
CONTINUOUS
 10
-3.617510
 20
23.203075
  0
VERTEX
  8
LAYER_1
 62
    20
  6
CONTINUOUS
 10
-3.614054
 20
23.202963
  0
VERTEX
  8
LAYER_1
 62
    20
  6
CONTINUOUS
 10
-3.610598
 20
23.202866
  0
VERTEX
  8
LAYER_1
 62
    20
  6
CONTINUOUS
 10
-3.607142
 20
23.202786
  0
VERTEX
  8
LAYER_1
 62
    20
  6
CONTINUOUS
 10
-3.603685
 20
23.202722
  0
VERTEX
  8
LAYER_1
 62
    20
  6
CONTINUOUS
 10
-3.600229
 20
23.202673
  0
VERTEX
  8
LAYER_1
 62
    20
  6
CONTINUOUS
 10
-3.596771
 20
23.202641
  0
VERTEX
  8
LAYER_1
 62
    20
  6
CONTINUOUS
 10
-3.593314
 20
23.202624
  0
VERTEX
  8
LAYER_1
 62
    20
  6
CONTINUOUS
 10
-3.589857
 20
23.202624
  0
VERTEX
  8
LAYER_1
 62
    20
  6
CONTINUOUS
 10
-3.586400
 20
23.202639
  0
VERTEX
  8
LAYER_1
 62
    20
  6
CONTINUOUS
 10
-3.582943
 20
23.202670
  0
VERTEX
  8
LAYER_1
 62
    20
  6
CONTINUOUS
 10
-3.579486
 20
23.202718
  0
VERTEX
  8
LAYER_1
 62
    20
  6
CONTINUOUS
 10
-3.576029
 20
23.202781
  0
VERTEX
  8
LAYER_1
 62
    20
  6
CONTINUOUS
 10
-3.572573
 20
23.202860
  0
VERTEX
  8
LAYER_1
 62
    20
  6
CONTINUOUS
 10
-3.569117
 20
23.202955
  0
VERTEX
  8
LAYER_1
 62
    20
  6
CONTINUOUS
 10
-3.565661
 20
23.203066
  0
VERTEX
  8
LAYER_1
 62
    20
  6
CONTINUOUS
 10
-3.562206
 20
23.203193
  0
VERTEX
  8
LAYER_1
 62
    20
  6
CONTINUOUS
 10
-3.558752
 20
23.203335
  0
VERTEX
  8
LAYER_1
 62
    20
  6
CONTINUOUS
 10
-3.555298
 20
23.203494
  0
VERTEX
  8
LAYER_1
 62
    20
  6
CONTINUOUS
 10
-3.551846
 20
23.203669
  0
VERTEX
  8
LAYER_1
 62
    20
  6
CONTINUOUS
 10
-3.548393
 20
23.203859
  0
VERTEX
  8
LAYER_1
 62
    20
  6
CONTINUOUS
 10
-3.544942
 20
23.204066
  0
VERTEX
  8
LAYER_1
 62
    20
  6
CONTINUOUS
 10
-3.541492
 20
23.204288
  0
VERTEX
  8
LAYER_1
 62
    20
  6
CONTINUOUS
 10
-3.538043
 20
23.204526
  0
VERTEX
  8
LAYER_1
 62
    20
  6
CONTINUOUS
 10
-3.534595
 20
23.204781
  0
VERTEX
  8
LAYER_1
 62
    20
  6
CONTINUOUS
 10
-3.531149
 20
23.205051
  0
VERTEX
  8
LAYER_1
 62
    20
  6
CONTINUOUS
 10
-3.527703
 20
23.205337
  0
VERTEX
  8
LAYER_1
 62
    20
  6
CONTINUOUS
 10
-3.524259
 20
23.205638
  0
VERTEX
  8
LAYER_1
 62
    20
  6
CONTINUOUS
 10
-3.520817
 20
23.205956
  0
VERTEX
  8
LAYER_1
 62
    20
  6
CONTINUOUS
 10
-3.517375
 20
23.206290
  0
VERTEX
  8
LAYER_1
 62
    20
  6
CONTINUOUS
 10
-3.513936
 20
23.206639
  0
VERTEX
  8
LAYER_1
 62
    20
  6
CONTINUOUS
 10
-3.510498
 20
23.207004
  0
VERTEX
  8
LAYER_1
 62
    20
  6
CONTINUOUS
 10
-3.507062
 20
23.207386
  0
VERTEX
  8
LAYER_1
 62
    20
  6
CONTINUOUS
 10
-3.503627
 20
23.207782
  0
VERTEX
  8
LAYER_1
 62
    20
  6
CONTINUOUS
 10
-3.500195
 20
23.208195
  0
VERTEX
  8
LAYER_1
 62
    20
  6
CONTINUOUS
 10
-3.496764
 20
23.208624
  0
VERTEX
  8
LAYER_1
 62
    20
  6
CONTINUOUS
 10
-3.493336
 20
23.209068
  0
VERTEX
  8
LAYER_1
 62
    20
  6
CONTINUOUS
 10
-3.489909
 20
23.209528
  0
VERTEX
  8
LAYER_1
 62
    20
  6
CONTINUOUS
 10
-3.486485
 20
23.210004
  0
VERTEX
  8
LAYER_1
 62
    20
  6
CONTINUOUS
 10
-3.483063
 20
23.210496
  0
VERTEX
  8
LAYER_1
 62
    20
  6
CONTINUOUS
 10
-3.479643
 20
23.211004
  0
VERTEX
  8
LAYER_1
 62
    20
  6
CONTINUOUS
 10
-3.476226
 20
23.211527
  0
VERTEX
  8
LAYER_1
 62
    20
  6
CONTINUOUS
 10
-3.472811
 20
23.212066
  0
VERTEX
  8
LAYER_1
 62
    20
  6
CONTINUOUS
 10
-3.469398
 20
23.212621
  0
VERTEX
  8
LAYER_1
 62
    20
  6
CONTINUOUS
 10
-3.465988
 20
23.213191
  0
VERTEX
  8
LAYER_1
 62
    20
  6
CONTINUOUS
 10
-3.462581
 20
23.213778
  0
VERTEX
  8
LAYER_1
 62
    20
  6
CONTINUOUS
 10
-3.459177
 20
23.214380
  0
VERTEX
  8
LAYER_1
 62
    20
  6
CONTINUOUS
 10
-3.455775
 20
23.214997
  0
VERTEX
  8
LAYER_1
 62
    20
  6
CONTINUOUS
 10
-3.452376
 20
23.215630
  0
VERTEX
  8
LAYER_1
 62
    20
  6
CONTINUOUS
 10
-3.448980
 20
23.216279
  0
VERTEX
  8
LAYER_1
 62
    20
  6
CONTINUOUS
 10
-3.445588
 20
23.216944
  0
VERTEX
  8
LAYER_1
 62
    20
  6
CONTINUOUS
 10
-3.442198
 20
23.217624
  0
VERTEX
  8
LAYER_1
 62
    20
  6
CONTINUOUS
 10
-3.438811
 20
23.218320
  0
VERTEX
  8
LAYER_1
 62
    20
  6
CONTINUOUS
 10
-3.435428
 20
23.219032
  0
VERTEX
  8
LAYER_1
 62
    20
  6
CONTINUOUS
 10
-3.432048
 20
23.219759
  0
VERTEX
  8
LAYER_1
 62
    20
  6
CONTINUOUS
 10
-3.428672
 20
23.220501
  0
VERTEX
  8
LAYER_1
 62
    20
  6
CONTINUOUS
 10
-3.425298
 20
23.221259
  0
VERTEX
  8
LAYER_1
 62
    20
  6
CONTINUOUS
 10
-3.421929
 20
23.222033
  0
VERTEX
  8
LAYER_1
 62
    20
  6
CONTINUOUS
 10
-3.418563
 20
23.222822
  0
VERTEX
  8
LAYER_1
 62
    20
  6
CONTINUOUS
 10
-3.415201
 20
23.223627
  0
VERTEX
  8
LAYER_1
 62
    20
  6
CONTINUOUS
 10
-3.411842
 20
23.224447
  0
VERTEX
  8
LAYER_1
 62
    20
  6
CONTINUOUS
 10
-3.408487
 20
23.225283
  0
VERTEX
  8
LAYER_1
 62
    20
  6
CONTINUOUS
 10
-3.405136
 20
23.226134
  0
VERTEX
  8
LAYER_1
 62
    20
  6
CONTINUOUS
 10
-3.401790
 20
23.227001
  0
VERTEX
  8
LAYER_1
 62
    20
  6
CONTINUOUS
 10
-3.398447
 20
23.227883
  0
VERTEX
  8
LAYER_1
 62
    20
  6
CONTINUOUS
 10
-3.395108
 20
23.228780
  0
VERTEX
  8
LAYER_1
 62
    20
  6
CONTINUOUS
 10
-3.391773
 20
23.229693
  0
VERTEX
  8
LAYER_1
 62
    20
  6
CONTINUOUS
 10
-3.388443
 20
23.230621
  0
VERTEX
  8
LAYER_1
 62
    20
  6
CONTINUOUS
 10
-3.385117
 20
23.231565
  0
VERTEX
  8
LAYER_1
 62
    20
  6
CONTINUOUS
 10
-3.381795
 20
23.232523
  0
VERTEX
  8
LAYER_1
 62
    20
  6
CONTINUOUS
 10
-3.378478
 20
23.233497
  0
VERTEX
  8
LAYER_1
 62
    20
  6
CONTINUOUS
 10
-3.375166
 20
23.234487
  0
VERTEX
  8
LAYER_1
 62
    20
  6
CONTINUOUS
 10
-3.371857
 20
23.235492
  0
VERTEX
  8
LAYER_1
 62
    20
  6
CONTINUOUS
 10
-3.368554
 20
23.236511
  0
VERTEX
  8
LAYER_1
 62
    20
  6
CONTINUOUS
 10
-3.365255
 20
23.237547
  0
VERTEX
  8
LAYER_1
 62
    20
  6
CONTINUOUS
 10
-3.361962
 20
23.238597
  0
VERTEX
  8
LAYER_1
 62
    20
  6
CONTINUOUS
 10
-3.358673
 20
23.239662
  0
VERTEX
  8
LAYER_1
 62
    20
  6
CONTINUOUS
 10
-3.355389
 20
23.240743
  0
VERTEX
  8
LAYER_1
 62
    20
  6
CONTINUOUS
 10
-3.352110
 20
23.241839
  0
VERTEX
  8
LAYER_1
 62
    20
  6
CONTINUOUS
 10
-3.348836
 20
23.242950
  0
VERTEX
  8
LAYER_1
 62
    20
  6
CONTINUOUS
 10
-3.345567
 20
23.244076
  0
VERTEX
  8
LAYER_1
 62
    20
  6
CONTINUOUS
 10
-3.342303
 20
23.245217
  0
VERTEX
  8
LAYER_1
 62
    20
  6
CONTINUOUS
 10
-3.339045
 20
23.246373
  0
VERTEX
  8
LAYER_1
 62
    20
  6
CONTINUOUS
 10
-3.335792
 20
23.247544
  0
VERTEX
  8
LAYER_1
 62
    20
  6
CONTINUOUS
 10
-3.332545
 20
23.248730
  0
VERTEX
  8
LAYER_1
 62
    20
  6
CONTINUOUS
 10
-3.329303
 20
23.249931
  0
VERTEX
  8
LAYER_1
 62
    20
  6
CONTINUOUS
 10
-3.326066
 20
23.251147
  0
VERTEX
  8
LAYER_1
 62
    20
  6
CONTINUOUS
 10
-3.322836
 20
23.252377
  0
VERTEX
  8
LAYER_1
 62
    20
  6
CONTINUOUS
 10
-3.319610
 20
23.253623
  0
VERTEX
  8
LAYER_1
 62
    20
  6
CONTINUOUS
 10
-3.316391
 20
23.254884
  0
VERTEX
  8
LAYER_1
 62
    20
  6
CONTINUOUS
 10
-3.313178
 20
23.256159
  0
VERTEX
  8
LAYER_1
 62
    20
  6
CONTINUOUS
 10
-3.309970
 20
23.257449
  0
VERTEX
  8
LAYER_1
 62
    20
  6
CONTINUOUS
 10
-3.306769
 20
23.258754
  0
VERTEX
  8
LAYER_1
 62
    20
  6
CONTINUOUS
 10
-3.303573
 20
23.260074
  0
VERTEX
  8
LAYER_1
 62
    20
  6
CONTINUOUS
 10
-3.300384
 20
23.261408
  0
VERTEX
  8
LAYER_1
 62
    20
  6
CONTINUOUS
 10
-3.297201
 20
23.262757
  0
VERTEX
  8
LAYER_1
 62
    20
  6
CONTINUOUS
 10
-3.294024
 20
23.264121
  0
VERTEX
  8
LAYER_1
 62
    20
  6
CONTINUOUS
 10
-3.290853
 20
23.265499
  0
VERTEX
  8
LAYER_1
 62
    20
  6
CONTINUOUS
 10
-3.287689
 20
23.266892
  0
VERTEX
  8
LAYER_1
 62
    20
  6
CONTINUOUS
 10
-3.284531
 20
23.268300
  0
VERTEX
  8
LAYER_1
 62
    20
  6
CONTINUOUS
 10
-3.281380
 20
23.269722
  0
VERTEX
  8
LAYER_1
 62
    20
  6
CONTINUOUS
 10
-3.278235
 20
23.271159
  0
VERTEX
  8
LAYER_1
 62
    20
  6
CONTINUOUS
 10
-3.275097
 20
23.272610
  0
VERTEX
  8
LAYER_1
 62
    20
  6
CONTINUOUS
 10
-3.271966
 20
23.274075
  0
VERTEX
  8
LAYER_1
 62
    20
  6
CONTINUOUS
 10
-3.268842
 20
23.275555
  0
VERTEX
  8
LAYER_1
 62
    20
  6
CONTINUOUS
 10
-3.265724
 20
23.277050
  0
VERTEX
  8
LAYER_1
 62
    20
  6
CONTINUOUS
 10
-3.262613
 20
23.278558
  0
VERTEX
  8
LAYER_1
 62
    20
  6
CONTINUOUS
 10
-3.259510
 20
23.280081
  0
VERTEX
  8
LAYER_1
 62
    20
  6
CONTINUOUS
 10
-3.256413
 20
23.281619
  0
VERTEX
  8
LAYER_1
 62
    20
  6
CONTINUOUS
 10
-3.253323
 20
23.283170
  0
VERTEX
  8
LAYER_1
 62
    20
  6
CONTINUOUS
 10
-3.250241
 20
23.284736
  0
VERTEX
  8
LAYER_1
 62
    20
  6
CONTINUOUS
 10
-3.247166
 20
23.286316
  0
VERTEX
  8
LAYER_1
 62
    20
  6
CONTINUOUS
 10
-3.244098
 20
23.287910
  0
VERTEX
  8
LAYER_1
 62
    20
  6
CONTINUOUS
 10
-3.241038
 20
23.289518
  0
VERTEX
  8
LAYER_1
 62
    20
  6
CONTINUOUS
 10
-3.237985
 20
23.291141
  0
VERTEX
  8
LAYER_1
 62
    20
  6
CONTINUOUS
 10
-3.234939
 20
23.292777
  0
VERTEX
  8
LAYER_1
 62
    20
  6
CONTINUOUS
 10
-3.231901
 20
23.294428
  0
VERTEX
  8
LAYER_1
 62
    20
  6
CONTINUOUS
 10
-3.228871
 20
23.296092
  0
VERTEX
  8
LAYER_1
 62
    20
  6
CONTINUOUS
 10
-3.225849
 20
23.297770
  0
VERTEX
  8
LAYER_1
 62
    20
  6
CONTINUOUS
 10
-3.222834
 20
23.299463
  0
VERTEX
  8
LAYER_1
 62
    20
  6
CONTINUOUS
 10
-3.219827
 20
23.301169
  0
VERTEX
  8
LAYER_1
 62
    20
  6
CONTINUOUS
 10
-3.216828
 20
23.302889
  0
VERTEX
  8
LAYER_1
 62
    20
  6
CONTINUOUS
 10
-3.213837
 20
23.304623
  0
VERTEX
  8
LAYER_1
 62
    20
  6
CONTINUOUS
 10
-3.210854
 20
23.306370
  0
VERTEX
  8
LAYER_1
 62
    20
  6
CONTINUOUS
 10
-3.207879
 20
23.308132
  0
VERTEX
  8
LAYER_1
 62
    20
  6
CONTINUOUS
 10
-3.204912
 20
23.309907
  0
VERTEX
  8
LAYER_1
 62
    20
  6
CONTINUOUS
 10
-3.201953
 20
23.311695
  0
VERTEX
  8
LAYER_1
 62
    20
  6
CONTINUOUS
 10
-3.199003
 20
23.313498
  0
VERTEX
  8
LAYER_1
 62
    20
  6
CONTINUOUS
 10
-3.196061
 20
23.315313
  0
VERTEX
  8
LAYER_1
 62
    20
  6
CONTINUOUS
 10
-3.193128
 20
23.317143
  0
VERTEX
  8
LAYER_1
 62
    20
  6
CONTINUOUS
 10
-3.190202
 20
23.318986
  0
VERTEX
  8
LAYER_1
 62
    20
  6
CONTINUOUS
 10
-3.187286
 20
23.320842
  0
VERTEX
  8
LAYER_1
 62
    20
  6
CONTINUOUS
 10
-3.184378
 20
23.322712
  0
VERTEX
  8
LAYER_1
 62
    20
  6
CONTINUOUS
 10
-3.181478
 20
23.324595
  0
VERTEX
  8
LAYER_1
 62
    20
  6
CONTINUOUS
 10
-3.178588
 20
23.326492
  0
VERTEX
  8
LAYER_1
 62
    20
  6
CONTINUOUS
 10
-3.175706
 20
23.328401
  0
VERTEX
  8
LAYER_1
 62
    20
  6
CONTINUOUS
 10
-3.172833
 20
23.330325
  0
VERTEX
  8
LAYER_1
 62
    20
  6
CONTINUOUS
 10
-3.169969
 20
23.332261
  0
VERTEX
  8
LAYER_1
 62
    20
  6
CONTINUOUS
 10
-3.167114
 20
23.334210
  0
VERTEX
  8
LAYER_1
 62
    20
  6
CONTINUOUS
 10
-3.164267
 20
23.336173
  0
VERTEX
  8
LAYER_1
 62
    20
  6
CONTINUOUS
 10
-3.161430
 20
23.338149
  0
VERTEX
  8
LAYER_1
 62
    20
  6
CONTINUOUS
 10
-3.158602
 20
23.340138
  0
VERTEX
  8
LAYER_1
 62
    20
  6
CONTINUOUS
 10
-3.155784
 20
23.342139
  0
VERTEX
  8
LAYER_1
 62
    20
  6
CONTINUOUS
 10
-3.152974
 20
23.344154
  0
VERTEX
  8
LAYER_1
 62
    20
  6
CONTINUOUS
 10
-3.150174
 20
23.346182
  0
VERTEX
  8
LAYER_1
 62
    20
  6
CONTINUOUS
 10
-3.147383
 20
23.348223
  0
VERTEX
  8
LAYER_1
 62
    20
  6
CONTINUOUS
 10
-3.144602
 20
23.350276
  0
VERTEX
  8
LAYER_1
 62
    20
  6
CONTINUOUS
 10
-3.141830
 20
23.352342
  0
VERTEX
  8
LAYER_1
 62
    20
  6
CONTINUOUS
 10
-3.139068
 20
23.354421
  0
VERTEX
  8
LAYER_1
 62
    20
  6
CONTINUOUS
 10
-3.136315
 20
23.356513
  0
VERTEX
  8
LAYER_1
 62
    20
  6
CONTINUOUS
 10
-3.133572
 20
23.358617
  0
VERTEX
  8
LAYER_1
 62
    20
  6
CONTINUOUS
 10
-3.130839
 20
23.360734
  0
VERTEX
  8
LAYER_1
 62
    20
  6
CONTINUOUS
 10
-3.128115
 20
23.362864
  0
VERTEX
  8
LAYER_1
 62
    20
  6
CONTINUOUS
 10
-3.125401
 20
23.365006
  0
VERTEX
  8
LAYER_1
 62
    20
  6
CONTINUOUS
 10
-3.122698
 20
23.367161
  0
VERTEX
  8
LAYER_1
 62
    20
  6
CONTINUOUS
 10
-3.120004
 20
23.369328
  0
VERTEX
  8
LAYER_1
 62
    20
  6
CONTINUOUS
 10
-3.117320
 20
23.371507
  0
VERTEX
  8
LAYER_1
 62
    20
  6
CONTINUOUS
 10
-3.114646
 20
23.373699
  0
VERTEX
  8
LAYER_1
 62
    20
  6
CONTINUOUS
 10
-3.111983
 20
23.375903
  0
VERTEX
  8
LAYER_1
 62
    20
  6
CONTINUOUS
 10
-3.109329
 20
23.378119
  0
VERTEX
  8
LAYER_1
 62
    20
  6
CONTINUOUS
 10
-3.106686
 20
23.380348
  0
VERTEX
  8
LAYER_1
 62
    20
  6
CONTINUOUS
 10
-3.104053
 20
23.382589
  0
VERTEX
  8
LAYER_1
 62
    20
  6
CONTINUOUS
 10
-3.101431
 20
23.384841
  0
VERTEX
  8
LAYER_1
 62
    20
  6
CONTINUOUS
 10
-3.098819
 20
23.387106
  0
VERTEX
  8
LAYER_1
 62
    20
  6
CONTINUOUS
 10
-3.096217
 20
23.389383
  0
VERTEX
  8
LAYER_1
 62
    20
  6
CONTINUOUS
 10
-3.093626
 20
23.391672
  0
VERTEX
  8
LAYER_1
 62
    20
  6
CONTINUOUS
 10
-3.091046
 20
23.393973
  0
VERTEX
  8
LAYER_1
 62
    20
  6
CONTINUOUS
 10
-3.088476
 20
23.396286
  0
VERTEX
  8
LAYER_1
 62
    20
  6
CONTINUOUS
 10
-3.085917
 20
23.398610
  0
VERTEX
  8
LAYER_1
 62
    20
  6
CONTINUOUS
 10
-3.083368
 20
23.400946
  0
VERTEX
  8
LAYER_1
 62
    20
  6
CONTINUOUS
 10
-3.080831
 20
23.403294
  0
VERTEX
  8
LAYER_1
 62
    20
  6
CONTINUOUS
 10
-3.078304
 20
23.405654
  0
VERTEX
  8
LAYER_1
 62
    20
  6
CONTINUOUS
 10
-3.075788
 20
23.408025
  0
VERTEX
  8
LAYER_1
 62
    20
  6
CONTINUOUS
 10
-3.073283
 20
23.410408
  0
VERTEX
  8
LAYER_1
 62
    20
  6
CONTINUOUS
 10
-3.070789
 20
23.412802
  0
VERTEX
  8
LAYER_1
 62
    20
  6
CONTINUOUS
 10
-3.068306
 20
23.415208
  0
VERTEX
  8
LAYER_1
 62
    20
  6
CONTINUOUS
 10
-3.065834
 20
23.417626
  0
VERTEX
  8
LAYER_1
 62
    20
  6
CONTINUOUS
 10
-3.063374
 20
23.420054
  0
VERTEX
  8
LAYER_1
 62
    20
  6
CONTINUOUS
 10
-3.060924
 20
23.422494
  0
VERTEX
  8
LAYER_1
 62
    20
  6
CONTINUOUS
 10
-3.058486
 20
23.424945
  0
VERTEX
  8
LAYER_1
 62
    20
  6
CONTINUOUS
 10
-3.056060
 20
23.427408
  0
VERTEX
  8
LAYER_1
 62
    20
  6
CONTINUOUS
 10
-3.053644
 20
23.429881
  0
VERTEX
  8
LAYER_1
 62
    20
  6
CONTINUOUS
 10
-3.051240
 20
23.432366
  0
VERTEX
  8
LAYER_1
 62
    20
  6
CONTINUOUS
 10
-3.048848
 20
23.434862
  0
VERTEX
  8
LAYER_1
 62
    20
  6
CONTINUOUS
 10
-3.046467
 20
23.437369
  0
VERTEX
  8
LAYER_1
 62
    20
  6
CONTINUOUS
 10
-3.044098
 20
23.439886
  0
VERTEX
  8
LAYER_1
 62
    20
  6
CONTINUOUS
 10
-3.041740
 20
23.442415
  0
VERTEX
  8
LAYER_1
 62
    20
  6
CONTINUOUS
 10
-3.039394
 20
23.444954
  0
VERTEX
  8
LAYER_1
 62
    20
  6
CONTINUOUS
 10
-3.037059
 20
23.447504
  0
VERTEX
  8
LAYER_1
 62
    20
  6
CONTINUOUS
 10
-3.034737
 20
23.450065
  0
VERTEX
  8
LAYER_1
 62
    20
  6
CONTINUOUS
 10
-3.032426
 20
23.452637
  0
VERTEX
  8
LAYER_1
 62
    20
  6
CONTINUOUS
 10
-3.030127
 20
23.455219
  0
VERTEX
  8
LAYER_1
 62
    20
  6
CONTINUOUS
 10
-3.027841
 20
23.457812
  0
VERTEX
  8
LAYER_1
 62
    20
  6
CONTINUOUS
 10
-3.025566
 20
23.460416
  0
VERTEX
  8
LAYER_1
 62
    20
  6
CONTINUOUS
 10
-3.023303
 20
23.463029
  0
VERTEX
  8
LAYER_1
 62
    20
  6
CONTINUOUS
 10
-3.021052
 20
23.465654
  0
VERTEX
  8
LAYER_1
 62
    20
  6
CONTINUOUS
 10
-3.018813
 20
23.468288
  0
VERTEX
  8
LAYER_1
 62
    20
  6
CONTINUOUS
 10
-3.016587
 20
23.470933
  0
VERTEX
  8
LAYER_1
 62
    20
  6
CONTINUOUS
 10
-3.014372
 20
23.473588
  0
VERTEX
  8
LAYER_1
 62
    20
  6
CONTINUOUS
 10
-3.012170
 20
23.476253
  0
VERTEX
  8
LAYER_1
 62
    20
  6
CONTINUOUS
 10
-3.009981
 20
23.478929
  0
VERTEX
  8
LAYER_1
 62
    20
  6
CONTINUOUS
 10
-3.007803
 20
23.481614
  0
VERTEX
  8
LAYER_1
 62
    20
  6
CONTINUOUS
 10
-3.005638
 20
23.484310
  0
VERTEX
  8
LAYER_1
 62
    20
  6
CONTINUOUS
 10
-3.003486
 20
23.487015
  0
VERTEX
  8
LAYER_1
 62
    20
  6
CONTINUOUS
 10
-3.001346
 20
23.489730
  0
VERTEX
  8
LAYER_1
 62
    20
  6
CONTINUOUS
 10
-2.999218
 20
23.492455
  0
VERTEX
  8
LAYER_1
 62
    20
  6
CONTINUOUS
 10
-2.997103
 20
23.495190
  0
VERTEX
  8
LAYER_1
 62
    20
  6
CONTINUOUS
 10
-2.995001
 20
23.497935
  0
VERTEX
  8
LAYER_1
 62
    20
  6
CONTINUOUS
 10
-2.992911
 20
23.500689
  0
VERTEX
  8
LAYER_1
 62
    20
  6
CONTINUOUS
 10
-2.990834
 20
23.503453
  0
VERTEX
  8
LAYER_1
 62
    20
  6
CONTINUOUS
 10
-2.988770
 20
23.506227
  0
VERTEX
  8
LAYER_1
 62
    20
  6
CONTINUOUS
 10
-2.986719
 20
23.509009
  0
VERTEX
  8
LAYER_1
 62
    20
  6
CONTINUOUS
 10
-2.984680
 20
23.511802
  0
VERTEX
  8
LAYER_1
 62
    20
  6
CONTINUOUS
 10
-2.982655
 20
23.514604
  0
VERTEX
  8
LAYER_1
 62
    20
  6
CONTINUOUS
 10
-2.980642
 20
23.517415
  0
VERTEX
  8
LAYER_1
 62
    20
  6
CONTINUOUS
 10
-2.978642
 20
23.520235
  0
VERTEX
  8
LAYER_1
 62
    20
  6
CONTINUOUS
 10
-2.976656
 20
23.523064
  0
VERTEX
  8
LAYER_1
 62
    20
  6
CONTINUOUS
 10
-2.974682
 20
23.525903
  0
VERTEX
  8
LAYER_1
 62
    20
  6
CONTINUOUS
 10
-2.972722
 20
23.528751
  0
VERTEX
  8
LAYER_1
 62
    20
  6
CONTINUOUS
 10
-2.970774
 20
23.531607
  0
VERTEX
  8
LAYER_1
 62
    20
  6
CONTINUOUS
 10
-2.968840
 20
23.534473
  0
VERTEX
  8
LAYER_1
 62
    20
  6
CONTINUOUS
 10
-2.966919
 20
23.537347
  0
VERTEX
  8
LAYER_1
 62
    20
  6
CONTINUOUS
 10
-2.965012
 20
23.540231
  0
VERTEX
  8
LAYER_1
 62
    20
  6
CONTINUOUS
 10
-2.963117
 20
23.543123
  0
VERTEX
  8
LAYER_1
 62
    20
  6
CONTINUOUS
 10
-2.961236
 20
23.546024
  0
VERTEX
  8
LAYER_1
 62
    20
  6
CONTINUOUS
 10
-2.959369
 20
23.548933
  0
VERTEX
  8
LAYER_1
 62
    20
  6
CONTINUOUS
 10
-2.957515
 20
23.551851
  0
VERTEX
  8
LAYER_1
 62
    20
  6
CONTINUOUS
 10
-2.955674
 20
23.554777
  0
VERTEX
  8
LAYER_1
 62
    20
  6
CONTINUOUS
 10
-2.953847
 20
23.557712
  0
VERTEX
  8
LAYER_1
 62
    20
  6
CONTINUOUS
 10
-2.952033
 20
23.560656
  0
VERTEX
  8
LAYER_1
 62
    20
  6
CONTINUOUS
 10
-2.950233
 20
23.563608
  0
VERTEX
  8
LAYER_1
 62
    20
  6
CONTINUOUS
 10
-2.948447
 20
23.566567
  0
VERTEX
  8
LAYER_1
 62
    20
  6
CONTINUOUS
 10
-2.946674
 20
23.569536
  0
VERTEX
  8
LAYER_1
 62
    20
  6
CONTINUOUS
 10
-2.944915
 20
23.572512
  0
VERTEX
  8
LAYER_1
 62
    20
  6
CONTINUOUS
 10
-2.943170
 20
23.575496
  0
VERTEX
  8
LAYER_1
 62
    20
  6
CONTINUOUS
 10
-2.941438
 20
23.578489
  0
VERTEX
  8
LAYER_1
 62
    20
  6
CONTINUOUS
 10
-2.939720
 20
23.581489
  0
VERTEX
  8
LAYER_1
 62
    20
  6
CONTINUOUS
 10
-2.938016
 20
23.584497
  0
VERTEX
  8
LAYER_1
 62
    20
  6
CONTINUOUS
 10
-2.936326
 20
23.587513
  0
VERTEX
  8
LAYER_1
 62
    20
  6
CONTINUOUS
 10
-2.934650
 20
23.590537
  0
VERTEX
  8
LAYER_1
 62
    20
  6
CONTINUOUS
 10
-2.932988
 20
23.593569
  0
VERTEX
  8
LAYER_1
 62
    20
  6
CONTINUOUS
 10
-2.931340
 20
23.596608
  0
VERTEX
  8
LAYER_1
 62
    20
  6
CONTINUOUS
 10
-2.929706
 20
23.599655
  0
VERTEX
  8
LAYER_1
 62
    20
  6
CONTINUOUS
 10
-2.928086
 20
23.602709
  0
VERTEX
  8
LAYER_1
 62
    20
  6
CONTINUOUS
 10
-2.926480
 20
23.605770
  0
VERTEX
  8
LAYER_1
 62
    20
  6
CONTINUOUS
 10
-2.924888
 20
23.608839
  0
VERTEX
  8
LAYER_1
 62
    20
  6
CONTINUOUS
 10
-2.923311
 20
23.611916
  0
VERTEX
  8
LAYER_1
 62
    20
  6
CONTINUOUS
 10
-2.921747
 20
23.614999
  0
VERTEX
  8
LAYER_1
 62
    20
  6
CONTINUOUS
 10
-2.920198
 20
23.618090
  0
VERTEX
  8
LAYER_1
 62
    20
  6
CONTINUOUS
 10
-2.918663
 20
23.621188
  0
VERTEX
  8
LAYER_1
 62
    20
  6
CONTINUOUS
 10
-2.917142
 20
23.624293
  0
VERTEX
  8
LAYER_1
 62
    20
  6
CONTINUOUS
 10
-2.915636
 20
23.627404
  0
VERTEX
  8
LAYER_1
 62
    20
  6
CONTINUOUS
 10
-2.914144
 20
23.630523
  0
VERTEX
  8
LAYER_1
 62
    20
  6
CONTINUOUS
 10
-2.912667
 20
23.633649
  0
VERTEX
  8
LAYER_1
 62
    20
  6
CONTINUOUS
 10
-2.911203
 20
23.636781
  0
VERTEX
  8
LAYER_1
 62
    20
  6
CONTINUOUS
 10
-2.909755
 20
23.639920
  0
VERTEX
  8
LAYER_1
 62
    20
  6
CONTINUOUS
 10
-2.908320
 20
23.643066
  0
VERTEX
  8
LAYER_1
 62
    20
  6
CONTINUOUS
 10
-2.906901
 20
23.646218
  0
VERTEX
  8
LAYER_1
 62
    20
  6
CONTINUOUS
 10
-2.905496
 20
23.649377
  0
VERTEX
  8
LAYER_1
 62
    20
  6
CONTINUOUS
 10
-2.904105
 20
23.652543
  0
VERTEX
  8
LAYER_1
 62
    20
  6
CONTINUOUS
 10
-2.902729
 20
23.655714
  0
VERTEX
  8
LAYER_1
 62
    20
  6
CONTINUOUS
 10
-2.901368
 20
23.658892
  0
VERTEX
  8
LAYER_1
 62
    20
  6
CONTINUOUS
 10
-2.900021
 20
23.662076
  0
VERTEX
  8
LAYER_1
 62
    20
  6
CONTINUOUS
 10
-2.898689
 20
23.665267
  0
VERTEX
  8
LAYER_1
 62
    20
  6
CONTINUOUS
 10
-2.897372
 20
23.668463
  0
VERTEX
  8
LAYER_1
 62
    20
  6
CONTINUOUS
 10
-2.896069
 20
23.671666
  0
VERTEX
  8
LAYER_1
 62
    20
  6
CONTINUOUS
 10
-2.894782
 20
23.674874
  0
VERTEX
  8
LAYER_1
 62
    20
  6
CONTINUOUS
 10
-2.893509
 20
23.678089
  0
VERTEX
  8
LAYER_1
 62
    20
  6
CONTINUOUS
 10
-2.892251
 20
23.681309
  0
VERTEX
  8
LAYER_1
 62
    20
  6
CONTINUOUS
 10
-2.891007
 20
23.684535
  0
VERTEX
  8
LAYER_1
 62
    20
  6
CONTINUOUS
 10
-2.889779
 20
23.687767
  0
VERTEX
  8
LAYER_1
 62
    20
  6
CONTINUOUS
 10
-2.888566
 20
23.691004
  0
VERTEX
  8
LAYER_1
 62
    20
  6
CONTINUOUS
 10
-2.887367
 20
23.694247
  0
VERTEX
  8
LAYER_1
 62
    20
  6
CONTINUOUS
 10
-2.886184
 20
23.697495
  0
VERTEX
  8
LAYER_1
 62
    20
  6
CONTINUOUS
 10
-2.885015
 20
23.700749
  0
VERTEX
  8
LAYER_1
 62
    20
  6
CONTINUOUS
 10
-2.883861
 20
23.704008
  0
VERTEX
  8
LAYER_1
 62
    20
  6
CONTINUOUS
 10
-2.882723
 20
23.707272
  0
VERTEX
  8
LAYER_1
 62
    20
  6
CONTINUOUS
 10
-2.881599
 20
23.710542
  0
VERTEX
  8
LAYER_1
 62
    20
  6
CONTINUOUS
 10
-2.880491
 20
23.713817
  0
VERTEX
  8
LAYER_1
 62
    20
  6
CONTINUOUS
 10
-2.879398
 20
23.717097
  0
VERTEX
  8
LAYER_1
 62
    20
  6
CONTINUOUS
 10
-2.878320
 20
23.720382
  0
VERTEX
  8
LAYER_1
 62
    20
  6
CONTINUOUS
 10
-2.877257
 20
23.723671
  0
VERTEX
  8
LAYER_1
 62
    20
  6
CONTINUOUS
 10
-2.876209
 20
23.726966
  0
VERTEX
  8
LAYER_1
 62
    20
  6
CONTINUOUS
 10
-2.875176
 20
23.730265
  0
VERTEX
  8
LAYER_1
 62
    20
  6
CONTINUOUS
 10
-2.874159
 20
23.733570
  0
VERTEX
  8
LAYER_1
 62
    20
  6
CONTINUOUS
 10
-2.873157
 20
23.736878
  0
VERTEX
  8
LAYER_1
 62
    20
  6
CONTINUOUS
 10
-2.872170
 20
23.740192
  0
VERTEX
  8
LAYER_1
 62
    20
  6
CONTINUOUS
 10
-2.871198
 20
23.743510
  0
VERTEX
  8
LAYER_1
 62
    20
  6
CONTINUOUS
 10
-2.870242
 20
23.746832
  0
VERTEX
  8
LAYER_1
 62
    20
  6
CONTINUOUS
 10
-2.869301
 20
23.750159
  0
VERTEX
  8
LAYER_1
 62
    20
  6
CONTINUOUS
 10
-2.868376
 20
23.753490
  0
VERTEX
  8
LAYER_1
 62
    20
  6
CONTINUOUS
 10
-2.867465
 20
23.756825
  0
VERTEX
  8
LAYER_1
 62
    20
  6
CONTINUOUS
 10
-2.866570
 20
23.760165
  0
VERTEX
  8
LAYER_1
 62
    20
  6
CONTINUOUS
 10
-2.865691
 20
23.763508
  0
VERTEX
  8
LAYER_1
 62
    20
  6
CONTINUOUS
 10
-2.864827
 20
23.766856
  0
VERTEX
  8
LAYER_1
 62
    20
  6
CONTINUOUS
 10
-2.863978
 20
23.770207
  0
VERTEX
  8
LAYER_1
 62
    20
  6
CONTINUOUS
 10
-2.863145
 20
23.773563
  0
VERTEX
  8
LAYER_1
 62
    20
  6
CONTINUOUS
 10
-2.862327
 20
23.776922
  0
VERTEX
  8
LAYER_1
 62
    20
  6
CONTINUOUS
 10
-2.861525
 20
23.780285
  0
VERTEX
  8
LAYER_1
 62
    20
  6
CONTINUOUS
 10
-2.860739
 20
23.783651
  0
VERTEX
  8
LAYER_1
 62
    20
  6
CONTINUOUS
 10
-2.859968
 20
23.787021
  0
VERTEX
  8
LAYER_1
 62
    20
  6
CONTINUOUS
 10
-2.859212
 20
23.790395
  0
VERTEX
  8
LAYER_1
 62
    20
  6
CONTINUOUS
 10
-2.858472
 20
23.793772
  0
VERTEX
  8
LAYER_1
 62
    20
  6
CONTINUOUS
 10
-2.857747
 20
23.797153
  0
VERTEX
  8
LAYER_1
 62
    20
  6
CONTINUOUS
 10
-2.857039
 20
23.800537
  0
VERTEX
  8
LAYER_1
 62
    20
  6
CONTINUOUS
 10
-2.856345
 20
23.803924
  0
VERTEX
  8
LAYER_1
 62
    20
  6
CONTINUOUS
 10
-2.855668
 20
23.807314
  0
VERTEX
  8
LAYER_1
 62
    20
  6
CONTINUOUS
 10
-2.855006
 20
23.810707
  0
VERTEX
  8
LAYER_1
 62
    20
  6
CONTINUOUS
 10
-2.854359
 20
23.814103
  0
VERTEX
  8
LAYER_1
 62
    20
  6
CONTINUOUS
 10
-2.853729
 20
23.817503
  0
VERTEX
  8
LAYER_1
 62
    20
  6
CONTINUOUS
 10
-2.853114
 20
23.820905
  0
VERTEX
  8
LAYER_1
 62
    20
  6
CONTINUOUS
 10
-2.852514
 20
23.824310
  0
VERTEX
  8
LAYER_1
 62
    20
  6
CONTINUOUS
 10
-2.851931
 20
23.827717
  0
VERTEX
  8
LAYER_1
 62
    20
  6
CONTINUOUS
 10
-2.851363
 20
23.831128
  0
VERTEX
  8
LAYER_1
 62
    20
  6
CONTINUOUS
 10
-2.850811
 20
23.834540
  0
VERTEX
  8
LAYER_1
 62
    20
  6
CONTINUOUS
 10
-2.850274
 20
23.837956
  0
VERTEX
  8
LAYER_1
 62
    20
  6
CONTINUOUS
 10
-2.849753
 20
23.841374
  0
VERTEX
  8
LAYER_1
 62
    20
  6
CONTINUOUS
 10
-2.849248
 20
23.844794
  0
VERTEX
  8
LAYER_1
 62
    20
  6
CONTINUOUS
 10
-2.848759
 20
23.848216
  0
VERTEX
  8
LAYER_1
 62
    20
  6
CONTINUOUS
 10
-2.848286
 20
23.851641
  0
VERTEX
  8
LAYER_1
 62
    20
  6
CONTINUOUS
 10
-2.847828
 20
23.855068
  0
VERTEX
  8
LAYER_1
 62
    20
  6
CONTINUOUS
 10
-2.847387
 20
23.858497
  0
VERTEX
  8
LAYER_1
 62
    20
  6
CONTINUOUS
 10
-2.846961
 20
23.861928
  0
VERTEX
  8
LAYER_1
 62
    20
  6
CONTINUOUS
 10
-2.846550
 20
23.865361
  0
VERTEX
  8
LAYER_1
 62
    20
  6
CONTINUOUS
 10
-2.846156
 20
23.868795
  0
VERTEX
  8
LAYER_1
 62
    20
  6
CONTINUOUS
 10
-2.845778
 20
23.872232
  0
VERTEX
  8
LAYER_1
 62
    20
  6
CONTINUOUS
 10
-2.845415
 20
23.875670
  0
VERTEX
  8
LAYER_1
 62
    20
  6
CONTINUOUS
 10
-2.845068
 20
23.879110
  0
VERTEX
  8
LAYER_1
 62
    20
  6
CONTINUOUS
 10
-2.844737
 20
23.882551
  0
VERTEX
  8
LAYER_1
 62
    20
  6
CONTINUOUS
 10
-2.844422
 20
23.885994
  0
VERTEX
  8
LAYER_1
 62
    20
  6
CONTINUOUS
 10
-2.844123
 20
23.889438
  0
VERTEX
  8
LAYER_1
 62
    20
  6
CONTINUOUS
 10
-2.843840
 20
23.892884
  0
VERTEX
  8
LAYER_1
 62
    20
  6
CONTINUOUS
 10
-2.843572
 20
23.896331
  0
VERTEX
  8
LAYER_1
 62
    20
  6
CONTINUOUS
 10
-2.843321
 20
23.899779
  0
VERTEX
  8
LAYER_1
 62
    20
  6
CONTINUOUS
 10
-2.843085
 20
23.903228
  0
VERTEX
  8
LAYER_1
 62
    20
  6
CONTINUOUS
 10
-2.842865
 20
23.906678
  0
VERTEX
  8
LAYER_1
 62
    20
  6
CONTINUOUS
 10
-2.842661
 20
23.910130
  0
VERTEX
  8
LAYER_1
 62
    20
  6
CONTINUOUS
 10
-2.842473
 20
23.913582
  0
VERTEX
  8
LAYER_1
 62
    20
  6
CONTINUOUS
 10
-2.842301
 20
23.917035
  0
VERTEX
  8
LAYER_1
 62
    20
  6
CONTINUOUS
 10
-2.842145
 20
23.920489
  0
VERTEX
  8
LAYER_1
 62
    20
  6
CONTINUOUS
 10
-2.842005
 20
23.923943
  0
VERTEX
  8
LAYER_1
 62
    20
  6
CONTINUOUS
 10
-2.841881
 20
23.927398
  0
VERTEX
  8
LAYER_1
 62
    20
  6
CONTINUOUS
 10
-2.841773
 20
23.930854
  0
VERTEX
  8
LAYER_1
 62
    20
  6
CONTINUOUS
 10
-2.841680
 20
23.934310
  0
VERTEX
  8
LAYER_1
 62
    20
  6
CONTINUOUS
 10
-2.841604
 20
23.937766
  0
VERTEX
  8
LAYER_1
 62
    20
  6
CONTINUOUS
 10
-2.841543
 20
23.941223
  0
VERTEX
  8
LAYER_1
 62
    20
  6
CONTINUOUS
 10
-2.841499
 20
23.944680
  0
VERTEX
  8
LAYER_1
 62
    20
  6
CONTINUOUS
 10
-2.841470
 20
23.948137
  0
VERTEX
  8
LAYER_1
 62
    20
  6
CONTINUOUS
 10
-2.841457
 20
23.951594
  0
SEQEND
  8
0
  0
LINE
  8
LAYER_1
 62
    20
  6
CONTINUOUS
 10
-2.841457
 20
23.952622
 11
-2.841457
 21
23.952622
  0
POLYLINE
  8
LAYER_1
 62
    30
  6
CONTINUOUS
 66
     1
 40
0.003000
 41
0.003000
 70
     1
  0
VERTEX
  8
LAYER_1
 62
    30
  6
CONTINUOUS
 10
7.301181
 20
21.674720
  0
VERTEX
  8
LAYER_1
 62
    30
  6
CONTINUOUS
 10
7.301181
 20
44.799720
  0
VERTEX
  8
LAYER_1
 62
    30
  6
CONTINUOUS
 10
20.301181
 20
44.799720
  0
VERTEX
  8
LAYER_1
 62
    30
  6
CONTINUOUS
 10
20.301181
 20
21.674720
  0
SEQEND
  8
0
  0
POLYLINE
  8
LAYER_1
 62
    30
  6
CONTINUOUS
 66
     1
 40
0.003000
 41
0.003000
 70
     1
  0
VERTEX
  8
LAYER_1
 62
    30
  6
CONTINUOUS
 10
-21.573118
 20
-5.341437
  0
VERTEX
  8
LAYER_1
 62
    30
  6
CONTINUOUS
 10
-21.573118
 20
17.783563
  0
VERTEX
  8
LAYER_1
 62
    30
  6
CONTINUOUS
 10
20.551882
 20
17.783563
  0
VERTEX
  8
LAYER_1
 62
    30
  6
CONTINUOUS
 10
20.551882
 20
-5.341437
  0
SEQEND
  8
0
  0
POLYLINE
  8
LAYER_1
 62
    30
  6
CONTINUOUS
 66
     1
 40
0.003000
 41
0.003000
 70
     1
  0
VERTEX
  8
LAYER_1
 62
    30
  6
CONTINUOUS
 10
12.967996
 20
-1.470240
  0
VERTEX
  8
LAYER_1
 62
    30
  6
CONTINUOUS
 10
12.967996
 20
-1.470236
  0
VERTEX
  8
LAYER_1
 62
    30
  6
CONTINUOUS
 10
12.967997
 20
-1.470162
  0
VERTEX
  8
LAYER_1
 62
    30
  6
CONTINUOUS
 10
12.967999
 20
-1.470090
  0
VERTEX
  8
LAYER_1
 62
    30
  6
CONTINUOUS
 10
12.968000
 20
-1.470016
  0
VERTEX
  8
LAYER_1
 62
    30
  6
CONTINUOUS
 10
12.967996
 20
-1.470016
  0
VERTEX
  8
LAYER_1
 62
    30
  6
CONTINUOUS
 10
12.967996
 20
1.897437
  0
VERTEX
  8
LAYER_1
 62
    30
  6
CONTINUOUS
 10
12.967996
 20
1.897441
  0
VERTEX
  8
LAYER_1
 62
    30
  6
CONTINUOUS
 10
12.967996
 20
1.906638
  0
VERTEX
  8
LAYER_1
 62
    30
  6
CONTINUOUS
 10
12.968098
 20
1.906638
  0
VERTEX
  8
LAYER_1
 62
    30
  6
CONTINUOUS
 10
13.068178
 20
2.311646
  0
VERTEX
  8
LAYER_1
 62
    30
  6
CONTINUOUS
 10
13.323543
 20
2.600047
  0
VERTEX
  8
LAYER_1
 62
    30
  6
CONTINUOUS
 10
13.679980
 20
2.709937
  0
VERTEX
  8
LAYER_1
 62
    30
  6
CONTINUOUS
 10
13.881016
 20
2.709937
  0
VERTEX
  8
LAYER_1
 62
    30
  6
CONTINUOUS
 10
14.237450
 20
2.600047
  0
VERTEX
  8
LAYER_1
 62
    30
  6
CONTINUOUS
 10
14.492814
 20
2.311646
  0
VERTEX
  8
LAYER_1
 62
    30
  6
CONTINUOUS
 10
14.592894
 20
1.906638
  0
VERTEX
  8
LAYER_1
 62
    30
  6
CONTINUOUS
 10
14.592996
 20
1.906638
  0
VERTEX
  8
LAYER_1
 62
    30
  6
CONTINUOUS
 10
14.592996
 20
1.897441
  0
VERTEX
  8
LAYER_1
 62
    30
  6
CONTINUOUS
 10
14.592996
 20
1.897437
  0
VERTEX
  8
LAYER_1
 62
    30
  6
CONTINUOUS
 10
14.592996
 20
-1.470016
  0
VERTEX
  8
LAYER_1
 62
    30
  6
CONTINUOUS
 10
14.592992
 20
-1.470016
  0
VERTEX
  8
LAYER_1
 62
    30
  6
CONTINUOUS
 10
14.592993
 20
-1.470090
  0
VERTEX
  8
LAYER_1
 62
    30
  6
CONTINUOUS
 10
14.592995
 20
-1.470162
  0
VERTEX
  8
LAYER_1
 62
    30
  6
CONTINUOUS
 10
14.592996
 20
-1.470236
  0
VERTEX
  8
LAYER_1
 62
    30
  6
CONTINUOUS
 10
14.592996
 20
-1.470240
  0
VERTEX
  8
LAYER_1
 62
    30
  6
CONTINUOUS
 10
14.495429
 20
-1.879501
  0
VERTEX
  8
LAYER_1
 62
    30
  6
CONTINUOUS
 10
14.239643
 20
-2.171398
  0
VERTEX
  8
LAYER_1
 62
    30
  6
CONTINUOUS
 10
13.881016
 20
-2.282740
  0
VERTEX
  8
LAYER_1
 62
    30
  6
CONTINUOUS
 10
13.679980
 20
-2.282740
  0
VERTEX
  8
LAYER_1
 62
    30
  6
CONTINUOUS
 10
13.321350
 20
-2.171398
  0
VERTEX
  8
LAYER_1
 62
    30
  6
CONTINUOUS
 10
13.065564
 20
-1.879501
  0
SEQEND
  8
0
  0
POLYLINE
  8
LAYER_1
 62
    30
  6
CONTINUOUS
 66
     1
 40
0.003000
 41
0.003000
 70
     1
  0
VERTEX
  8
LAYER_1
 62
    30
  6
CONTINUOUS
 10
12.967996
 20
10.544689
  0
VERTEX
  8
LAYER_1
 62
    30
  6
CONTINUOUS
 10
12.967996
 20
10.544693
  0
VERTEX
  8
LAYER_1
 62
    30
  6
CONTINUOUS
 10
12.967997
 20
10.544767
  0
VERTEX
  8
LAYER_1
 62
    30
  6
CONTINUOUS
 10
12.967999
 20
10.544840
  0
VERTEX
  8
LAYER_1
 62
    30
  6
CONTINUOUS
 10
12.968000
 20
10.544913
  0
VERTEX
  8
LAYER_1
 62
    30
  6
CONTINUOUS
 10
12.967996
 20
10.544913
  0
VERTEX
  8
LAYER_1
 62
    30
  6
CONTINUOUS
 10
12.967996
 20
13.912366
  0
VERTEX
  8
LAYER_1
 62
    30
  6
CONTINUOUS
 10
12.967996
 20
13.912370
  0
VERTEX
  8
LAYER_1
 62
    30
  6
CONTINUOUS
 10
12.967996
 20
13.921567
  0
VERTEX
  8
LAYER_1
 62
    30
  6
CONTINUOUS
 10
12.968098
 20
13.921567
  0
VERTEX
  8
LAYER_1
 62
    30
  6
CONTINUOUS
 10
13.068178
 20
14.326575
  0
VERTEX
  8
LAYER_1
 62
    30
  6
CONTINUOUS
 10
13.323543
 20
14.614976
  0
VERTEX
  8
LAYER_1
 62
    30
  6
CONTINUOUS
 10
13.679980
 20
14.724866
  0
VERTEX
  8
LAYER_1
 62
    30
  6
CONTINUOUS
 10
13.881016
 20
14.724866
  0
VERTEX
  8
LAYER_1
 62
    30
  6
CONTINUOUS
 10
14.237450
 20
14.614976
  0
VERTEX
  8
LAYER_1
 62
    30
  6
CONTINUOUS
 10
14.492814
 20
14.326575
  0
VERTEX
  8
LAYER_1
 62
    30
  6
CONTINUOUS
 10
14.592894
 20
13.921567
  0
VERTEX
  8
LAYER_1
 62
    30
  6
CONTINUOUS
 10
14.592996
 20
13.921567
  0
VERTEX
  8
LAYER_1
 62
    30
  6
CONTINUOUS
 10
14.592996
 20
13.912370
  0
VERTEX
  8
LAYER_1
 62
    30
  6
CONTINUOUS
 10
14.592996
 20
13.912366
  0
VERTEX
  8
LAYER_1
 62
    30
  6
CONTINUOUS
 10
14.592996
 20
10.544913
  0
VERTEX
  8
LAYER_1
 62
    30
  6
CONTINUOUS
 10
14.592992
 20
10.544913
  0
VERTEX
  8
LAYER_1
 62
    30
  6
CONTINUOUS
 10
14.592993
 20
10.544840
  0
VERTEX
  8
LAYER_1
 62
    30
  6
CONTINUOUS
 10
14.592995
 20
10.544767
  0
VERTEX
  8
LAYER_1
 62
    30
  6
CONTINUOUS
 10
14.592996
 20
10.544693
  0
VERTEX
  8
LAYER_1
 62
    30
  6
CONTINUOUS
 10
14.592996
 20
10.544689
  0
VERTEX
  8
LAYER_1
 62
    30
  6
CONTINUOUS
 10
14.495429
 20
10.135428
  0
VERTEX
  8
LAYER_1
 62
    30
  6
CONTINUOUS
 10
14.239643
 20
9.843531
  0
VERTEX
  8
LAYER_1
 62
    30
  6
CONTINUOUS
 10
13.881016
 20
9.732189
  0
VERTEX
  8
LAYER_1
 62
    30
  6
CONTINUOUS
 10
13.679980
 20
9.732189
  0
VERTEX
  8
LAYER_1
 62
    30
  6
CONTINUOUS
 10
13.321350
 20
9.843531
  0
VERTEX
  8
LAYER_1
 62
    30
  6
CONTINUOUS
 10
13.065564
 20
10.135428
  0
SEQEND
  8
0
  0
POLYLINE
  8
LAYER_1
 62
    30
  6
CONTINUOUS
 66
     1
 40
0.003000
 41
0.003000
 70
     1
  0
VERTEX
  8
LAYER_1
 62
    30
  6
CONTINUOUS
 10
15.175075
 20
-1.470240
  0
VERTEX
  8
LAYER_1
 62
    30
  6
CONTINUOUS
 10
15.175075
 20
-1.470236
  0
VERTEX
  8
LAYER_1
 62
    30
  6
CONTINUOUS
 10
15.175076
 20
-1.470162
  0
VERTEX
  8
LAYER_1
 62
    30
  6
CONTINUOUS
 10
15.175078
 20
-1.470090
  0
VERTEX
  8
LAYER_1
 62
    30
  6
CONTINUOUS
 10
15.175079
 20
-1.470016
  0
VERTEX
  8
LAYER_1
 62
    30
  6
CONTINUOUS
 10
15.175075
 20
-1.470016
  0
VERTEX
  8
LAYER_1
 62
    30
  6
CONTINUOUS
 10
15.175075
 20
1.897437
  0
VERTEX
  8
LAYER_1
 62
    30
  6
CONTINUOUS
 10
15.175075
 20
1.897441
  0
VERTEX
  8
LAYER_1
 62
    30
  6
CONTINUOUS
 10
15.175075
 20
1.906638
  0
VERTEX
  8
LAYER_1
 62
    30
  6
CONTINUOUS
 10
15.175177
 20
1.906638
  0
VERTEX
  8
LAYER_1
 62
    30
  6
CONTINUOUS
 10
15.275257
 20
2.311646
  0
VERTEX
  8
LAYER_1
 62
    30
  6
CONTINUOUS
 10
15.530622
 20
2.600047
  0
VERTEX
  8
LAYER_1
 62
    30
  6
CONTINUOUS
 10
15.887059
 20
2.709937
  0
VERTEX
  8
LAYER_1
 62
    30
  6
CONTINUOUS
 10
16.088094
 20
2.709937
  0
VERTEX
  8
LAYER_1
 62
    30
  6
CONTINUOUS
 10
16.444529
 20
2.600047
  0
VERTEX
  8
LAYER_1
 62
    30
  6
CONTINUOUS
 10
16.699893
 20
2.311646
  0
VERTEX
  8
LAYER_1
 62
    30
  6
CONTINUOUS
 10
16.799972
 20
1.906638
  0
VERTEX
  8
LAYER_1
 62
    30
  6
CONTINUOUS
 10
16.800075
 20
1.906638
  0
VERTEX
  8
LAYER_1
 62
    30
  6
CONTINUOUS
 10
16.800075
 20
1.897441
  0
VERTEX
  8
LAYER_1
 62
    30
  6
CONTINUOUS
 10
16.800075
 20
1.897437
  0
VERTEX
  8
LAYER_1
 62
    30
  6
CONTINUOUS
 10
16.800075
 20
-1.470016
  0
VERTEX
  8
LAYER_1
 62
    30
  6
CONTINUOUS
 10
16.800071
 20
-1.470016
  0
VERTEX
  8
LAYER_1
 62
    30
  6
CONTINUOUS
 10
16.800072
 20
-1.470090
  0
VERTEX
  8
LAYER_1
 62
    30
  6
CONTINUOUS
 10
16.800074
 20
-1.470162
  0
VERTEX
  8
LAYER_1
 62
    30
  6
CONTINUOUS
 10
16.800075
 20
-1.470236
  0
VERTEX
  8
LAYER_1
 62
    30
  6
CONTINUOUS
 10
16.800075
 20
-1.470240
  0
VERTEX
  8
LAYER_1
 62
    30
  6
CONTINUOUS
 10
16.702507
 20
-1.879501
  0
VERTEX
  8
LAYER_1
 62
    30
  6
CONTINUOUS
 10
16.446722
 20
-2.171398
  0
VERTEX
  8
LAYER_1
 62
    30
  6
CONTINUOUS
 10
16.088094
 20
-2.282740
  0
VERTEX
  8
LAYER_1
 62
    30
  6
CONTINUOUS
 10
15.887059
 20
-2.282740
  0
VERTEX
  8
LAYER_1
 62
    30
  6
CONTINUOUS
 10
15.528429
 20
-2.171398
  0
VERTEX
  8
LAYER_1
 62
    30
  6
CONTINUOUS
 10
15.272642
 20
-1.879501
  0
SEQEND
  8
0
  0
POLYLINE
  8
LAYER_1
 62
    30
  6
CONTINUOUS
 66
     1
 40
0.003000
 41
0.003000
 70
     1
  0
VERTEX
  8
LAYER_1
 62
    30
  6
CONTINUOUS
 10
15.175075
 20
10.544689
  0
VERTEX
  8
LAYER_1
 62
    30
  6
CONTINUOUS
 10
15.175075
 20
10.544693
  0
VERTEX
  8
LAYER_1
 62
    30
  6
CONTINUOUS
 10
15.175076
 20
10.544767
  0
VERTEX
  8
LAYER_1
 62
    30
  6
CONTINUOUS
 10
15.175078
 20
10.544840
  0
VERTEX
  8
LAYER_1
 62
    30
  6
CONTINUOUS
 10
15.175079
 20
10.544913
  0
VERTEX
  8
LAYER_1
 62
    30
  6
CONTINUOUS
 10
15.175075
 20
10.544913
  0
VERTEX
  8
LAYER_1
 62
    30
  6
CONTINUOUS
 10
15.175075
 20
13.912366
  0
VERTEX
  8
LAYER_1
 62
    30
  6
CONTINUOUS
 10
15.175075
 20
13.912370
  0
VERTEX
  8
LAYER_1
 62
    30
  6
CONTINUOUS
 10
15.175075
 20
13.921567
  0
VERTEX
  8
LAYER_1
 62
    30
  6
CONTINUOUS
 10
15.175177
 20
13.921567
  0
VERTEX
  8
LAYER_1
 62
    30
  6
CONTINUOUS
 10
15.275257
 20
14.326575
  0
VERTEX
  8
LAYER_1
 62
    30
  6
CONTINUOUS
 10
15.530622
 20
14.614976
  0
VERTEX
  8
LAYER_1
 62
    30
  6
CONTINUOUS
 10
15.887059
 20
14.724866
  0
VERTEX
  8
LAYER_1
 62
    30
  6
CONTINUOUS
 10
16.088094
 20
14.724866
  0
VERTEX
  8
LAYER_1
 62
    30
  6
CONTINUOUS
 10
16.444529
 20
14.614976
  0
VERTEX
  8
LAYER_1
 62
    30
  6
CONTINUOUS
 10
16.699893
 20
14.326575
  0
VERTEX
  8
LAYER_1
 62
    30
  6
CONTINUOUS
 10
16.799972
 20
13.921567
  0
VERTEX
  8
LAYER_1
 62
    30
  6
CONTINUOUS
 10
16.800075
 20
13.921567
  0
VERTEX
  8
LAYER_1
 62
    30
  6
CONTINUOUS
 10
16.800075
 20
13.912370
  0
VERTEX
  8
LAYER_1
 62
    30
  6
CONTINUOUS
 10
16.800075
 20
13.912366
  0
VERTEX
  8
LAYER_1
 62
    30
  6
CONTINUOUS
 10
16.800075
 20
10.544913
  0
VERTEX
  8
LAYER_1
 62
    30
  6
CONTINUOUS
 10
16.800071
 20
10.544913
  0
VERTEX
  8
LAYER_1
 62
    30
  6
CONTINUOUS
 10
16.800072
 20
10.544840
  0
VERTEX
  8
LAYER_1
 62
    30
  6
CONTINUOUS
 10
16.800074
 20
10.544767
  0
VERTEX
  8
LAYER_1
 62
    30
  6
CONTINUOUS
 10
16.800075
 20
10.544693
  0
VERTEX
  8
LAYER_1
 62
    30
  6
CONTINUOUS
 10
16.800075
 20
10.544689
  0
VERTEX
  8
LAYER_1
 62
    30
  6
CONTINUOUS
 10
16.702507
 20
10.135428
  0
VERTEX
  8
LAYER_1
 62
    30
  6
CONTINUOUS
 10
16.446722
 20
9.843531
  0
VERTEX
  8
LAYER_1
 62
    30
  6
CONTINUOUS
 10
16.088094
 20
9.732189
  0
VERTEX
  8
LAYER_1
 62
    30
  6
CONTINUOUS
 10
15.887059
 20
9.732189
  0
VERTEX
  8
LAYER_1
 62
    30
  6
CONTINUOUS
 10
15.528429
 20
9.843531
  0
VERTEX
  8
LAYER_1
 62
    30
  6
CONTINUOUS
 10
15.272642
 20
10.135428
  0
SEQEND
  8
0
  0
POLYLINE
  8
LAYER_1
 62
    30
  6
CONTINUOUS
 66
     1
 40
0.003000
 41
0.003000
 70
     1
  0
VERTEX
  8
LAYER_1
 62
    30
  6
CONTINUOUS
 10
-18.067043
 20
-1.470240
  0
VERTEX
  8
LAYER_1
 62
    30
  6
CONTINUOUS
 10
-18.067043
 20
-1.470236
  0
VERTEX
  8
LAYER_1
 62
    30
  6
CONTINUOUS
 10
-18.067042
 20
-1.470162
  0
VERTEX
  8
LAYER_1
 62
    30
  6
CONTINUOUS
 10
-18.067040
 20
-1.470090
  0
VERTEX
  8
LAYER_1
 62
    30
  6
CONTINUOUS
 10
-18.067039
 20
-1.470016
  0
VERTEX
  8
LAYER_1
 62
    30
  6
CONTINUOUS
 10
-18.067043
 20
-1.470016
  0
VERTEX
  8
LAYER_1
 62
    30
  6
CONTINUOUS
 10
-18.067043
 20
1.897437
  0
VERTEX
  8
LAYER_1
 62
    30
  6
CONTINUOUS
 10
-18.067043
 20
1.897441
  0
VERTEX
  8
LAYER_1
 62
    30
  6
CONTINUOUS
 10
-18.067043
 20
1.906638
  0
VERTEX
  8
LAYER_1
 62
    30
  6
CONTINUOUS
 10
-18.066941
 20
1.906638
  0
VERTEX
  8
LAYER_1
 62
    30
  6
CONTINUOUS
 10
-17.966861
 20
2.311646
  0
VERTEX
  8
LAYER_1
 62
    30
  6
CONTINUOUS
 10
-17.711496
 20
2.600047
  0
VERTEX
  8
LAYER_1
 62
    30
  6
CONTINUOUS
 10
-17.355059
 20
2.709937
  0
VERTEX
  8
LAYER_1
 62
    30
  6
CONTINUOUS
 10
-17.154024
 20
2.709937
  0
VERTEX
  8
LAYER_1
 62
    30
  6
CONTINUOUS
 10
-16.797590
 20
2.600047
  0
VERTEX
  8
LAYER_1
 62
    30
  6
CONTINUOUS
 10
-16.542225
 20
2.311646
  0
VERTEX
  8
LAYER_1
 62
    30
  6
CONTINUOUS
 10
-16.442146
 20
1.906638
  0
VERTEX
  8
LAYER_1
 62
    30
  6
CONTINUOUS
 10
-16.442043
 20
1.906638
  0
VERTEX
  8
LAYER_1
 62
    30
  6
CONTINUOUS
 10
-16.442043
 20
1.897441
  0
VERTEX
  8
LAYER_1
 62
    30
  6
CONTINUOUS
 10
-16.442043
 20
1.897437
  0
VERTEX
  8
LAYER_1
 62
    30
  6
CONTINUOUS
 10
-16.442043
 20
-1.470016
  0
VERTEX
  8
LAYER_1
 62
    30
  6
CONTINUOUS
 10
-16.442047
 20
-1.470016
  0
VERTEX
  8
LAYER_1
 62
    30
  6
CONTINUOUS
 10
-16.442046
 20
-1.470090
  0
VERTEX
  8
LAYER_1
 62
    30
  6
CONTINUOUS
 10
-16.442044
 20
-1.470162
  0
VERTEX
  8
LAYER_1
 62
    30
  6
CONTINUOUS
 10
-16.442043
 20
-1.470236
  0
VERTEX
  8
LAYER_1
 62
    30
  6
CONTINUOUS
 10
-16.442043
 20
-1.470240
  0
VERTEX
  8
LAYER_1
 62
    30
  6
CONTINUOUS
 10
-16.539611
 20
-1.879501
  0
VERTEX
  8
LAYER_1
 62
    30
  6
CONTINUOUS
 10
-16.795396
 20
-2.171398
  0
VERTEX
  8
LAYER_1
 62
    30
  6
CONTINUOUS
 10
-17.154024
 20
-2.282740
  0
VERTEX
  8
LAYER_1
 62
    30
  6
CONTINUOUS
 10
-17.355059
 20
-2.282740
  0
VERTEX
  8
LAYER_1
 62
    30
  6
CONTINUOUS
 10
-17.713690
 20
-2.171398
  0
VERTEX
  8
LAYER_1
 62
    30
  6
CONTINUOUS
 10
-17.969476
 20
-1.879501
  0
SEQEND
  8
0
  0
POLYLINE
  8
LAYER_1
 62
    30
  6
CONTINUOUS
 66
     1
 40
0.003000
 41
0.003000
 70
     1
  0
VERTEX
  8
LAYER_1
 62
    30
  6
CONTINUOUS
 10
-18.067043
 20
10.544689
  0
VERTEX
  8
LAYER_1
 62
    30
  6
CONTINUOUS
 10
-18.067043
 20
10.544693
  0
VERTEX
  8
LAYER_1
 62
    30
  6
CONTINUOUS
 10
-18.067042
 20
10.544767
  0
VERTEX
  8
LAYER_1
 62
    30
  6
CONTINUOUS
 10
-18.067040
 20
10.544840
  0
VERTEX
  8
LAYER_1
 62
    30
  6
CONTINUOUS
 10
-18.067039
 20
10.544913
  0
VERTEX
  8
LAYER_1
 62
    30
  6
CONTINUOUS
 10
-18.067043
 20
10.544913
  0
VERTEX
  8
LAYER_1
 62
    30
  6
CONTINUOUS
 10
-18.067043
 20
13.912366
  0
VERTEX
  8
LAYER_1
 62
    30
  6
CONTINUOUS
 10
-18.067043
 20
13.912370
  0
VERTEX
  8
LAYER_1
 62
    30
  6
CONTINUOUS
 10
-18.067043
 20
13.921567
  0
VERTEX
  8
LAYER_1
 62
    30
  6
CONTINUOUS
 10
-18.066941
 20
13.921567
  0
VERTEX
  8
LAYER_1
 62
    30
  6
CONTINUOUS
 10
-17.966861
 20
14.326575
  0
VERTEX
  8
LAYER_1
 62
    30
  6
CONTINUOUS
 10
-17.711496
 20
14.614976
  0
VERTEX
  8
LAYER_1
 62
    30
  6
CONTINUOUS
 10
-17.355059
 20
14.724866
  0
VERTEX
  8
LAYER_1
 62
    30
  6
CONTINUOUS
 10
-17.154024
 20
14.724866
  0
VERTEX
  8
LAYER_1
 62
    30
  6
CONTINUOUS
 10
-16.797590
 20
14.614976
  0
VERTEX
  8
LAYER_1
 62
    30
  6
CONTINUOUS
 10
-16.542225
 20
14.326575
  0
VERTEX
  8
LAYER_1
 62
    30
  6
CONTINUOUS
 10
-16.442146
 20
13.921567
  0
VERTEX
  8
LAYER_1
 62
    30
  6
CONTINUOUS
 10
-16.442043
 20
13.921567
  0
VERTEX
  8
LAYER_1
 62
    30
  6
CONTINUOUS
 10
-16.442043
 20
13.912370
  0
VERTEX
  8
LAYER_1
 62
    30
  6
CONTINUOUS
 10
-16.442043
 20
13.912366
  0
VERTEX
  8
LAYER_1
 62
    30
  6
CONTINUOUS
 10
-16.442043
 20
10.544913
  0
VERTEX
  8
LAYER_1
 62
    30
  6
CONTINUOUS
 10
-16.442047
 20
10.544913
  0
VERTEX
  8
LAYER_1
 62
    30
  6
CONTINUOUS
 10
-16.442046
 20
10.544840
  0
VERTEX
  8
LAYER_1
 62
    30
  6
CONTINUOUS
 10
-16.442044
 20
10.544767
  0
VERTEX
  8
LAYER_1
 62
    30
  6
CONTINUOUS
 10
-16.442043
 20
10.544693
  0
VERTEX
  8
LAYER_1
 62
    30
  6
CONTINUOUS
 10
-16.442043
 20
10.544689
  0
VERTEX
  8
LAYER_1
 62
    30
  6
CONTINUOUS
 10
-16.539611
 20
10.135428
  0
VERTEX
  8
LAYER_1
 62
    30
  6
CONTINUOUS
 10
-16.795396
 20
9.843531
  0
VERTEX
  8
LAYER_1
 62
    30
  6
CONTINUOUS
 10
-17.154024
 20
9.732189
  0
VERTEX
  8
LAYER_1
 62
    30
  6
CONTINUOUS
 10
-17.355059
 20
9.732189
  0
VERTEX
  8
LAYER_1
 62
    30
  6
CONTINUOUS
 10
-17.713690
 20
9.843531
  0
VERTEX
  8
LAYER_1
 62
    30
  6
CONTINUOUS
 10
-17.969476
 20
10.135428
  0
SEQEND
  8
0
  0
POLYLINE
  8
LAYER_1
 62
    30
  6
CONTINUOUS
 66
     1
 40
0.003000
 41
0.003000
 70
     1
  0
VERTEX
  8
LAYER_1
 62
    30
  6
CONTINUOUS
 10
-15.859965
 20
-1.470240
  0
VERTEX
  8
LAYER_1
 62
    30
  6
CONTINUOUS
 10
-15.859965
 20
-1.470236
  0
VERTEX
  8
LAYER_1
 62
    30
  6
CONTINUOUS
 10
-15.859964
 20
-1.470162
  0
VERTEX
  8
LAYER_1
 62
    30
  6
CONTINUOUS
 10
-15.859962
 20
-1.470090
  0
VERTEX
  8
LAYER_1
 62
    30
  6
CONTINUOUS
 10
-15.859961
 20
-1.470016
  0
VERTEX
  8
LAYER_1
 62
    30
  6
CONTINUOUS
 10
-15.859965
 20
-1.470016
  0
VERTEX
  8
LAYER_1
 62
    30
  6
CONTINUOUS
 10
-15.859965
 20
1.897437
  0
VERTEX
  8
LAYER_1
 62
    30
  6
CONTINUOUS
 10
-15.859965
 20
1.897441
  0
VERTEX
  8
LAYER_1
 62
    30
  6
CONTINUOUS
 10
-15.859965
 20
1.906638
  0
VERTEX
  8
LAYER_1
 62
    30
  6
CONTINUOUS
 10
-15.859862
 20
1.906638
  0
VERTEX
  8
LAYER_1
 62
    30
  6
CONTINUOUS
 10
-15.759782
 20
2.311646
  0
VERTEX
  8
LAYER_1
 62
    30
  6
CONTINUOUS
 10
-15.504417
 20
2.600047
  0
VERTEX
  8
LAYER_1
 62
    30
  6
CONTINUOUS
 10
-15.147980
 20
2.709937
  0
VERTEX
  8
LAYER_1
 62
    30
  6
CONTINUOUS
 10
-14.946945
 20
2.709937
  0
VERTEX
  8
LAYER_1
 62
    30
  6
CONTINUOUS
 10
-14.590511
 20
2.600047
  0
VERTEX
  8
LAYER_1
 62
    30
  6
CONTINUOUS
 10
-14.335147
 20
2.311646
  0
VERTEX
  8
LAYER_1
 62
    30
  6
CONTINUOUS
 10
-14.235067
 20
1.906638
  0
VERTEX
  8
LAYER_1
 62
    30
  6
CONTINUOUS
 10
-14.234965
 20
1.906638
  0
VERTEX
  8
LAYER_1
 62
    30
  6
CONTINUOUS
 10
-14.234965
 20
1.897441
  0
VERTEX
  8
LAYER_1
 62
    30
  6
CONTINUOUS
 10
-14.234965
 20
1.897437
  0
VERTEX
  8
LAYER_1
 62
    30
  6
CONTINUOUS
 10
-14.234965
 20
-1.470016
  0
VERTEX
  8
LAYER_1
 62
    30
  6
CONTINUOUS
 10
-14.234969
 20
-1.470016
  0
VERTEX
  8
LAYER_1
 62
    30
  6
CONTINUOUS
 10
-14.234967
 20
-1.470090
  0
VERTEX
  8
LAYER_1
 62
    30
  6
CONTINUOUS
 10
-14.234966
 20
-1.470162
  0
VERTEX
  8
LAYER_1
 62
    30
  6
CONTINUOUS
 10
-14.234965
 20
-1.470236
  0
VERTEX
  8
LAYER_1
 62
    30
  6
CONTINUOUS
 10
-14.234965
 20
-1.470240
  0
VERTEX
  8
LAYER_1
 62
    30
  6
CONTINUOUS
 10
-14.332532
 20
-1.879501
  0
VERTEX
  8
LAYER_1
 62
    30
  6
CONTINUOUS
 10
-14.588317
 20
-2.171398
  0
VERTEX
  8
LAYER_1
 62
    30
  6
CONTINUOUS
 10
-14.946945
 20
-2.282740
  0
VERTEX
  8
LAYER_1
 62
    30
  6
CONTINUOUS
 10
-15.147980
 20
-2.282740
  0
VERTEX
  8
LAYER_1
 62
    30
  6
CONTINUOUS
 10
-15.506611
 20
-2.171398
  0
VERTEX
  8
LAYER_1
 62
    30
  6
CONTINUOUS
 10
-15.762397
 20
-1.879501
  0
SEQEND
  8
0
  0
POLYLINE
  8
LAYER_1
 62
    30
  6
CONTINUOUS
 66
     1
 40
0.003000
 41
0.003000
 70
     1
  0
VERTEX
  8
LAYER_1
 62
    30
  6
CONTINUOUS
 10
-15.859965
 20
10.544689
  0
VERTEX
  8
LAYER_1
 62
    30
  6
CONTINUOUS
 10
-15.859965
 20
10.544693
  0
VERTEX
  8
LAYER_1
 62
    30
  6
CONTINUOUS
 10
-15.859964
 20
10.544767
  0
VERTEX
  8
LAYER_1
 62
    30
  6
CONTINUOUS
 10
-15.859962
 20
10.544840
  0
VERTEX
  8
LAYER_1
 62
    30
  6
CONTINUOUS
 10
-15.859961
 20
10.544913
  0
VERTEX
  8
LAYER_1
 62
    30
  6
CONTINUOUS
 10
-15.859965
 20
10.544913
  0
VERTEX
  8
LAYER_1
 62
    30
  6
CONTINUOUS
 10
-15.859965
 20
13.912366
  0
VERTEX
  8
LAYER_1
 62
    30
  6
CONTINUOUS
 10
-15.859965
 20
13.912370
  0
VERTEX
  8
LAYER_1
 62
    30
  6
CONTINUOUS
 10
-15.859965
 20
13.921567
  0
VERTEX
  8
LAYER_1
 62
    30
  6
CONTINUOUS
 10
-15.859862
 20
13.921567
  0
VERTEX
  8
LAYER_1
 62
    30
  6
CONTINUOUS
 10
-15.759782
 20
14.326575
  0
VERTEX
  8
LAYER_1
 62
    30
  6
CONTINUOUS
 10
-15.504417
 20
14.614976
  0
VERTEX
  8
LAYER_1
 62
    30
  6
CONTINUOUS
 10
-15.147980
 20
14.724866
  0
VERTEX
  8
LAYER_1
 62
    30
  6
CONTINUOUS
 10
-14.946945
 20
14.724866
  0
VERTEX
  8
LAYER_1
 62
    30
  6
CONTINUOUS
 10
-14.590511
 20
14.614976
  0
VERTEX
  8
LAYER_1
 62
    30
  6
CONTINUOUS
 10
-14.335147
 20
14.326575
  0
VERTEX
  8
LAYER_1
 62
    30
  6
CONTINUOUS
 10
-14.235067
 20
13.921567
  0
VERTEX
  8
LAYER_1
 62
    30
  6
CONTINUOUS
 10
-14.234965
 20
13.921567
  0
VERTEX
  8
LAYER_1
 62
    30
  6
CONTINUOUS
 10
-14.234965
 20
13.912370
  0
VERTEX
  8
LAYER_1
 62
    30
  6
CONTINUOUS
 10
-14.234965
 20
13.912366
  0
VERTEX
  8
LAYER_1
 62
    30
  6
CONTINUOUS
 10
-14.234965
 20
10.544913
  0
VERTEX
  8
LAYER_1
 62
    30
  6
CONTINUOUS
 10
-14.234969
 20
10.544913
  0
VERTEX
  8
LAYER_1
 62
    30
  6
CONTINUOUS
 10
-14.234967
 20
10.544840
  0
VERTEX
  8
LAYER_1
 62
    30
  6
CONTINUOUS
 10
-14.234966
 20
10.544767
  0
VERTEX
  8
LAYER_1
 62
    30
  6
CONTINUOUS
 10
-14.234965
 20
10.544693
  0
VERTEX
  8
LAYER_1
 62
    30
  6
CONTINUOUS
 10
-14.234965
 20
10.544689
  0
VERTEX
  8
LAYER_1
 62
    30
  6
CONTINUOUS
 10
-14.332532
 20
10.135428
  0
VERTEX
  8
LAYER_1
 62
    30
  6
CONTINUOUS
 10
-14.588317
 20
9.843531
  0
VERTEX
  8
LAYER_1
 62
    30
  6
CONTINUOUS
 10
-14.946945
 20
9.732189
  0
VERTEX
  8
LAYER_1
 62
    30
  6
CONTINUOUS
 10
-15.147980
 20
9.732189
  0
VERTEX
  8
LAYER_1
 62
    30
  6
CONTINUOUS
 10
-15.506611
 20
9.843531
  0
VERTEX
  8
LAYER_1
 62
    30
  6
CONTINUOUS
 10
-15.762397
 20
10.135428
  0
SEQEND
  8
0
  0
ENDSEC
  0
EOF
