  0
SECTION
  2
HEADER
  9
$ACADVER
  1
AC1009
  9
$DWGCODEPAGE
  3
ansi_1252
  9
$INSBASE
 10
0.0
 20
0.0
 30
0.0
  9
$EXTMIN
 10
0.8069731577676655
 20
-33.94499390392155
 30
0.0
  9
$EXTMAX
 10
172.5532585480935
 20
48.3128042788375
 30
0.0
  9
$LIMMIN
 10
0.0
 20
0.0
  9
$LIMMAX
 10
12.0
 20
9.0
  9
$ORTHOMODE
 70
     0
  9
$REGENMODE
 70
     1
  9
$FILLMODE
 70
     1
  9
$QTEXTMODE
 70
     0
  9
$MIRRTEXT
 70
     1
  9
$DRAGMODE
 70
     2
  9
$LTSCALE
 40
1.0
  9
$OSMODE
 70
    37
  9
$ATTMODE
 70
     1
  9
$TEXTSIZE
 40
0.2
  9
$TRACEWID
 40
0.05
  9
$TEXTSTYLE
  7
STANDARD
  9
$CLAYER
  8
0
  9
$CELTYPE
  6
BYLAYER
  9
$CECOLOR
 62
   256
  9
$DIMSCALE
 40
1.0
  9
$DIMASZ
 40
0.18
  9
$DIMEXO
 40
0.0625
  9
$DIMDLI
 40
0.38
  9
$DIMRND
 40
0.0
  9
$DIMDLE
 40
0.0
  9
$DIMEXE
 40
0.18
  9
$DIMTP
 40
0.0
  9
$DIMTM
 40
0.0
  9
$DIMTXT
 40
0.18
  9
$DIMCEN
 40
0.09
  9
$DIMTSZ
 40
0.0
  9
$DIMTOL
 70
     0
  9
$DIMLIM
 70
     0
  9
$DIMTIH
 70
     1
  9
$DIMTOH
 70
     1
  9
$DIMSE1
 70
     0
  9
$DIMSE2
 70
     0
  9
$DIMTAD
 70
     0
  9
$DIMZIN
 70
     0
  9
$DIMBLK
  1

  9
$DIMASO
 70
     1
  9
$DIMSHO
 70
     1
  9
$DIMPOST
  1

  9
$DIMAPOST
  1

  9
$DIMALT
 70
     0
  9
$DIMALTD
 70
     2
  9
$DIMALTF
 40
25.4
  9
$DIMLFAC
 40
1.0
  9
$DIMTOFL
 70
     0
  9
$DIMTVP
 40
0.0
  9
$DIMTIX
 70
     0
  9
$DIMSOXD
 70
     0
  9
$DIMSAH
 70
     0
  9
$DIMBLK1
  1

  9
$DIMBLK2
  1

  9
$DIMSTYLE
  2
STANDARD
  9
$DIMCLRD
 70
     0
  9
$DIMCLRE
 70
     0
  9
$DIMCLRT
 70
     0
  9
$DIMTFAC
 40
1.0
  9
$DIMGAP
 40
0.09
  9
$LUNITS
 70
     2
  9
$LUPREC
 70
     4
  9
$SKETCHINC
 40
0.1
  9
$FILLETRAD
 40
0.5
  9
$AUNITS
 70
     0
  9
$AUPREC
 70
     0
  9
$MENU
  1
.
  9
$ELEVATION
 40
0.0
  9
$PELEVATION
 40
0.0
  9
$THICKNESS
 40
0.0
  9
$LIMCHECK
 70
     0
  9
$CHAMFERA
 40
0.0
  9
$CHAMFERB
 40
0.0
  9
$SKPOLY
 70
     0
  9
$TDCREATE
 40
2454910.5
  9
$TDUPDATE
 40
2457527.930273102
  9
$TDINDWG
 40
0.0000000116
  9
$TDUSRTIMER
 40
0.0000000116
  9
$USRTIMER
 70
     1
  9
$ANGBASE
 50
0.0
  9
$ANGDIR
 70
     0
  9
$PDMODE
 70
     0
  9
$PDSIZE
 40
0.0
  9
$PLINEWID
 40
0.0
  9
$COORDS
 70
     1
  9
$SPLFRAME
 70
     0
  9
$SPLINETYPE
 70
     6
  9
$SPLINESEGS
 70
     8
  9
$ATTDIA
 70
     0
  9
$ATTREQ
 70
     1
  9
$HANDLING
 70
     1
  9
$HANDSEED
  5
8C6
  9
$SURFTAB1
 70
     6
  9
$SURFTAB2
 70
     6
  9
$SURFTYPE
 70
     6
  9
$SURFU
 70
     6
  9
$SURFV
 70
     6
  9
$UCSNAME
  2

  9
$UCSORG
 10
0.0
 20
0.0
 30
0.0
  9
$UCSXDIR
 10
1.0
 20
0.0
 30
0.0
  9
$UCSYDIR
 10
0.0
 20
1.0
 30
0.0
  9
$PUCSNAME
  2

  9
$PUCSORG
 10
0.0
 20
0.0
 30
0.0
  9
$PUCSXDIR
 10
1.0
 20
0.0
 30
0.0
  9
$PUCSYDIR
 10
0.0
 20
1.0
 30
0.0
  9
$USERI1
 70
     0
  9
$USERI2
 70
     0
  9
$USERI3
 70
     0
  9
$USERI4
 70
     0
  9
$USERI5
 70
     0
  9
$USERR1
 40
0.0
  9
$USERR2
 40
0.0
  9
$USERR3
 40
0.0
  9
$USERR4
 40
0.0
  9
$USERR5
 40
0.0
  9
$WORLDVIEW
 70
     1
  9
$SHADEDGE
 70
     3
  9
$SHADEDIF
 70
    70
  9
$TILEMODE
 70
     1
  9
$MAXACTVP
 70
    64
  9
$PLIMCHECK
 70
     0
  9
$PEXTMIN
 10
1.000000000000000E+20
 20
1.000000000000000E+20
 30
1.000000000000000E+20
  9
$PEXTMAX
 10
-1.000000000000000E+20
 20
-1.000000000000000E+20
 30
-1.000000000000000E+20
  9
$PLIMMIN
 10
0.0
 20
0.0
  9
$PLIMMAX
 10
12.0
 20
9.0
  9
$UNITMODE
 70
     0
  9
$VISRETAIN
 70
     1
  9
$PLINEGEN
 70
     0
  9
$PSLTSCALE
 70
     1
  0
ENDSEC
  0
SECTION
  2
TABLES
  0
TABLE
  2
VPORT
 70
     1
  0
VPORT
  2
*ACTIVE
 70
     0
 10
0.0
 20
0.0
 11
1.0
 21
1.0
 12
10.42990654205607
 22
4.5
 13
0.0
 23
0.0
 14
0.5
 24
0.5
 15
0.5
 25
0.5
 16
0.0
 26
0.0
 36
1.0
 17
0.0
 27
0.0
 37
0.0
 40
9.0
 41
1.972972972850329
 42
50.0
 43
0.0
 44
0.0
 50
0.0
 51
0.0
 71
     0
 72
   100
 73
     1
 74
     3
 75
     0
 76
     0
 77
     0
 78
     0
  0
ENDTAB
  0
TABLE
  2
LTYPE
 70
     2
  0
LTYPE
  2
CONTINUOUS
 70
     0
  3
Solid line
 72
    65
 73
     0
 40
0.0
  0
LTYPE
  2
CONTINUOUS2
 70
     0
  3
Solid Line
 72
    65
 73
     0
 40
0.0
  0
ENDTAB
  0
TABLE
  2
LAYER
 70
     2
  0
LAYER
  2
0
 70
     0
 62
     7
  6
CONTINUOUS
  0
LAYER
  2
LAYER_1
 70
     0
 62
    18
  6
CONTINUOUS
  0
ENDTAB
  0
TABLE
  2
STYLE
 70
     1
  0
STYLE
  2
STANDARD
 70
     0
 40
0.0
 41
1.0
 50
0.0
 71
     0
 42
0.2
  3
txt
  4

  0
ENDTAB
  0
TABLE
  2
VIEW
 70
     0
  0
ENDTAB
  0
TABLE
  2
UCS
 70
     0
  0
ENDTAB
  0
TABLE
  2
APPID
 70
     1
  0
APPID
  2
ACAD
 70
     0
  0
ENDTAB
  0
TABLE
  2
DIMSTYLE
 70
     1
  0
DIMSTYLE
  2
STANDARD
 70
     0
  3

  4

  5

  6

  7

 40
1.0
 41
0.18
 42
0.0625
 43
0.38
 44
0.18
 45
0.0
 46
0.0
 47
0.0
 48
0.0
140
0.18
141
0.09
142
0.0
143
25.4
144
1.0
145
0.0
146
1.0
147
0.09
 71
     0
 72
     0
 73
     1
 74
     1
 75
     0
 76
     0
 77
     0
 78
     0
170
     0
171
     2
172
     0
173
     0
174
     0
175
     0
176
     0
177
     0
178
     0
  0
ENDTAB
  0
ENDSEC
  0
SECTION
  2
BLOCKS
  0
BLOCK
  8
0
  2
$MODEL_SPACE
 70
     0
 10
0.0
 20
0.0
 30
0.0
  3
$MODEL_SPACE
  1

  0
ENDBLK
  5
21
  8
0
  0
BLOCK
 67
     1
  8
0
  2
$PAPER_SPACE
 70
     0
 10
0.0
 20
0.0
 30
0.0
  3
$PAPER_SPACE
  1

  0
ENDBLK
  5
1D
 67
     1
  8
0
  0
ENDSEC
  0
SECTION
  2
ENTITIES
  0
POLYLINE
  5
70
  8
LAYER_1
 66
     1
 10
0.0
 20
0.0
 30
0.0
 70
     1
  0
VERTEX
  5
114
  8
LAYER_1
 10
14.75754326537168
 20
-13.34831988895968
 30
0.0
  0
VERTEX
  5
115
  8
LAYER_1
 10
9.632543265371126
 20
-4.660819888951295
 30
0.0
  0
VERTEX
  5
116
  8
LAYER_1
 10
9.619643776115154
 20
-4.639373355610742
 30
0.0
  0
VERTEX
  5
117
  8
LAYER_1
 10
9.606307433678694
 20
-4.618022540039016
 30
0.0
  0
VERTEX
  5
118
  8
LAYER_1
 10
9.592542188890379
 20
-4.596776253466719
 30
0.0
  0
VERTEX
  5
119
  8
LAYER_1
 10
9.578355992578834
 20
-4.575643307124452
 30
0.0
  0
VERTEX
  5
11A
  8
LAYER_1
 10
9.563756795572694
 20
-4.554632512242816
 30
0.0
  0
VERTEX
  5
11B
  8
LAYER_1
 10
9.548752548700591
 20
-4.533752680052412
 30
0.0
  0
VERTEX
  5
11C
  8
LAYER_1
 10
9.533351202791156
 20
-4.513012621783842
 30
0.0
  0
VERTEX
  5
11D
  8
LAYER_1
 10
9.517560708673022
 20
-4.492421148667708
 30
0.0
  0
VERTEX
  5
11E
  8
LAYER_1
 10
9.50138901717482
 20
-4.47198707193461
 30
0.0
  0
VERTEX
  5
11F
  8
LAYER_1
 10
9.484844079125178
 20
-4.451719202815148
 30
0.0
  0
VERTEX
  5
120
  8
LAYER_1
 10
9.467933845352729
 20
-4.431626352539926
 30
0.0
  0
VERTEX
  5
121
  8
LAYER_1
 10
9.450666266686106
 20
-4.411717332339542
 30
0.0
  0
VERTEX
  5
122
  8
LAYER_1
 10
9.43304929395394
 20
-4.392000953444601
 30
0.0
  0
VERTEX
  5
123
  8
LAYER_1
 10
9.415090877984863
 20
-4.372486027085701
 30
0.0
  0
VERTEX
  5
124
  8
LAYER_1
 10
9.396798969607506
 20
-4.353181364493445
 30
0.0
  0
VERTEX
  5
125
  8
LAYER_1
 10
9.378181519650502
 20
-4.334095776898435
 30
0.0
  0
VERTEX
  5
126
  8
LAYER_1
 10
9.359246478942481
 20
-4.31523807553127
 30
0.0
  0
VERTEX
  5
127
  8
LAYER_1
 10
9.34000179831207
 20
-4.296617071622553
 30
0.0
  0
VERTEX
  5
128
  8
LAYER_1
 10
9.320455428587907
 20
-4.278241576402884
 30
0.0
  0
VERTEX
  5
129
  8
LAYER_1
 10
9.30061532059862
 20
-4.260120401102863
 30
0.0
  0
VERTEX
  5
12A
  8
LAYER_1
 10
9.280489425172842
 20
-4.242262356953095
 30
0.0
  0
VERTEX
  5
12B
  8
LAYER_1
 10
9.260085693139205
 20
-4.224676255184178
 30
0.0
  0
VERTEX
  5
12C
  8
LAYER_1
 10
9.239412075326339
 20
-4.207370907026715
 30
0.0
  0
VERTEX
  5
12D
  8
LAYER_1
 10
9.218476522562874
 20
-4.190355123711306
 30
0.0
  0
VERTEX
  5
12E
  8
LAYER_1
 10
9.197286985677446
 20
-4.173637716468553
 30
0.0
  0
VERTEX
  5
12F
  8
LAYER_1
 10
9.17585141549868
 20
-4.157227496529058
 30
0.0
  0
VERTEX
  5
130
  8
LAYER_1
 10
9.154177762855216
 20
-4.141133275123421
 30
0.0
  0
VERTEX
  5
131
  8
LAYER_1
 10
9.132273978575679
 20
-4.125363863482242
 30
0.0
  0
VERTEX
  5
132
  8
LAYER_1
 10
9.110148013488702
 20
-4.109928072836125
 30
0.0
  0
VERTEX
  5
133
  8
LAYER_1
 10
9.087807818422917
 20
-4.09483471441567
 30
0.0
  0
VERTEX
  5
134
  8
LAYER_1
 10
9.065261344206954
 20
-4.080092599451477
 30
0.0
  0
VERTEX
  5
135
  8
LAYER_1
 10
9.042516541669446
 20
-4.065710539174151
 30
0.0
  0
VERTEX
  5
136
  8
LAYER_1
 10
9.019581361639023
 20
-4.05169734481429
 30
0.0
  0
VERTEX
  5
137
  8
LAYER_1
 10
8.996463754944319
 20
-4.038061827602495
 30
0.0
  0
VERTEX
  5
138
  8
LAYER_1
 10
8.973171672413965
 20
-4.024812798769368
 30
0.0
  0
VERTEX
  5
139
  8
LAYER_1
 10
8.94971306487659
 20
-4.01195906954551
 30
0.0
  0
VERTEX
  5
13A
  8
LAYER_1
 10
8.926095883160828
 20
-3.999509451161523
 30
0.0
  0
VERTEX
  5
13B
  8
LAYER_1
 10
8.902328078095309
 20
-3.987472754848008
 30
0.0
  0
VERTEX
  5
13C
  8
LAYER_1
 10
8.878417600508666
 20
-3.975857791835566
 30
0.0
  0
VERTEX
  5
13D
  8
LAYER_1
 10
8.854372401229528
 20
-3.964673373354798
 30
0.0
  0
VERTEX
  5
13E
  8
LAYER_1
 10
8.830200431086528
 20
-3.953928310636306
 30
0.0
  0
VERTEX
  5
13F
  8
LAYER_1
 10
8.805909640908297
 20
-3.943631414910691
 30
0.0
  0
VERTEX
  5
140
  8
LAYER_1
 10
8.781507981523465
 20
-3.933791497408553
 30
0.0
  0
VERTEX
  5
141
  8
LAYER_1
 10
8.757003403760667
 20
-3.924417369360494
 30
0.0
  0
VERTEX
  5
142
  8
LAYER_1
 10
8.732403858448533
 20
-3.915517841997116
 30
0.0
  0
VERTEX
  5
143
  8
LAYER_1
 10
8.707717296415694
 20
-3.90710172654902
 30
0.0
  0
VERTEX
  5
144
  8
LAYER_1
 10
8.68295166849078
 20
-3.899177834246807
 30
0.0
  0
VERTEX
  5
145
  8
LAYER_1
 10
8.658114925502426
 20
-3.891754976321077
 30
0.0
  0
VERTEX
  5
146
  8
LAYER_1
 10
8.63321501827926
 20
-3.884841964002432
 30
0.0
  0
VERTEX
  5
147
  8
LAYER_1
 10
8.608259897649916
 20
-3.878447608521475
 30
0.0
  0
VERTEX
  5
148
  8
LAYER_1
 10
8.583257514443025
 20
-3.872580721108806
 30
0.0
  0
VERTEX
  5
149
  8
LAYER_1
 10
8.558215819487216
 20
-3.867250112995024
 30
0.0
  0
VERTEX
  5
14A
  8
LAYER_1
 10
8.533142763611123
 20
-3.862464595410734
 30
0.0
  0
VERTEX
  5
14B
  8
LAYER_1
 10
8.508046297643377
 20
-3.858232979586536
 30
0.0
  0
VERTEX
  5
14C
  8
LAYER_1
 10
8.48293437241261
 20
-3.854564076753029
 30
0.0
  0
VERTEX
  5
14D
  8
LAYER_1
 10
8.45781493874745
 20
-3.851466698140817
 30
0.0
  0
VERTEX
  5
14E
  8
LAYER_1
 10
8.432695947476532
 20
-3.848949654980499
 30
0.0
  0
VERTEX
  5
14F
  8
LAYER_1
 10
8.407585349428489
 20
-3.847021758502678
 30
0.0
  0
VERTEX
  5
150
  8
LAYER_1
 10
8.382491095431948
 20
-3.845691819937955
 30
0.0
  0
VERTEX
  5
151
  8
LAYER_1
 10
8.357421136315544
 20
-3.844968650516931
 30
0.0
  0
VERTEX
  5
152
  8
LAYER_1
 10
8.332383422907906
 20
-3.844861061470207
 30
0.0
  0
VERTEX
  5
153
  8
LAYER_1
 10
8.307385906037666
 20
-3.845377864028383
 30
0.0
  0
VERTEX
  5
154
  8
LAYER_1
 10
8.282436536533456
 20
-3.846527869422063
 30
0.0
  0
VERTEX
  5
155
  8
LAYER_1
 10
8.257543265223909
 20
-3.848319888881846
 30
0.0
  0
VERTEX
  5
156
  8
LAYER_1
 10
2.382543265520525
 20
-4.348319889017326
 30
0.0
  0
VERTEX
  5
157
  8
LAYER_1
 10
2.351586975209081
 20
-4.35147882579424
 30
0.0
  0
VERTEX
  5
158
  8
LAYER_1
 10
2.320658118656516
 20
-4.355672289979284
 30
0.0
  0
VERTEX
  5
159
  8
LAYER_1
 10
2.28977141831199
 20
-4.360881245260575
 30
0.0
  0
VERTEX
  5
15A
  8
LAYER_1
 10
2.25894159662467
 20
-4.367086655326228
 30
0.0
  0
VERTEX
  5
15B
  8
LAYER_1
 10
2.228183376043716
 20
-4.374269483864358
 30
0.0
  0
VERTEX
  5
15C
  8
LAYER_1
 10
2.197511479018291
 20
-4.382410694563083
 30
0.0
  0
VERTEX
  5
15D
  8
LAYER_1
 10
2.16694062799756
 20
-4.391491251110518
 30
0.0
  0
VERTEX
  5
15E
  8
LAYER_1
 10
2.136485545430686
 20
-4.401492117194779
 30
0.0
  0
VERTEX
  5
15F
  8
LAYER_1
 10
2.106160953766831
 20
-4.412394256503982
 30
0.0
  0
VERTEX
  5
160
  8
LAYER_1
 10
2.075981575455159
 20
-4.424178632726246
 30
0.0
  0
VERTEX
  5
161
  8
LAYER_1
 10
2.045962132944832
 20
-4.436826209549685
 30
0.0
  0
VERTEX
  5
162
  8
LAYER_1
 10
2.016117348685015
 20
-4.450317950662415
 30
0.0
  0
VERTEX
  5
163
  8
LAYER_1
 10
1.98646194512487
 20
-4.464634819752552
 30
0.0
  0
VERTEX
  5
164
  8
LAYER_1
 10
1.957010644713559
 20
-4.479757780508214
 30
0.0
  0
VERTEX
  5
165
  8
LAYER_1
 10
1.927778169900248
 20
-4.495667796617515
 30
0.0
  0
VERTEX
  5
166
  8
LAYER_1
 10
1.898779243134097
 20
-4.512345831768572
 30
0.0
  0
VERTEX
  5
167
  8
LAYER_1
 10
1.870028586864271
 20
-4.529772849649501
 30
0.0
  0
VERTEX
  5
168
  8
LAYER_1
 10
1.841540923539934
 20
-4.54792981394842
 30
0.0
  0
VERTEX
  5
169
  8
LAYER_1
 10
1.813330975610246
 20
-4.566797688353442
 30
0.0
  0
VERTEX
  5
16A
  8
LAYER_1
 10
1.785413465524373
 20
-4.586357436552685
 30
0.0
  0
VERTEX
  5
16B
  8
LAYER_1
 10
1.757803115731477
 20
-4.606590022234267
 30
0.0
  0
VERTEX
  5
16C
  8
LAYER_1
 10
1.730514648680722
 20
-4.627476409086301
 30
0.0
  0
VERTEX
  5
16D
  8
LAYER_1
 10
1.70356278682127
 20
-4.648997560796904
 30
0.0
  0
VERTEX
  5
16E
  8
LAYER_1
 10
1.676962252602284
 20
-4.671134441054193
 30
0.0
  0
VERTEX
  5
16F
  8
LAYER_1
 10
1.650727768472928
 20
-4.693868013546283
 30
0.0
  0
VERTEX
  5
170
  8
LAYER_1
 10
1.624874056882365
 20
-4.717179241961293
 30
0.0
  0
VERTEX
  5
171
  8
LAYER_1
 10
1.599415840279758
 20
-4.741049089987335
 30
0.0
  0
VERTEX
  5
172
  8
LAYER_1
 10
1.57436784111427
 20
-4.765458521312529
 30
0.0
  0
VERTEX
  5
173
  8
LAYER_1
 10
1.549744781835065
 20
-4.790388499624989
 30
0.0
  0
VERTEX
  5
174
  8
LAYER_1
 10
1.525561384891304
 20
-4.815819988612832
 30
0.0
  0
VERTEX
  5
175
  8
LAYER_1
 10
1.501832372732153
 20
-4.841733951964173
 30
0.0
  0
VERTEX
  5
176
  8
LAYER_1
 10
1.478572467806773
 20
-4.868111353367129
 30
0.0
  0
VERTEX
  5
177
  8
LAYER_1
 10
1.455796392564327
 20
-4.894933156509817
 30
0.0
  0
VERTEX
  5
178
  8
LAYER_1
 10
1.43351886945398
 20
-4.922180325080352
 30
0.0
  0
VERTEX
  5
179
  8
LAYER_1
 10
1.411754620924894
 20
-4.94983382276685
 30
0.0
  0
VERTEX
  5
17A
  8
LAYER_1
 10
1.390518369426232
 20
-4.977874613257431
 30
0.0
  0
VERTEX
  5
17B
  8
LAYER_1
 10
1.369824837407157
 20
-5.006283660240205
 30
0.0
  0
VERTEX
  5
17C
  8
LAYER_1
 10
1.349688747316833
 20
-5.035041927403292
 30
0.0
  0
VERTEX
  5
17D
  8
LAYER_1
 10
1.330124821604422
 20
-5.064130378434808
 30
0.0
  0
VERTEX
  5
17E
  8
LAYER_1
 10
1.311147782719089
 20
-5.093529977022868
 30
0.0
  0
VERTEX
  5
17F
  8
LAYER_1
 10
1.292772353109995
 20
-5.123221686855589
 30
0.0
  0
VERTEX
  5
180
  8
LAYER_1
 10
1.275013255226304
 20
-5.153186471621088
 30
0.0
  0
VERTEX
  5
181
  8
LAYER_1
 10
1.257885211517179
 20
-5.183405295007479
 30
0.0
  0
VERTEX
  5
182
  8
LAYER_1
 10
1.241402944431784
 20
-5.21385912070288
 30
0.0
  0
VERTEX
  5
183
  8
LAYER_1
 10
1.225581176419281
 20
-5.244528912395406
 30
0.0
  0
VERTEX
  5
184
  8
LAYER_1
 10
1.210434629928834
 20
-5.275395633773173
 30
0.0
  0
VERTEX
  5
185
  8
LAYER_1
 10
1.195978027409605
 20
-5.306440248524299
 30
0.0
  0
VERTEX
  5
186
  8
LAYER_1
 10
1.182226091310759
 20
-5.337643720336898
 30
0.0
  0
VERTEX
  5
187
  8
LAYER_1
 10
1.169193544081457
 20
-5.368987012899089
 30
0.0
  0
VERTEX
  5
188
  8
LAYER_1
 10
1.156895108170864
 20
-5.400451089898985
 30
0.0
  0
VERTEX
  5
189
  8
LAYER_1
 10
1.145345506028141
 20
-5.432016915024704
 30
0.0
  0
VERTEX
  5
18A
  8
LAYER_1
 10
1.134559460102453
 20
-5.463665451964362
 30
0.0
  0
VERTEX
  5
18B
  8
LAYER_1
 10
1.124551692842963
 20
-5.495377664406075
 30
0.0
  0
VERTEX
  5
18C
  8
LAYER_1
 10
1.115336926698833
 20
-5.527134516037959
 30
0.0
  0
VERTEX
  5
18D
  8
LAYER_1
 10
1.106929884119227
 20
-5.558916970548131
 30
0.0
  0
VERTEX
  5
18E
  8
LAYER_1
 10
1.099345287553308
 20
-5.590705991624706
 30
0.0
  0
VERTEX
  5
18F
  8
LAYER_1
 10
1.092597859450239
 20
-5.622482542955801
 30
0.0
  0
VERTEX
  5
190
  8
LAYER_1
 10
1.086702322259184
 20
-5.654227588229531
 30
0.0
  0
VERTEX
  5
191
  8
LAYER_1
 10
1.081673398429305
 20
-5.685922091134016
 30
0.0
  0
VERTEX
  5
192
  8
LAYER_1
 10
1.077525810409765
 20
-5.717547015357367
 30
0.0
  0
VERTEX
  5
193
  8
LAYER_1
 10
1.074274280649728
 20
-5.749083324587703
 30
0.0
  0
VERTEX
  5
194
  8
LAYER_1
 10
1.071933531598356
 20
-5.78051198251314
 30
0.0
  0
VERTEX
  5
195
  8
LAYER_1
 10
1.070518285704814
 20
-5.811813952821793
 30
0.0
  0
VERTEX
  5
196
  8
LAYER_1
 10
1.070043265418263
 20
-5.84297019920178
 30
0.0
  0
VERTEX
  5
197
  8
LAYER_1
 10
1.070043265418263
 20
-25.22491397228332
 30
0.0
  0
VERTEX
  5
198
  8
LAYER_1
 10
1.069881006680835
 20
-25.29843060191374
 30
0.0
  0
VERTEX
  5
199
  8
LAYER_1
 10
1.070018155644811
 20
-25.33615076924801
 30
0.0
  0
VERTEX
  5
19A
  8
LAYER_1
 10
1.070603021173481
 20
-25.37424006873291
 30
0.0
  0
VERTEX
  5
19B
  8
LAYER_1
 10
1.07186225152402
 20
-25.41249442322184
 30
0.0
  0
VERTEX
  5
19C
  8
LAYER_1
 10
1.074022494953602
 20
-25.45070975556823
 30
0.0
  0
VERTEX
  5
19D
  8
LAYER_1
 10
1.075511324153401
 20
-25.46973901432967
 30
0.0
  0
VERTEX
  5
19E
  8
LAYER_1
 10
1.077310399719402
 20
-25.48868198862551
 30
0.0
  0
VERTEX
  5
19F
  8
LAYER_1
 10
1.079448052683751
 20
-25.50751316881243
 30
0.0
  0
VERTEX
  5
1A0
  8
LAYER_1
 10
1.081952614078595
 20
-25.52620704524711
 30
0.0
  0
VERTEX
  5
1A1
  8
LAYER_1
 10
1.084852414936081
 20
-25.54473810828622
 30
0.0
  0
VERTEX
  5
1A2
  8
LAYER_1
 10
1.088175786288356
 20
-25.56308084828644
 30
0.0
  0
VERTEX
  5
1A3
  8
LAYER_1
 10
1.091951059167567
 20
-25.58120975560446
 30
0.0
  0
VERTEX
  5
1A4
  8
LAYER_1
 10
1.09620656460586
 20
-25.59909932059694
 30
0.0
  0
VERTEX
  5
1A5
  8
LAYER_1
 10
1.100970633635383
 20
-25.61672403362057
 30
0.0
  0
VERTEX
  5
1A6
  8
LAYER_1
 10
1.106271597288282
 20
-25.63405838503203
 30
0.0
  0
VERTEX
  5
1A7
  8
LAYER_1
 10
1.112137786596703
 20
-25.65107686518799
 30
0.0
  0
VERTEX
  5
1A8
  8
LAYER_1
 10
1.118597532592795
 20
-25.66775396444513
 30
0.0
  0
VERTEX
  5
1A9
  8
LAYER_1
 10
1.125679166308704
 20
-25.68406417316012
 30
0.0
  0
VERTEX
  5
1AA
  8
LAYER_1
 10
1.133411018776577
 20
-25.69998198168966
 30
0.0
  0
VERTEX
  5
1AB
  8
LAYER_1
 10
1.14182142102856
 20
-25.71548188039041
 30
0.0
  0
VERTEX
  5
1AC
  8
LAYER_1
 10
1.1509387040968
 20
-25.73053835961905
 30
0.0
  0
VERTEX
  5
1AD
  8
LAYER_1
 10
1.160791199013445
 20
-25.74512590973227
 30
0.0
  0
VERTEX
  5
1AE
  8
LAYER_1
 10
1.17140723681064
 20
-25.75921902108674
 30
0.0
  0
VERTEX
  5
1AF
  8
LAYER_1
 10
1.182815148520534
 20
-25.77279218403913
 30
0.0
  0
VERTEX
  5
1B0
  8
LAYER_1
 10
1.195043265175272
 20
-25.78581988894613
 30
0.0
  0
VERTEX
  5
1B1
  8
LAYER_1
 10
9.19504326541854
 20
-33.84831988897465
 30
0.0
  0
VERTEX
  5
1B2
  8
LAYER_1
 10
9.202317773901491
 20
-33.84831988897465
 30
0.0
  0
VERTEX
  5
1B3
  8
LAYER_1
 10
68.34922274556158
 20
-33.84831988897465
 30
0.0
  0
VERTEX
  5
1B4
  8
LAYER_1
 10
68.38254326541826
 20
-33.84831988897465
 30
0.0
  0
VERTEX
  5
1B5
  8
LAYER_1
 10
70.88254326541826
 20
-29.72331988897465
 30
0.0
  0
VERTEX
  5
1B6
  8
LAYER_1
 10
70.88254326541826
 20
-29.67648227497863
 30
0.0
  0
VERTEX
  5
1B7
  8
LAYER_1
 10
70.88254326541826
 20
-1.848319888974654
 30
0.0
  0
VERTEX
  5
1B8
  8
LAYER_1
 10
33.14483345176078
 20
-1.848319888974654
 30
0.0
  0
VERTEX
  5
1B9
  8
LAYER_1
 10
33.1194138468251
 20
-1.848625366365108
 30
0.0
  0
VERTEX
  5
1BA
  8
LAYER_1
 10
33.09387588185393
 20
-1.84953693532666
 30
0.0
  0
VERTEX
  5
1BB
  8
LAYER_1
 10
33.06823253395848
 20
-1.851047301044592
 30
0.0
  0
VERTEX
  5
1BC
  8
LAYER_1
 10
33.04249678024996
 20
-1.853149168704192
 30
0.0
  0
VERTEX
  5
1BD
  8
LAYER_1
 10
33.01668159783957
 20
-1.85583524349074
 30
0.0
  0
VERTEX
  5
1BE
  8
LAYER_1
 10
32.9907999638385
 20
-1.859098230589523
 30
0.0
  0
VERTEX
  5
1BF
  8
LAYER_1
 10
32.96486485535796
 20
-1.862930835185824
 30
0.0
  0
VERTEX
  5
1C0
  8
LAYER_1
 10
32.93888924950915
 20
-1.867325762464928
 30
0.0
  0
VERTEX
  5
1C1
  8
LAYER_1
 10
32.91288612340327
 20
-1.872275717612119
 30
0.0
  0
VERTEX
  5
1C2
  8
LAYER_1
 10
32.88686845415152
 20
-1.877773405812679
 30
0.0
  0
VERTEX
  5
1C3
  8
LAYER_1
 10
32.8608492188651
 20
-1.883811532251895
 30
0.0
  0
VERTEX
  5
1C4
  8
LAYER_1
 10
32.8348413946552
 20
-1.89038280211505
 30
0.0
  0
VERTEX
  5
1C5
  8
LAYER_1
 10
32.80885795863303
 20
-1.897479920587428
 30
0.0
  0
VERTEX
  5
1C6
  8
LAYER_1
 10
32.7829118879098
 20
-1.905095592854313
 30
0.0
  0
VERTEX
  5
1C7
  8
LAYER_1
 10
32.7570161595967
 20
-1.91322252410099
 30
0.0
  0
VERTEX
  5
1C8
  8
LAYER_1
 10
32.73118375080493
 20
-1.921853419512742
 30
0.0
  0
VERTEX
  5
1C9
  8
LAYER_1
 10
32.70542763864569
 20
-1.930980984274854
 30
0.0
  0
VERTEX
  5
1CA
  8
LAYER_1
 10
32.67976080023018
 20
-1.94059792357261
 30
0.0
  0
VERTEX
  5
1CB
  8
LAYER_1
 10
32.65419621266962
 20
-1.950696942591295
 30
0.0
  0
VERTEX
  5
1CC
  8
LAYER_1
 10
32.62874685307519
 20
-1.961270746516191
 30
0.0
  0
VERTEX
  5
1CD
  8
LAYER_1
 10
32.60342569855808
 20
-1.972312040532584
 30
0.0
  0
VERTEX
  5
1CE
  8
LAYER_1
 10
32.57824572622953
 20
-1.983813529825758
 30
0.0
  0
VERTEX
  5
1CF
  8
LAYER_1
 10
32.5532199132007
 20
-1.995767919580996
 30
0.0
  0
VERTEX
  5
1D0
  8
LAYER_1
 10
32.52836123658281
 20
-2.008167914983583
 30
0.0
  0
VERTEX
  5
1D1
  8
LAYER_1
 10
32.50368267348706
 20
-2.021006221218803
 30
0.0
  0
VERTEX
  5
1D2
  8
LAYER_1
 10
32.47919720102465
 20
-2.03427554347194
 30
0.0
  0
VERTEX
  5
1D3
  8
LAYER_1
 10
32.45491779630677
 20
-2.047968586928279
 30
0.0
  0
VERTEX
  5
1D4
  8
LAYER_1
 10
32.43085743644464
 20
-2.062078056773103
 30
0.0
  0
VERTEX
  5
1D5
  8
LAYER_1
 10
32.40702909854944
 20
-2.076596658191696
 30
0.0
  0
VERTEX
  5
1D6
  8
LAYER_1
 10
32.38344575973238
 20
-2.091517096369344
 30
0.0
  0
VERTEX
  5
1D7
  8
LAYER_1
 10
32.36012039710467
 20
-2.106832076491329
 30
0.0
  0
VERTEX
  5
1D8
  8
LAYER_1
 10
32.33706598777751
 20
-2.122534303742937
 30
0.0
  0
VERTEX
  5
1D9
  8
LAYER_1
 10
32.31429550886208
 20
-2.138616483309451
 30
0.0
  0
VERTEX
  5
1DA
  8
LAYER_1
 10
32.29182193746959
 20
-2.155071320376154
 30
0.0
  0
VERTEX
  5
1DB
  8
LAYER_1
 10
32.26965825071125
 20
-2.171891520128333
 30
0.0
  0
VERTEX
  5
1DC
  8
LAYER_1
 10
32.24781742569826
 20
-2.18906978775127
 30
0.0
  0
VERTEX
  5
1DD
  8
LAYER_1
 10
32.2263124395418
 20
-2.206598828430251
 30
0.0
  0
VERTEX
  5
1DE
  8
LAYER_1
 10
32.2051562693531
 20
-2.224471347350558
 30
0.0
  0
VERTEX
  5
1DF
  8
LAYER_1
 10
32.18436189224333
 20
-2.242680049697477
 30
0.0
  0
VERTEX
  5
1E0
  8
LAYER_1
 10
32.16394228532371
 20
-2.261217640656291
 30
0.0
  0
VERTEX
  5
1E1
  8
LAYER_1
 10
32.14391042570544
 20
-2.280076825412284
 30
0.0
  0
VERTEX
  5
1E2
  8
LAYER_1
 10
32.12427929049973
 20
-2.299250309150741
 30
0.0
  0
VERTEX
  5
1E3
  8
LAYER_1
 10
32.10506185681776
 20
-2.318730797056946
 30
0.0
  0
VERTEX
  5
1E4
  8
LAYER_1
 10
32.08627110177073
 20
-2.338510994316182
 30
0.0
  0
VERTEX
  5
1E5
  8
LAYER_1
 10
32.06792000246986
 20
-2.358583606113735
 30
0.0
  0
VERTEX
  5
1E6
  8
LAYER_1
 10
32.05002153602634
 20
-2.378941337634888
 30
0.0
  0
VERTEX
  5
1E7
  8
LAYER_1
 10
32.03258867955136
 20
-2.399576894064925
 30
0.0
  0
VERTEX
  5
1E8
  8
LAYER_1
 10
32.01563441015614
 20
-2.420482980589131
 30
0.0
  0
VERTEX
  5
1E9
  8
LAYER_1
 10
31.99917170495187
 20
-2.44165230239279
 30
0.0
  0
VERTEX
  5
1EA
  8
LAYER_1
 10
31.98321354104975
 20
-2.463077564661186
 30
0.0
  0
VERTEX
  5
1EB
  8
LAYER_1
 10
31.96777289556099
 20
-2.484751472579603
 30
0.0
  0
VERTEX
  5
1EC
  8
LAYER_1
 10
31.95286274559678
 20
-2.506666731333325
 30
0.0
  0
VERTEX
  5
1ED
  8
LAYER_1
 10
31.93849606826832
 20
-2.528816046107636
 30
0.0
  0
VERTEX
  5
1EE
  8
LAYER_1
 10
31.92468584068682
 20
-2.55119212208782
 30
0.0
  0
VERTEX
  5
1EF
  8
LAYER_1
 10
31.91144503996347
 20
-2.573787664459162
 30
0.0
  0
VERTEX
  5
1F0
  8
LAYER_1
 10
31.89878664320948
 20
-2.596595378406946
 30
0.0
  0
VERTEX
  5
1F1
  8
LAYER_1
 10
31.88672362753605
 20
-2.619607969116457
 30
0.0
  0
VERTEX
  5
1F2
  8
LAYER_1
 10
31.87526897005437
 20
-2.642818141772977
 30
0.0
  0
VERTEX
  5
1F3
  8
LAYER_1
 10
31.86443564787565
 20
-2.666218601561791
 30
0.0
  0
VERTEX
  5
1F4
  8
LAYER_1
 10
31.85423663811109
 20
-2.689802053668184
 30
0.0
  0
VERTEX
  5
1F5
  8
LAYER_1
 10
31.84468491787189
 20
-2.713561203277439
 30
0.0
  0
VERTEX
  5
1F6
  8
LAYER_1
 10
31.83579346426924
 20
-2.737488755574841
 30
0.0
  0
VERTEX
  5
1F7
  8
LAYER_1
 10
31.82757525441436
 20
-2.761577415745674
 30
0.0
  0
VERTEX
  5
1F8
  8
LAYER_1
 10
31.82004326541844
 20
-2.785819888975222
 30
0.0
  0
VERTEX
  5
1F9
  8
LAYER_1
 10
31.00754326550888
 20
-5.535819889042131
 30
0.0
  0
VERTEX
  5
1FA
  8
LAYER_1
 10
30.99844278394351
 20
-5.564973205174747
 30
0.0
  0
VERTEX
  5
1FB
  8
LAYER_1
 10
30.98844374520624
 20
-5.593911800342333
 30
0.0
  0
VERTEX
  5
1FC
  8
LAYER_1
 10
30.97756870973397
 20
-5.62262027040823
 30
0.0
  0
VERTEX
  5
1FD
  8
LAYER_1
 10
30.96584023796358
 20
-5.651083211235779
 30
0.0
  0
VERTEX
  5
1FE
  8
LAYER_1
 10
30.95328089033197
 20
-5.679285218688324
 30
0.0
  0
VERTEX
  5
1FF
  8
LAYER_1
 10
30.93991322727607
 20
-5.707210888629204
 30
0.0
  0
VERTEX
  5
200
  8
LAYER_1
 10
30.92575980923274
 20
-5.734844816921762
 30
0.0
  0
VERTEX
  5
201
  8
LAYER_1
 10
30.91084319663889
 20
-5.76217159942934
 30
0.0
  0
VERTEX
  5
202
  8
LAYER_1
 10
30.89518594993142
 20
-5.78917583201528
 30
0.0
  0
VERTEX
  5
203
  8
LAYER_1
 10
30.87881062954725
 20
-5.815842110542924
 30
0.0
  0
VERTEX
  5
204
  8
LAYER_1
 10
30.86173979592325
 20
-5.842155030875611
 30
0.0
  0
VERTEX
  5
205
  8
LAYER_1
 10
30.84399600949632
 20
-5.868099188876688
 30
0.0
  0
VERTEX
  5
206
  8
LAYER_1
 10
30.82560183070338
 20
-5.893659180409491
 30
0.0
  0
VERTEX
  5
207
  8
LAYER_1
 10
30.8065798199813
 20
-5.918819601337366
 30
0.0
  0
VERTEX
  5
208
  8
LAYER_1
 10
30.786952537767
 20
-5.943565047523652
 30
0.0
  0
VERTEX
  5
209
  8
LAYER_1
 10
30.76674254449737
 20
-5.967880114831692
 30
0.0
  0
VERTEX
  5
20A
  8
LAYER_1
 10
30.74597240060931
 20
-5.991749399124828
 30
0.0
  0
VERTEX
  5
20B
  8
LAYER_1
 10
30.72466466653972
 20
-6.015157496266401
 30
0.0
  0
VERTEX
  5
20C
  8
LAYER_1
 10
30.7028419027255
 20
-6.038089002119753
 30
0.0
  0
VERTEX
  5
20D
  8
LAYER_1
 10
30.68052666960353
 20
-6.060528512548226
 30
0.0
  0
VERTEX
  5
20E
  8
LAYER_1
 10
30.65774152761074
 20
-6.082460623415162
 30
0.0
  0
VERTEX
  5
20F
  8
LAYER_1
 10
30.634509037184
 20
-6.103869930583903
 30
0.0
  0
VERTEX
  5
210
  8
LAYER_1
 10
30.61085175876022
 20
-6.124741029917789
 30
0.0
  0
VERTEX
  5
211
  8
LAYER_1
 10
30.58679225277631
 20
-6.145058517280163
 30
0.0
  0
VERTEX
  5
212
  8
LAYER_1
 10
30.56235307966914
 20
-6.164806988534366
 30
0.0
  0
VERTEX
  5
213
  8
LAYER_1
 10
30.53755679987564
 20
-6.183971039543742
 30
0.0
  0
VERTEX
  5
214
  8
LAYER_1
 10
30.51242597383268
 20
-6.202535266171632
 30
0.0
  0
VERTEX
  5
215
  8
LAYER_1
 10
30.48698316197719
 20
-6.220484264281374
 30
0.0
  0
VERTEX
  5
216
  8
LAYER_1
 10
30.46125092474603
 20
-6.237802629736315
 30
0.0
  0
VERTEX
  5
217
  8
LAYER_1
 10
30.43525182257613
 20
-6.254474958399793
 30
0.0
  0
VERTEX
  5
218
  8
LAYER_1
 10
30.40900841590438
 20
-6.270485846135152
 30
0.0
  0
VERTEX
  5
219
  8
LAYER_1
 10
30.38254326516767
 20
-6.285819888805733
 30
0.0
  0
VERTEX
  5
21A
  8
LAYER_1
 10
16.75754326550189
 20
-13.97331988900518
 30
0.0
  0
VERTEX
  5
21B
  8
LAYER_1
 10
16.72872171165607
 20
-13.9888887458874
 30
0.0
  0
VERTEX
  5
21C
  8
LAYER_1
 10
16.69929768826572
 20
-14.00342864733729
 30
0.0
  0
VERTEX
  5
21D
  8
LAYER_1
 10
16.66929661675094
 20
-14.01695046526613
 30
0.0
  0
VERTEX
  5
21E
  8
LAYER_1
 10
16.63874391853187
 20
-14.02946507158519
 30
0.0
  0
VERTEX
  5
21F
  8
LAYER_1
 10
16.60766501502861
 20
-14.04098333820573
 30
0.0
  0
VERTEX
  5
220
  8
LAYER_1
 10
16.57608532766128
 20
-14.05151613703901
 30
0.0
  0
VERTEX
  5
221
  8
LAYER_1
 10
16.54403027785001
 20
-14.06107433999632
 30
0.0
  0
VERTEX
  5
222
  8
LAYER_1
 10
16.5115252870149
 20
-14.0696688189889
 30
0.0
  0
VERTEX
  5
223
  8
LAYER_1
 10
16.47859577657609
 20
-14.07731044592804
 30
0.0
  0
VERTEX
  5
224
  8
LAYER_1
 10
16.44526716795367
 20
-14.08401009272499
 30
0.0
  0
VERTEX
  5
225
  8
LAYER_1
 10
16.41156488256778
 20
-14.08977863129104
 30
0.0
  0
VERTEX
  5
226
  8
LAYER_1
 10
16.37751434183853
 20
-14.09462693353744
 30
0.0
  0
VERTEX
  5
227
  8
LAYER_1
 10
16.34314096718604
 20
-14.09856587137546
 30
0.0
  0
VERTEX
  5
228
  8
LAYER_1
 10
16.30847018003043
 20
-14.10160631671636
 30
0.0
  0
VERTEX
  5
229
  8
LAYER_1
 10
16.27352740179181
 20
-14.10375914147143
 30
0.0
  0
VERTEX
  5
22A
  8
LAYER_1
 10
16.2383380538903
 20
-14.10503521755192
 30
0.0
  0
VERTEX
  5
22B
  8
LAYER_1
 10
16.20292755774602
 20
-14.1054454168691
 30
0.0
  0
VERTEX
  5
22C
  8
LAYER_1
 10
16.16732133477909
 20
-14.10500061133425
 30
0.0
  0
VERTEX
  5
22D
  8
LAYER_1
 10
16.13154480640962
 20
-14.10371167285862
 30
0.0
  0
VERTEX
  5
22E
  8
LAYER_1
 10
16.09562339405774
 20
-14.10158947335349
 30
0.0
  0
VERTEX
  5
22F
  8
LAYER_1
 10
16.05958251914356
 20
-14.09864488473011
 30
0.0
  0
VERTEX
  5
230
  8
LAYER_1
 10
16.0234476030872
 20
-14.09488877889977
 30
0.0
  0
VERTEX
  5
231
  8
LAYER_1
 10
15.98724406730878
 20
-14.09033202777373
 30
0.0
  0
VERTEX
  5
232
  8
LAYER_1
 10
15.95099733322841
 20
-14.08498550326325
 30
0.0
  0
VERTEX
  5
233
  8
LAYER_1
 10
15.91473282226621
 20
-14.07886007727961
 30
0.0
  0
VERTEX
  5
234
  8
LAYER_1
 10
15.87847595584231
 20
-14.07196662173406
 30
0.0
  0
VERTEX
  5
235
  8
LAYER_1
 10
15.84225215537681
 20
-14.06431600853788
 30
0.0
  0
VERTEX
  5
236
  8
LAYER_1
 10
15.80608684228984
 20
-14.05591910960234
 30
0.0
  0
VERTEX
  5
237
  8
LAYER_1
 10
15.77000543800152
 20
-14.0467867968387
 30
0.0
  0
VERTEX
  5
238
  8
LAYER_1
 10
15.73403336393195
 20
-14.03692994215824
 30
0.0
  0
VERTEX
  5
239
  8
LAYER_1
 10
15.69819604150127
 20
-14.02635941747221
 30
0.0
  0
VERTEX
  5
23A
  8
LAYER_1
 10
15.66251889212958
 20
-14.01508609469189
 30
0.0
  0
VERTEX
  5
23B
  8
LAYER_1
 10
15.62702733723701
 20
-14.00312084572854
 30
0.0
  0
VERTEX
  5
23C
  8
LAYER_1
 10
15.59174679824368
 20
-13.99047454249343
 30
0.0
  0
VERTEX
  5
23D
  8
LAYER_1
 10
15.55670269656969
 20
-13.97715805689784
 30
0.0
  0
VERTEX
  5
23E
  8
LAYER_1
 10
15.52192045363517
 20
-13.96318226085301
 30
0.0
  0
VERTEX
  5
23F
  8
LAYER_1
 10
15.48742549086024
 20
-13.94855802627024
 30
0.0
  0
VERTEX
  5
240
  8
LAYER_1
 10
15.45324322966502
 20
-13.93329622506077
 30
0.0
  0
VERTEX
  5
241
  8
LAYER_1
 10
15.41939909146962
 20
-13.91740772913588
 30
0.0
  0
VERTEX
  5
242
  8
LAYER_1
 10
15.38591849769416
 20
-13.90090341040685
 30
0.0
  0
VERTEX
  5
243
  8
LAYER_1
 10
15.35282686975876
 20
-13.88379414078492
 30
0.0
  0
VERTEX
  5
244
  8
LAYER_1
 10
15.32014962908353
 20
-13.86609079218138
 30
0.0
  0
VERTEX
  5
245
  8
LAYER_1
 10
15.2879121970886
 20
-13.84780423650749
 30
0.0
  0
VERTEX
  5
246
  8
LAYER_1
 10
15.25613999519408
 20
-13.82894534567451
 30
0.0
  0
VERTEX
  5
247
  8
LAYER_1
 10
15.22485844482009
 20
-13.80952499159372
 30
0.0
  0
VERTEX
  5
248
  8
LAYER_1
 10
15.19409296738674
 20
-13.78955404617638
 30
0.0
  0
VERTEX
  5
249
  8
LAYER_1
 10
15.16386898431417
 20
-13.76904338133376
 30
0.0
  0
VERTEX
  5
24A
  8
LAYER_1
 10
15.13421191702247
 20
-13.74800386897713
 30
0.0
  0
VERTEX
  5
24B
  8
LAYER_1
 10
15.10514718693178
 20
-13.72644638101775
 30
0.0
  0
VERTEX
  5
24C
  8
LAYER_1
 10
15.07670021546221
 20
-13.7043817893669
 30
0.0
  0
VERTEX
  5
24D
  8
LAYER_1
 10
15.04889642403387
 20
-13.68182096593583
 30
0.0
  0
VERTEX
  5
24E
  8
LAYER_1
 10
15.02176123406689
 20
-13.65877478263583
 30
0.0
  0
VERTEX
  5
24F
  8
LAYER_1
 10
14.99532006698138
 20
-13.63525411137815
 30
0.0
  0
VERTEX
  5
250
  8
LAYER_1
 10
14.96959834419746
 20
-13.61126982407406
 30
0.0
  0
VERTEX
  5
251
  8
LAYER_1
 10
14.94462148713525
 20
-13.58683279263484
 30
0.0
  0
VERTEX
  5
252
  8
LAYER_1
 10
14.92041491721487
 20
-13.56195388897174
 30
0.0
  0
VERTEX
  5
253
  8
LAYER_1
 10
14.89700405585643
 20
-13.53664398499603
 30
0.0
  0
VERTEX
  5
254
  8
LAYER_1
 10
14.87441432448005
 20
-13.510913952619
 30
0.0
  0
VERTEX
  5
255
  8
LAYER_1
 10
14.85267114450585
 20
-13.48477466375189
 30
0.0
  0
VERTEX
  5
256
  8
LAYER_1
 10
14.83179993735395
 20
-13.45823699030598
 30
0.0
  0
VERTEX
  5
257
  8
LAYER_1
 10
14.81182612444446
 20
-13.43131180419254
 30
0.0
  0
VERTEX
  5
258
  8
LAYER_1
 10
14.79277512719751
 20
-13.40400997732283
 30
0.0
  0
VERTEX
  5
259
  8
LAYER_1
 10
14.77467236703321
 20
-13.37634238160812
 30
0.0
  0
SEQEND
  5
829
  8
LAYER_1
  0
POLYLINE
  5
71
  8
LAYER_1
 66
     1
 10
0.0
 20
0.0
 30
0.0
 70
     1
  0
VERTEX
  5
25A
  8
LAYER_1
 10
58.38362023618529
 20
-33.03581988897465
 30
0.0
  0
VERTEX
  5
25B
  8
LAYER_1
 10
66.88254326541826
 20
-33.03581988897465
 30
0.0
  0
VERTEX
  5
25C
  8
LAYER_1
 10
66.98254326541826
 20
-33.03581988897465
 30
0.0
  0
VERTEX
  5
25D
  8
LAYER_1
 10
67.82089639877537
 20
-33.03581988897465
 30
0.0
  0
VERTEX
  5
25E
  8
LAYER_1
 10
67.82096628460829
 20
-33.03553237606598
 30
0.0
  0
VERTEX
  5
25F
  8
LAYER_1
 10
67.82096416047281
 20
-33.02481786742819
 30
0.0
  0
VERTEX
  5
260
  8
LAYER_1
 10
67.82004326541826
 20
-28.37966310420985
 30
0.0
  0
VERTEX
  5
261
  8
LAYER_1
 10
67.82001050810823
 20
-28.37961988897465
 30
0.0
  0
VERTEX
  5
262
  8
LAYER_1
 10
67.25754326541826
 20
-28.37961988897465
 30
0.0
 42
-0.4142135623730951
  0
VERTEX
  5
263
  8
LAYER_1
 10
67.07004326541826
 20
-28.19211988897465
 30
0.0
 42
-0.4142135623730951
  0
VERTEX
  5
264
  8
LAYER_1
 10
67.25754326541826
 20
-28.00461988897465
 30
0.0
  0
VERTEX
  5
265
  8
LAYER_1
 10
70.00742292519027
 20
-28.00461988897465
 30
0.0
  0
VERTEX
  5
266
  8
LAYER_1
 10
70.00754326541826
 20
-28.00459957516122
 30
0.0
  0
VERTEX
  5
267
  8
LAYER_1
 10
70.00754326541826
 20
-2.785819888974654
 30
0.0
 42
-0.4142135623730951
  0
VERTEX
  5
268
  8
LAYER_1
 10
70.19504326541826
 20
-2.598319888974654
 30
0.0
 42
-0.4142135623730951
  0
VERTEX
  5
269
  8
LAYER_1
 10
70.38254326541826
 20
-2.785819888974654
 30
0.0
  0
VERTEX
  5
26A
  8
LAYER_1
 10
70.38254326541826
 20
-28.37959832204884
 30
0.0
  0
VERTEX
  5
26B
  8
LAYER_1
 10
70.38245816366685
 20
-28.37961988897465
 30
0.0
  0
VERTEX
  5
26C
  8
LAYER_1
 10
68.19509506600511
 20
-28.37961988897465
 30
0.0
  0
VERTEX
  5
26D
  8
LAYER_1
 10
68.19504326541826
 20
-28.37968148832427
 30
0.0
  0
VERTEX
  5
26E
  8
LAYER_1
 10
68.19585016596992
 20
-33.41080223860126
 30
0.0
  0
VERTEX
  5
26F
  8
LAYER_1
 10
68.19578642873418
 20
-33.41081988897465
 30
0.0
  0
VERTEX
  5
270
  8
LAYER_1
 10
66.88254326541826
 20
-33.41081988897465
 30
0.0
  0
VERTEX
  5
271
  8
LAYER_1
 10
47.82004326541826
 20
-33.41081988897465
 30
0.0
 42
-0.4142135623730951
  0
VERTEX
  5
272
  8
LAYER_1
 10
47.63254326541826
 20
-33.22331988897465
 30
0.0
 42
-0.4142135623730951
  0
VERTEX
  5
273
  8
LAYER_1
 10
47.82004326541826
 20
-33.03581988897465
 30
0.0
  0
VERTEX
  5
274
  8
LAYER_1
 10
58.00743581031545
 20
-33.03581988897465
 30
0.0
  0
VERTEX
  5
275
  8
LAYER_1
 10
58.00754326541826
 20
-33.03332371915716
 30
0.0
  0
VERTEX
  5
276
  8
LAYER_1
 10
58.00754326541826
 20
-2.914823756970033
 30
0.0
  0
VERTEX
  5
277
  8
LAYER_1
 10
58.00456688984907
 20
-2.910819888974654
 30
0.0
  0
VERTEX
  5
278
  8
LAYER_1
 10
55.82004326541826
 20
-2.910819888974654
 30
0.0
 42
-0.4142135623730951
  0
VERTEX
  5
279
  8
LAYER_1
 10
55.63254326541826
 20
-2.723319888974654
 30
0.0
 42
-0.4142135623730951
  0
VERTEX
  5
27A
  8
LAYER_1
 10
55.82004326541826
 20
-2.535819888974654
 30
0.0
  0
VERTEX
  5
27B
  8
LAYER_1
 10
58.78254326541826
 20
-2.535819888974654
 30
0.0
  0
VERTEX
  5
27C
  8
LAYER_1
 10
58.88254326541826
 20
-2.535819888974654
 30
0.0
 42
-0.4142135623730951
  0
VERTEX
  5
27D
  8
LAYER_1
 10
59.07004326541826
 20
-2.723319888974654
 30
0.0
 42
-0.4142135623730951
  0
VERTEX
  5
27E
  8
LAYER_1
 10
58.88254326541826
 20
-2.910819888974654
 30
0.0
  0
VERTEX
  5
27F
  8
LAYER_1
 10
58.3835081180826
 20
-2.910819888974654
 30
0.0
  0
VERTEX
  5
280
  8
LAYER_1
 10
58.38254326541826
 20
-2.912706174601905
 30
0.0
  0
VERTEX
  5
281
  8
LAYER_1
 10
58.38254326541826
 20
-33.03332371915716
 30
0.0
  0
SEQEND
  5
82A
  8
LAYER_1
  0
POLYLINE
  5
72
  8
LAYER_1
 66
     1
 10
0.0
 20
0.0
 30
0.0
 70
     1
  0
VERTEX
  5
282
  8
LAYER_1
 10
33.56949472982554
 20
-2.90819275517779
 30
0.0
  0
VERTEX
  5
283
  8
LAYER_1
 10
36.09504326541826
 20
-2.910819888974654
 30
0.0
  0
VERTEX
  5
284
  8
LAYER_1
 10
36.19504326541826
 20
-2.910819888974654
 30
0.0
 42
0.4142135623730951
  0
VERTEX
  5
285
  8
LAYER_1
 10
36.38254326541826
 20
-2.723319888974654
 30
0.0
 42
0.4142135623730951
  0
VERTEX
  5
286
  8
LAYER_1
 10
36.19504326541826
 20
-2.535819888974654
 30
0.0
  0
VERTEX
  5
287
  8
LAYER_1
 10
33.44504326541826
 20
-2.535819888974654
 30
0.0
 42
0.4142135623730951
  0
VERTEX
  5
288
  8
LAYER_1
 10
33.25754326541826
 20
-2.723319888974654
 30
0.0
 42
0.4142135623730951
  0
VERTEX
  5
289
  8
LAYER_1
 10
33.44504326541826
 20
-2.910819888974654
 30
0.0
  0
SEQEND
  5
82B
  8
LAYER_1
  0
POLYLINE
  5
73
  8
LAYER_1
 66
     1
 10
0.0
 20
0.0
 30
0.0
 70
     1
  0
VERTEX
  5
28A
  8
LAYER_1
 10
33.67903508982697
 20
-11.22190364363689
 30
0.0
 42
0.2160601912527399
  0
VERTEX
  5
28B
  8
LAYER_1
 10
33.82004326541826
 20
-11.28581988897466
 30
0.0
 42
0.4142135623730951
  0
VERTEX
  5
28C
  8
LAYER_1
 10
34.00754326541826
 20
-11.09831988897466
 30
0.0
 42
0.1867149458714474
  0
VERTEX
  5
28D
  8
LAYER_1
 10
33.95871355487147
 20
-10.97211845941474
 30
0.0
  0
VERTEX
  5
28E
  8
LAYER_1
 10
32.46727688557305
 20
-8.357222898935646
 30
0.0
 42
0.2296893446243965
  0
VERTEX
  5
28F
  8
LAYER_1
 10
32.32004326541826
 20
-8.285819888974657
 30
0.0
 42
0.4142135623730951
  0
VERTEX
  5
290
  8
LAYER_1
 10
32.13254326541826
 20
-8.473319888974657
 30
0.0
 42
0.1917017303095512
  0
VERTEX
  5
291
  8
LAYER_1
 10
32.18382888550103
 20
-8.60216822114765
 30
0.0
  0
SEQEND
  5
82C
  8
LAYER_1
  0
POLYLINE
  5
74
  8
LAYER_1
 66
     1
 10
0.0
 20
0.0
 30
0.0
 70
     1
  0
VERTEX
  5
292
  8
LAYER_1
 10
34.34193510000532
 20
-12.07825425896789
 30
0.0
  0
VERTEX
  5
293
  8
LAYER_1
 10
15.66852118834037
 20
-22.57037661461462
 30
0.0
 42
-0.1391295368564364
  0
VERTEX
  5
294
  8
LAYER_1
 10
15.57004326541826
 20
-22.59831988897465
 30
0.0
 42
-0.4142135623730951
  0
VERTEX
  5
295
  8
LAYER_1
 10
15.38254326541826
 20
-22.41081988897465
 30
0.0
 42
-0.2490963593714569
  0
VERTEX
  5
296
  8
LAYER_1
 10
15.46505902728196
 20
-22.25546687245119
 30
0.0
  0
VERTEX
  5
297
  8
LAYER_1
 10
34.15944860959613
 20
-11.75102724678129
 30
0.0
 42
-0.1385178975520576
  0
VERTEX
  5
298
  8
LAYER_1
 10
34.25754326541826
 20
-11.72331988897466
 30
0.0
 42
-0.4142135623730951
  0
VERTEX
  5
299
  8
LAYER_1
 10
34.44504326541826
 20
-11.91081988897466
 30
0.0
 42
-0.2832097450102494
  0
SEQEND
  5
82D
  8
LAYER_1
  0
POLYLINE
  5
75
  8
LAYER_1
 66
     1
 10
0.0
 20
0.0
 30
0.0
 70
     1
  0
VERTEX
  5
29A
  8
LAYER_1
 10
8.648864480562949
 20
-9.183323626705118
 30
0.0
  0
VERTEX
  5
29B
  8
LAYER_1
 10
14.04233590761163
 20
-18.68772523315252
 30
0.0
 42
-0.1385178975523244
  0
VERTEX
  5
29C
  8
LAYER_1
 10
14.07004326541826
 20
-18.78581988897466
 30
0.0
 42
-0.4142135623730951
  0
VERTEX
  5
29D
  8
LAYER_1
 10
13.88254326541826
 20
-18.97331988897466
 30
0.0
 42
-0.2797733994923233
  0
VERTEX
  5
29E
  8
LAYER_1
 10
13.71619727637593
 20
-18.87233729722021
 30
0.0
  0
VERTEX
  5
29F
  8
LAYER_1
 10
7.415877544687703
 20
-7.767539992758458
 30
0.0
 42
-0.1525421150447755
  0
VERTEX
  5
2A0
  8
LAYER_1
 10
7.382543265418263
 20
-7.660819888974657
 30
0.0
 42
-0.4142135623730951
  0
VERTEX
  5
2A1
  8
LAYER_1
 10
7.570043265418263
 20
-7.473319888974657
 30
0.0
 42
-0.2478127176096709
  0
VERTEX
  5
2A2
  8
LAYER_1
 10
7.724886759365944
 20
-7.555085588097057
 30
0.0
  0
VERTEX
  5
2A3
  8
LAYER_1
 10
8.198305200646253
 20
-8.389313066640426
 30
0.0
  0
VERTEX
  5
2A4
  8
LAYER_1
 10
7.948061692294843
 20
-5.569328084657315
 30
0.0
 42
-0.044949128306829
  0
VERTEX
  5
2A5
  8
LAYER_1
 10
7.945043265418263
 20
-5.535819888974657
 30
0.0
 42
-0.4142135623730951
  0
VERTEX
  5
2A6
  8
LAYER_1
 10
8.132543265418263
 20
-5.348319888974657
 30
0.0
 42
-0.3765424069803357
  0
VERTEX
  5
2A7
  8
LAYER_1
 10
8.31845363987778
 20
-5.511456336928148
 30
0.0
  0
VERTEX
  5
2A8
  8
LAYER_1
 10
8.64883962920225
 20
-9.183271295719997
 30
0.0
  0
SEQEND
  5
82E
  8
LAYER_1
  0
POLYLINE
  5
76
  8
LAYER_1
 66
     1
 10
0.0
 20
0.0
 30
0.0
 70
     1
  0
VERTEX
  5
2A9
  8
LAYER_1
 10
2.695043265418263
 20
-23.37809456153924
 30
0.0
  0
VERTEX
  5
2AA
  8
LAYER_1
 10
2.695043265418263
 20
-7.660819888974657
 30
0.0
 42
0.4142135623730951
  0
VERTEX
  5
2AB
  8
LAYER_1
 10
2.507543265418263
 20
-7.473319888974657
 30
0.0
 42
0.4142135623730951
  0
VERTEX
  5
2AC
  8
LAYER_1
 10
2.320043265418263
 20
-7.660819888974657
 30
0.0
  0
VERTEX
  5
2AD
  8
LAYER_1
 10
2.320043265418263
 20
-24.66081988897465
 30
0.0
 42
0.4142135623730951
  0
VERTEX
  5
2AE
  8
LAYER_1
 10
2.507543265418263
 20
-24.84831988897465
 30
0.0
 42
0.4142135623730951
  0
VERTEX
  5
2AF
  8
LAYER_1
 10
2.695043265418263
 20
-24.66081988897465
 30
0.0
  0
VERTEX
  5
2B0
  8
LAYER_1
 10
2.695043265418263
 20
-23.92043850906862
 30
0.0
  0
VERTEX
  5
2B1
  8
LAYER_1
 10
2.695824848251476
 20
-23.91903331850989
 30
0.0
  0
VERTEX
  5
2B2
  8
LAYER_1
 10
11.72990906621267
 20
-33.14488463478903
 30
0.0
  0
VERTEX
  5
2B3
  8
LAYER_1
 10
11.84094713261882
 20
-33.2581618698919
 30
0.0
  0
VERTEX
  5
2B4
  8
LAYER_1
 10
12.5135874642184
 20
-33.94499390392155
 30
0.0
  0
VERTEX
  5
2B5
  8
LAYER_1
 10
13.00722376931392
 20
-33.91935249537016
 30
0.0
  0
VERTEX
  5
2B6
  8
LAYER_1
 10
12.51112257541261
 20
-33.41167171238683
 30
0.0
  0
VERTEX
  5
2B7
  8
LAYER_1
 10
12.51157794729536
 20
-33.41081988897465
 30
0.0
  0
VERTEX
  5
2B8
  8
LAYER_1
 10
17.57004326541826
 20
-33.41081988897465
 30
0.0
 42
0.4142135623730951
  0
VERTEX
  5
2B9
  8
LAYER_1
 10
17.75754326541826
 20
-33.22331988897465
 30
0.0
 42
0.4142135623730951
  0
VERTEX
  5
2BA
  8
LAYER_1
 10
17.57004326541826
 20
-33.03581988897465
 30
0.0
  0
VERTEX
  5
2BB
  8
LAYER_1
 10
12.1438794003317
 20
-33.03581988897465
 30
0.0
  0
VERTEX
  5
2BC
  8
LAYER_1
 10
12.1438334911204
 20
-33.03580966612093
 30
0.0
  0
VERTEX
  5
2BD
  8
LAYER_1
 10
12.09771243057059
 20
-32.98861208542611
 30
0.0
  0
VERTEX
  5
2BE
  8
LAYER_1
 10
12.01512578689074
 20
-32.90323736750218
 30
0.0
  0
VERTEX
  5
2BF
  8
LAYER_1
 10
2.696767888646306
 20
-23.38130591821875
 30
0.0
  0
SEQEND
  5
82F
  8
LAYER_1
  0
POLYLINE
  5
77
  8
LAYER_1
 66
     1
 10
0.0
 20
0.0
 30
0.0
 70
     1
  0
VERTEX
  5
2C0
  8
LAYER_1
 10
71.94488100668084
 20
-33.81999390392155
 30
0.0
  0
VERTEX
  5
2C1
  8
LAYER_1
 10
95.38238100668084
 20
-33.81999390392155
 30
0.0
  0
VERTEX
  5
2C2
  8
LAYER_1
 10
95.38238100668084
 20
-7.694993903921553
 30
0.0
  0
VERTEX
  5
2C3
  8
LAYER_1
 10
71.94488100668084
 20
-7.694993903921553
 30
0.0
  0
SEQEND
  5
830
  8
LAYER_1
  0
POLYLINE
  5
78
  8
LAYER_1
 66
     1
 10
0.0
 20
0.0
 30
0.0
 70
     1
  0
VERTEX
  5
2C4
  8
LAYER_1
 10
71.88238100668084
 20
-33.94499390392155
 30
0.0
  0
VERTEX
  5
2C5
  8
LAYER_1
 10
72.19488100668084
 20
-33.94499390392155
 30
0.0
  0
VERTEX
  5
2C6
  8
LAYER_1
 10
72.19488100668084
 20
-7.569993903921553
 30
0.0
  0
VERTEX
  5
2C7
  8
LAYER_1
 10
71.88238100668084
 20
-7.569993903921553
 30
0.0
  0
SEQEND
  5
831
  8
LAYER_1
  0
POLYLINE
  5
79
  8
LAYER_1
 66
     1
 10
0.0
 20
0.0
 30
0.0
 70
     1
  0
VERTEX
  5
2C8
  8
LAYER_1
 10
95.13238100668084
 20
-33.94499390392155
 30
0.0
  0
VERTEX
  5
2C9
  8
LAYER_1
 10
95.44488100668084
 20
-33.94499390392155
 30
0.0
  0
VERTEX
  5
2CA
  8
LAYER_1
 10
95.44488100668084
 20
-7.569993903921553
 30
0.0
  0
VERTEX
  5
2CB
  8
LAYER_1
 10
95.13238100668084
 20
-7.569993903921553
 30
0.0
  0
SEQEND
  5
832
  8
LAYER_1
  0
POLYLINE
  5
7A
  8
LAYER_1
 66
     1
 10
0.0
 20
0.0
 30
0.0
 70
     1
  0
VERTEX
  5
2CC
  8
LAYER_1
 10
73.56988100668084
 20
-31.50749390392155
 30
0.0
 42
0.4142135623730951
  0
VERTEX
  5
2CD
  8
LAYER_1
 10
73.38238100668084
 20
-31.69499390392155
 30
0.0
 42
0.4142135623730951
  0
VERTEX
  5
2CE
  8
LAYER_1
 10
73.56988100668084
 20
-31.88249390392155
 30
0.0
 42
0.4142135623730951
  0
VERTEX
  5
2CF
  8
LAYER_1
 10
73.75738100668084
 20
-31.69499390392155
 30
0.0
 42
0.4142135623730951
  0
SEQEND
  5
833
  8
LAYER_1
  0
POLYLINE
  5
7B
  8
LAYER_1
 66
     1
 10
0.0
 20
0.0
 30
0.0
 70
     1
  0
VERTEX
  5
2D0
  8
LAYER_1
 10
93.81988100668084
 20
-31.50749390392155
 30
0.0
 42
0.4142135623730951
  0
VERTEX
  5
2D1
  8
LAYER_1
 10
93.63238100668084
 20
-31.69499390392155
 30
0.0
 42
0.4142135623730951
  0
VERTEX
  5
2D2
  8
LAYER_1
 10
93.81988100668084
 20
-31.88249390392155
 30
0.0
 42
0.4142135623730951
  0
VERTEX
  5
2D3
  8
LAYER_1
 10
94.00738100668084
 20
-31.69499390392155
 30
0.0
 42
0.4142135623730951
  0
SEQEND
  5
834
  8
LAYER_1
  0
POLYLINE
  5
7C
  8
LAYER_1
 66
     1
 10
0.0
 20
0.0
 30
0.0
 70
     1
  0
VERTEX
  5
2D4
  8
LAYER_1
 10
71.88645113817742
 20
-5.997028969669824
 30
0.0
  0
VERTEX
  5
2D5
  8
LAYER_1
 10
95.32395113817739
 20
-5.997028969669824
 30
0.0
  0
VERTEX
  5
2D6
  8
LAYER_1
 10
95.32395113817739
 20
-0.9970289696698238
 30
0.0
  0
VERTEX
  5
2D7
  8
LAYER_1
 10
71.88645113817742
 20
-0.9970289696698238
 30
0.0
  0
SEQEND
  5
835
  8
LAYER_1
  0
POLYLINE
  5
7D
  8
LAYER_1
 66
     1
 10
0.0
 20
0.0
 30
0.0
 70
     1
  0
VERTEX
  5
2D8
  8
LAYER_1
 10
71.82395113817742
 20
-6.122028969669824
 30
0.0
  0
VERTEX
  5
2D9
  8
LAYER_1
 10
72.13645113817742
 20
-6.122028969669824
 30
0.0
  0
VERTEX
  5
2DA
  8
LAYER_1
 10
72.13645113817742
 20
-0.8720289696698238
 30
0.0
  0
VERTEX
  5
2DB
  8
LAYER_1
 10
71.82395113817742
 20
-0.8720289696698238
 30
0.0
  0
SEQEND
  5
836
  8
LAYER_1
  0
POLYLINE
  5
7E
  8
LAYER_1
 66
     1
 10
0.0
 20
0.0
 30
0.0
 70
     1
  0
VERTEX
  5
2DC
  8
LAYER_1
 10
95.07395113817739
 20
-6.122028969669824
 30
0.0
  0
VERTEX
  5
2DD
  8
LAYER_1
 10
95.38645113817739
 20
-6.122028969669824
 30
0.0
  0
VERTEX
  5
2DE
  8
LAYER_1
 10
95.38645113817739
 20
-0.8720289696698238
 30
0.0
  0
VERTEX
  5
2DF
  8
LAYER_1
 10
95.07395113817739
 20
-0.8720289696698238
 30
0.0
  0
SEQEND
  5
837
  8
LAYER_1
  0
POLYLINE
  5
7F
  8
LAYER_1
 66
     1
 10
0.0
 20
0.0
 30
0.0
 70
     1
  0
VERTEX
  5
2E0
  8
LAYER_1
 10
71.76145113817742
 20
-6.059528969669824
 30
0.0
  0
VERTEX
  5
2E1
  8
LAYER_1
 10
95.38645113817739
 20
-6.059528969669824
 30
0.0
  0
VERTEX
  5
2E2
  8
LAYER_1
 10
95.38645113817739
 20
-5.747028969669824
 30
0.0
  0
VERTEX
  5
2E3
  8
LAYER_1
 10
71.76145113817742
 20
-5.747028969669824
 30
0.0
  0
SEQEND
  5
838
  8
LAYER_1
  0
POLYLINE
  5
80
  8
LAYER_1
 66
     1
 10
0.0
 20
0.0
 30
0.0
 70
     1
  0
VERTEX
  5
2E4
  8
LAYER_1
 10
71.76145113817742
 20
-1.247028969669824
 30
0.0
  0
VERTEX
  5
2E5
  8
LAYER_1
 10
95.38645113817739
 20
-1.247028969669824
 30
0.0
  0
VERTEX
  5
2E6
  8
LAYER_1
 10
95.38645113817739
 20
-0.9345289696698238
 30
0.0
  0
VERTEX
  5
2E7
  8
LAYER_1
 10
71.76145113817742
 20
-0.9345289696698238
 30
0.0
  0
SEQEND
  5
839
  8
LAYER_1
  0
POLYLINE
  5
81
  8
LAYER_1
 66
     1
 10
0.0
 20
0.0
 30
0.0
 70
     1
  0
VERTEX
  5
2E8
  8
LAYER_1
 10
98.75225040579174
 20
-11.31601433725842
 30
0.0
  0
VERTEX
  5
2E9
  8
LAYER_1
 10
121.6897504057917
 20
-11.31601433725842
 30
0.0
  0
VERTEX
  5
2EA
  8
LAYER_1
 10
121.6897504057917
 20
0.058985662741577
 30
0.0
  0
VERTEX
  5
2EB
  8
LAYER_1
 10
98.75225040579174
 20
0.058985662741577
 30
0.0
  0
SEQEND
  5
83A
  8
LAYER_1
  0
POLYLINE
  5
82
  8
LAYER_1
 66
     1
 10
0.0
 20
0.0
 30
0.0
 70
     1
  0
VERTEX
  5
2EC
  8
LAYER_1
 10
100.7522504057917
 20
-7.441014337258423
 30
0.0
  0
VERTEX
  5
2ED
  8
LAYER_1
 10
107.8147504057917
 20
-7.441014337258423
 30
0.0
  0
VERTEX
  5
2EE
  8
LAYER_1
 10
107.8147504057917
 20
-3.628514337258423
 30
0.0
  0
VERTEX
  5
2EF
  8
LAYER_1
 10
100.7522504057917
 20
-3.628514337258423
 30
0.0
  0
SEQEND
  5
83B
  8
LAYER_1
  0
POLYLINE
  5
83
  8
LAYER_1
 66
     1
 10
0.0
 20
0.0
 30
0.0
 70
     1
  0
VERTEX
  5
2F0
  8
LAYER_1
 10
112.6897504057917
 20
-7.441014337258423
 30
0.0
  0
VERTEX
  5
2F1
  8
LAYER_1
 10
119.7522504057917
 20
-7.441014337258423
 30
0.0
  0
VERTEX
  5
2F2
  8
LAYER_1
 10
119.7522504057917
 20
-3.628514337258423
 30
0.0
  0
VERTEX
  5
2F3
  8
LAYER_1
 10
112.6897504057917
 20
-3.628514337258423
 30
0.0
  0
SEQEND
  5
83C
  8
LAYER_1
  0
POLYLINE
  5
84
  8
LAYER_1
 66
     1
 10
0.0
 20
0.0
 30
0.0
 70
     1
  0
VERTEX
  5
2F4
  8
LAYER_1
 10
100.5022504057917
 20
-10.56551433725843
 30
0.0
 42
0.4142135623730951
  0
VERTEX
  5
2F5
  8
LAYER_1
 10
100.3767504057917
 20
-10.69101433725842
 30
0.0
 42
0.4142135623730951
  0
VERTEX
  5
2F6
  8
LAYER_1
 10
100.5022504057917
 20
-10.81651433725842
 30
0.0
 42
0.4142135623730951
  0
VERTEX
  5
2F7
  8
LAYER_1
 10
100.6277504057917
 20
-10.69101433725842
 30
0.0
 42
0.4142135623730951
  0
SEQEND
  5
83D
  8
LAYER_1
  0
POLYLINE
  5
85
  8
LAYER_1
 66
     1
 10
0.0
 20
0.0
 30
0.0
 70
     1
  0
VERTEX
  5
2F8
  8
LAYER_1
 10
107.0022504057917
 20
-10.56551433725843
 30
0.0
 42
0.4142135623730951
  0
VERTEX
  5
2F9
  8
LAYER_1
 10
106.8767504057917
 20
-10.69101433725842
 30
0.0
 42
0.4142135623730951
  0
VERTEX
  5
2FA
  8
LAYER_1
 10
107.0022504057917
 20
-10.81651433725842
 30
0.0
 42
0.4142135623730951
  0
VERTEX
  5
2FB
  8
LAYER_1
 10
107.1277504057917
 20
-10.69101433725842
 30
0.0
 42
0.4142135623730951
  0
SEQEND
  5
83E
  8
LAYER_1
  0
POLYLINE
  5
86
  8
LAYER_1
 66
     1
 10
0.0
 20
0.0
 30
0.0
 70
     1
  0
VERTEX
  5
2FC
  8
LAYER_1
 10
113.4397504057917
 20
-10.56551433725843
 30
0.0
 42
0.4142135623730951
  0
VERTEX
  5
2FD
  8
LAYER_1
 10
113.3142504057917
 20
-10.69101433725842
 30
0.0
 42
0.4142135623730951
  0
VERTEX
  5
2FE
  8
LAYER_1
 10
113.4397504057917
 20
-10.81651433725842
 30
0.0
 42
0.4142135623730951
  0
VERTEX
  5
2FF
  8
LAYER_1
 10
113.5652504057917
 20
-10.69101433725842
 30
0.0
 42
0.4142135623730951
  0
SEQEND
  5
83F
  8
LAYER_1
  0
POLYLINE
  5
87
  8
LAYER_1
 66
     1
 10
0.0
 20
0.0
 30
0.0
 70
     1
  0
VERTEX
  5
300
  8
LAYER_1
 10
119.9709504057917
 20
-10.56551433725843
 30
0.0
 42
0.4142135623730951
  0
VERTEX
  5
301
  8
LAYER_1
 10
119.8454504057917
 20
-10.69101433725842
 30
0.0
 42
0.4142135623730951
  0
VERTEX
  5
302
  8
LAYER_1
 10
119.9709504057917
 20
-10.81651433725842
 30
0.0
 42
0.4142135623730951
  0
VERTEX
  5
303
  8
LAYER_1
 10
120.0964504057917
 20
-10.69101433725842
 30
0.0
 42
0.4142135623730951
  0
SEQEND
  5
840
  8
LAYER_1
  0
POLYLINE
  5
88
  8
LAYER_1
 66
     1
 10
0.0
 20
0.0
 30
0.0
 70
     1
  0
VERTEX
  5
304
  8
LAYER_1
 10
100.9084504057917
 20
-7.753014337258428
 30
0.0
 42
0.4142135623730951
  0
VERTEX
  5
305
  8
LAYER_1
 10
100.7829504057917
 20
-7.878514337258423
 30
0.0
 42
0.4142135623730951
  0
VERTEX
  5
306
  8
LAYER_1
 10
100.9084504057917
 20
-8.004014337258418
 30
0.0
 42
0.4142135623730951
  0
VERTEX
  5
307
  8
LAYER_1
 10
101.0339504057917
 20
-7.878514337258423
 30
0.0
 42
0.4142135623730951
  0
SEQEND
  5
841
  8
LAYER_1
  0
POLYLINE
  5
89
  8
LAYER_1
 66
     1
 10
0.0
 20
0.0
 30
0.0
 70
     1
  0
VERTEX
  5
308
  8
LAYER_1
 10
107.5022504057917
 20
-7.753014337258428
 30
0.0
 42
0.4142135623730951
  0
VERTEX
  5
309
  8
LAYER_1
 10
107.3767504057917
 20
-7.878514337258423
 30
0.0
 42
0.4142135623730951
  0
VERTEX
  5
30A
  8
LAYER_1
 10
107.5022504057917
 20
-8.004014337258418
 30
0.0
 42
0.4142135623730951
  0
VERTEX
  5
30B
  8
LAYER_1
 10
107.6277504057917
 20
-7.878514337258423
 30
0.0
 42
0.4142135623730951
  0
SEQEND
  5
842
  8
LAYER_1
  0
POLYLINE
  5
8A
  8
LAYER_1
 66
     1
 10
0.0
 20
0.0
 30
0.0
 70
     1
  0
VERTEX
  5
30C
  8
LAYER_1
 10
113.0022504057917
 20
-7.753014337258428
 30
0.0
 42
0.4142135623730951
  0
VERTEX
  5
30D
  8
LAYER_1
 10
112.8767504057917
 20
-7.878514337258423
 30
0.0
 42
0.4142135623730951
  0
VERTEX
  5
30E
  8
LAYER_1
 10
113.0022504057917
 20
-8.004014337258418
 30
0.0
 42
0.4142135623730951
  0
VERTEX
  5
30F
  8
LAYER_1
 10
113.1277504057917
 20
-7.878514337258423
 30
0.0
 42
0.4142135623730951
  0
SEQEND
  5
843
  8
LAYER_1
  0
POLYLINE
  5
8B
  8
LAYER_1
 66
     1
 10
0.0
 20
0.0
 30
0.0
 70
     1
  0
VERTEX
  5
310
  8
LAYER_1
 10
119.5022504057917
 20
-7.753014337258428
 30
0.0
 42
0.4142135623730951
  0
VERTEX
  5
311
  8
LAYER_1
 10
119.3767504057917
 20
-7.878514337258423
 30
0.0
 42
0.4142135623730951
  0
VERTEX
  5
312
  8
LAYER_1
 10
119.5022504057917
 20
-8.004014337258418
 30
0.0
 42
0.4142135623730951
  0
VERTEX
  5
313
  8
LAYER_1
 10
119.6277504057918
 20
-7.878514337258423
 30
0.0
 42
0.4142135623730951
  0
SEQEND
  5
844
  8
LAYER_1
  0
POLYLINE
  5
8C
  8
LAYER_1
 66
     1
 10
0.0
 20
0.0
 30
0.0
 70
     1
  0
VERTEX
  5
314
  8
LAYER_1
 10
119.5022504057917
 20
-3.065514337258421
 30
0.0
 42
0.4142135623730951
  0
VERTEX
  5
315
  8
LAYER_1
 10
119.3767504057917
 20
-3.191014337258423
 30
0.0
 42
0.4142135623730951
  0
VERTEX
  5
316
  8
LAYER_1
 10
119.5022504057917
 20
-3.316514337258425
 30
0.0
 42
0.4142135623730951
  0
VERTEX
  5
317
  8
LAYER_1
 10
119.6277504057918
 20
-3.191014337258423
 30
0.0
 42
0.4142135623730951
  0
SEQEND
  5
845
  8
LAYER_1
  0
POLYLINE
  5
8D
  8
LAYER_1
 66
     1
 10
0.0
 20
0.0
 30
0.0
 70
     1
  0
VERTEX
  5
318
  8
LAYER_1
 10
113.0022504057917
 20
-3.065514337258421
 30
0.0
 42
0.4142135623730951
  0
VERTEX
  5
319
  8
LAYER_1
 10
112.8767504057917
 20
-3.191014337258423
 30
0.0
 42
0.4142135623730951
  0
VERTEX
  5
31A
  8
LAYER_1
 10
113.0022504057917
 20
-3.316514337258425
 30
0.0
 42
0.4142135623730951
  0
VERTEX
  5
31B
  8
LAYER_1
 10
113.1277504057917
 20
-3.191014337258423
 30
0.0
 42
0.4142135623730951
  0
SEQEND
  5
846
  8
LAYER_1
  0
POLYLINE
  5
8E
  8
LAYER_1
 66
     1
 10
0.0
 20
0.0
 30
0.0
 70
     1
  0
VERTEX
  5
31C
  8
LAYER_1
 10
107.5022504057917
 20
-3.065514337258421
 30
0.0
 42
0.4142135623730951
  0
VERTEX
  5
31D
  8
LAYER_1
 10
107.3767504057917
 20
-3.191014337258423
 30
0.0
 42
0.4142135623730951
  0
VERTEX
  5
31E
  8
LAYER_1
 10
107.5022504057917
 20
-3.316514337258425
 30
0.0
 42
0.4142135623730951
  0
VERTEX
  5
31F
  8
LAYER_1
 10
107.6277504057917
 20
-3.191014337258423
 30
0.0
 42
0.4142135623730951
  0
SEQEND
  5
847
  8
LAYER_1
  0
POLYLINE
  5
8F
  8
LAYER_1
 66
     1
 10
0.0
 20
0.0
 30
0.0
 70
     1
  0
VERTEX
  5
320
  8
LAYER_1
 10
100.9084504057917
 20
-3.065514337258421
 30
0.0
 42
0.4142135623730951
  0
VERTEX
  5
321
  8
LAYER_1
 10
100.7829504057917
 20
-3.191014337258423
 30
0.0
 42
0.4142135623730951
  0
VERTEX
  5
322
  8
LAYER_1
 10
100.9084504057917
 20
-3.316514337258425
 30
0.0
 42
0.4142135623730951
  0
VERTEX
  5
323
  8
LAYER_1
 10
101.0339504057917
 20
-3.191014337258423
 30
0.0
 42
0.4142135623730951
  0
SEQEND
  5
848
  8
LAYER_1
  0
POLYLINE
  5
90
  8
LAYER_1
 66
     1
 10
0.0
 20
0.0
 30
0.0
 70
     1
  0
VERTEX
  5
324
  8
LAYER_1
 10
100.5022504057917
 20
-0.3780143372584206
 30
0.0
 42
0.4142135623730951
  0
VERTEX
  5
325
  8
LAYER_1
 10
100.3767504057917
 20
-0.503514337258423
 30
0.0
 42
0.4142135623730951
  0
VERTEX
  5
326
  8
LAYER_1
 10
100.5022504057917
 20
-0.6290143372584254
 30
0.0
 42
0.4142135623730951
  0
VERTEX
  5
327
  8
LAYER_1
 10
100.6277504057917
 20
-0.503514337258423
 30
0.0
 42
0.4142135623730951
  0
SEQEND
  5
849
  8
LAYER_1
  0
POLYLINE
  5
91
  8
LAYER_1
 66
     1
 10
0.0
 20
0.0
 30
0.0
 70
     1
  0
VERTEX
  5
328
  8
LAYER_1
 10
107.0022504057917
 20
-0.3780143372584206
 30
0.0
 42
0.4142135623730951
  0
VERTEX
  5
329
  8
LAYER_1
 10
106.8767504057917
 20
-0.503514337258423
 30
0.0
 42
0.4142135623730951
  0
VERTEX
  5
32A
  8
LAYER_1
 10
107.0022504057917
 20
-0.6290143372584254
 30
0.0
 42
0.4142135623730951
  0
VERTEX
  5
32B
  8
LAYER_1
 10
107.1277504057917
 20
-0.503514337258423
 30
0.0
 42
0.4142135623730951
  0
SEQEND
  5
84A
  8
LAYER_1
  0
POLYLINE
  5
92
  8
LAYER_1
 66
     1
 10
0.0
 20
0.0
 30
0.0
 70
     1
  0
VERTEX
  5
32C
  8
LAYER_1
 10
113.4397504057917
 20
-0.3780143372584206
 30
0.0
 42
0.4142135623730951
  0
VERTEX
  5
32D
  8
LAYER_1
 10
113.3142504057917
 20
-0.503514337258423
 30
0.0
 42
0.4142135623730951
  0
VERTEX
  5
32E
  8
LAYER_1
 10
113.4397504057917
 20
-0.6290143372584254
 30
0.0
 42
0.4142135623730951
  0
VERTEX
  5
32F
  8
LAYER_1
 10
113.5652504057917
 20
-0.503514337258423
 30
0.0
 42
0.4142135623730951
  0
SEQEND
  5
84B
  8
LAYER_1
  0
POLYLINE
  5
93
  8
LAYER_1
 66
     1
 10
0.0
 20
0.0
 30
0.0
 70
     1
  0
VERTEX
  5
330
  8
LAYER_1
 10
119.9709504057917
 20
-0.3780143372584206
 30
0.0
 42
0.4142135623730951
  0
VERTEX
  5
331
  8
LAYER_1
 10
119.8454504057917
 20
-0.503514337258423
 30
0.0
 42
0.4142135623730951
  0
VERTEX
  5
332
  8
LAYER_1
 10
119.9709504057917
 20
-0.6290143372584254
 30
0.0
 42
0.4142135623730951
  0
VERTEX
  5
333
  8
LAYER_1
 10
120.0964504057917
 20
-0.503514337258423
 30
0.0
 42
0.4142135623730951
  0
SEQEND
  5
84C
  8
LAYER_1
  0
POLYLINE
  5
94
  8
LAYER_1
 66
     1
 10
0.0
 20
0.0
 30
0.0
 70
     1
  0
VERTEX
  5
334
  8
LAYER_1
 10
98.62725040579174
 20
-0.316014337258423
 30
0.0
  0
VERTEX
  5
335
  8
LAYER_1
 10
121.8147504057917
 20
-0.316014337258423
 30
0.0
  0
VERTEX
  5
336
  8
LAYER_1
 10
121.8147504057917
 20
0.121485662741577
 30
0.0
  0
VERTEX
  5
337
  8
LAYER_1
 10
98.62725040579174
 20
0.121485662741577
 30
0.0
  0
SEQEND
  5
84D
  8
LAYER_1
  0
POLYLINE
  5
95
  8
LAYER_1
 66
     1
 10
0.0
 20
0.0
 30
0.0
 70
     1
  0
VERTEX
  5
338
  8
LAYER_1
 10
110.1897504057917
 20
-0.816014337258423
 30
0.0
 42
0.4142135623730951
  0
VERTEX
  5
339
  8
LAYER_1
 10
109.8147504057917
 20
-1.191014337258423
 30
0.0
 42
0.4142135623730951
  0
VERTEX
  5
33A
  8
LAYER_1
 10
110.1897504057917
 20
-1.566014337258423
 30
0.0
 42
0.4142135623730951
  0
VERTEX
  5
33B
  8
LAYER_1
 10
110.5647504057917
 20
-1.191014337258423
 30
0.0
 42
0.4142135623730951
  0
SEQEND
  5
84E
  8
LAYER_1
  0
POLYLINE
  5
96
  8
LAYER_1
 66
     1
 10
0.0
 20
0.0
 30
0.0
 70
     1
  0
VERTEX
  5
33C
  8
LAYER_1
 10
98.88021031297694
 20
-26.03747393719602
 30
0.0
  0
VERTEX
  5
33D
  8
LAYER_1
 10
122.3177103129769
 20
-26.03747393719602
 30
0.0
  0
VERTEX
  5
33E
  8
LAYER_1
 10
122.3177103129769
 20
-13.41247393719602
 30
0.0
  0
VERTEX
  5
33F
  8
LAYER_1
 10
98.88021031297694
 20
-13.41247393719602
 30
0.0
  0
SEQEND
  5
84F
  8
LAYER_1
  0
POLYLINE
  5
97
  8
LAYER_1
 66
     1
 10
0.0
 20
0.0
 30
0.0
 70
     1
  0
VERTEX
  5
340
  8
LAYER_1
 10
98.81771031297694
 20
-26.16247393719602
 30
0.0
  0
VERTEX
  5
341
  8
LAYER_1
 10
99.13021031297694
 20
-26.16247393719602
 30
0.0
  0
VERTEX
  5
342
  8
LAYER_1
 10
99.13021031297694
 20
-13.34997393719602
 30
0.0
  0
VERTEX
  5
343
  8
LAYER_1
 10
98.81771031297694
 20
-13.34997393719602
 30
0.0
  0
SEQEND
  5
850
  8
LAYER_1
  0
POLYLINE
  5
98
  8
LAYER_1
 66
     1
 10
0.0
 20
0.0
 30
0.0
 70
     1
  0
VERTEX
  5
344
  8
LAYER_1
 10
122.0677103129769
 20
-26.16247393719602
 30
0.0
  0
VERTEX
  5
345
  8
LAYER_1
 10
122.3802103129769
 20
-26.16247393719602
 30
0.0
  0
VERTEX
  5
346
  8
LAYER_1
 10
122.3802103129769
 20
-13.34997393719602
 30
0.0
  0
VERTEX
  5
347
  8
LAYER_1
 10
122.0677103129769
 20
-13.34997393719602
 30
0.0
  0
SEQEND
  5
851
  8
LAYER_1
  0
POLYLINE
  5
99
  8
LAYER_1
 66
     1
 10
0.0
 20
0.0
 30
0.0
 70
     1
  0
VERTEX
  5
348
  8
LAYER_1
 10
98.81771031297694
 20
-26.16247393719602
 30
0.0
  0
VERTEX
  5
349
  8
LAYER_1
 10
99.13021031297694
 20
-26.16247393719602
 30
0.0
  0
VERTEX
  5
34A
  8
LAYER_1
 10
99.13021031297694
 20
-25.34997393719602
 30
0.0
  0
VERTEX
  5
34B
  8
LAYER_1
 10
98.81771031297694
 20
-25.34997393719602
 30
0.0
  0
SEQEND
  5
852
  8
LAYER_1
  0
POLYLINE
  5
9A
  8
LAYER_1
 66
     1
 10
0.0
 20
0.0
 30
0.0
 70
     1
  0
VERTEX
  5
34C
  8
LAYER_1
 10
122.0677103129769
 20
-26.16247393719602
 30
0.0
  0
VERTEX
  5
34D
  8
LAYER_1
 10
122.3802103129769
 20
-26.16247393719602
 30
0.0
  0
VERTEX
  5
34E
  8
LAYER_1
 10
122.3802103129769
 20
-25.34997393719602
 30
0.0
  0
VERTEX
  5
34F
  8
LAYER_1
 10
122.0677103129769
 20
-25.34997393719602
 30
0.0
  0
SEQEND
  5
853
  8
LAYER_1
  0
POLYLINE
  5
9B
  8
LAYER_1
 66
     1
 10
0.0
 20
0.0
 30
0.0
 70
     1
  0
VERTEX
  5
350
  8
LAYER_1
 10
101.8802103129769
 20
-21.66247393719602
 30
0.0
 42
0.4142135623730951
  0
VERTEX
  5
351
  8
LAYER_1
 10
102.1302103129769
 20
-21.91247393719602
 30
0.0
  0
VERTEX
  5
352
  8
LAYER_1
 10
104.0052103129769
 20
-21.91247393719602
 30
0.0
 42
0.4142135623730951
  0
VERTEX
  5
353
  8
LAYER_1
 10
104.2552103129769
 20
-21.66247393719602
 30
0.0
 42
0.4142135623730951
  0
VERTEX
  5
354
  8
LAYER_1
 10
104.0052103129769
 20
-21.41247393719602
 30
0.0
  0
VERTEX
  5
355
  8
LAYER_1
 10
102.1302103129769
 20
-21.41247393719602
 30
0.0
 42
0.4142135623730951
  0
SEQEND
  5
854
  8
LAYER_1
  0
POLYLINE
  5
9C
  8
LAYER_1
 66
     1
 10
0.0
 20
0.0
 30
0.0
 70
     1
  0
VERTEX
  5
356
  8
LAYER_1
 10
116.7877103129769
 20
-21.66247393719602
 30
0.0
 42
0.4142135623730951
  0
VERTEX
  5
357
  8
LAYER_1
 10
117.0377103129769
 20
-21.91247393719602
 30
0.0
  0
VERTEX
  5
358
  8
LAYER_1
 10
118.9127103129769
 20
-21.91247393719602
 30
0.0
 42
0.4142135623730951
  0
VERTEX
  5
359
  8
LAYER_1
 10
119.1627103129769
 20
-21.66247393719602
 30
0.0
 42
0.4142135623730951
  0
VERTEX
  5
35A
  8
LAYER_1
 10
118.9127103129769
 20
-21.41247393719602
 30
0.0
  0
VERTEX
  5
35B
  8
LAYER_1
 10
117.0377103129769
 20
-21.41247393719602
 30
0.0
 42
0.4142135623730951
  0
SEQEND
  5
855
  8
LAYER_1
  0
POLYLINE
  5
9D
  8
LAYER_1
 66
     1
 10
0.0
 20
0.0
 30
0.0
 70
     1
  0
VERTEX
  5
35C
  8
LAYER_1
 10
116.7877103129769
 20
-17.66247393719602
 30
0.0
 42
0.4142135623730951
  0
VERTEX
  5
35D
  8
LAYER_1
 10
117.0377103129769
 20
-17.91247393719602
 30
0.0
  0
VERTEX
  5
35E
  8
LAYER_1
 10
118.9127103129769
 20
-17.91247393719602
 30
0.0
 42
0.4142135623730951
  0
VERTEX
  5
35F
  8
LAYER_1
 10
119.1627103129769
 20
-17.66247393719602
 30
0.0
 42
0.4142135623730951
  0
VERTEX
  5
360
  8
LAYER_1
 10
118.9127103129769
 20
-17.41247393719602
 30
0.0
  0
VERTEX
  5
361
  8
LAYER_1
 10
117.0377103129769
 20
-17.41247393719602
 30
0.0
 42
0.4142135623730951
  0
SEQEND
  5
856
  8
LAYER_1
  0
POLYLINE
  5
9E
  8
LAYER_1
 66
     1
 10
0.0
 20
0.0
 30
0.0
 70
     1
  0
VERTEX
  5
362
  8
LAYER_1
 10
101.8802103129769
 20
-17.66247393719602
 30
0.0
 42
0.4142135623730951
  0
VERTEX
  5
363
  8
LAYER_1
 10
102.1302103129769
 20
-17.91247393719602
 30
0.0
  0
VERTEX
  5
364
  8
LAYER_1
 10
104.0052103129769
 20
-17.91247393719602
 30
0.0
 42
0.4142135623730951
  0
VERTEX
  5
365
  8
LAYER_1
 10
104.2552103129769
 20
-17.66247393719602
 30
0.0
 42
0.4142135623730951
  0
VERTEX
  5
366
  8
LAYER_1
 10
104.0052103129769
 20
-17.41247393719602
 30
0.0
  0
VERTEX
  5
367
  8
LAYER_1
 10
102.1302103129769
 20
-17.41247393719602
 30
0.0
 42
0.4142135623730951
  0
SEQEND
  5
857
  8
LAYER_1
  0
POLYLINE
  5
9F
  8
LAYER_1
 66
     1
 10
0.0
 20
0.0
 30
0.0
 70
     1
  0
VERTEX
  5
368
  8
LAYER_1
 10
100.8802103129769
 20
-20.66247393719602
 30
0.0
 42
0.4142135623730951
  0
VERTEX
  5
369
  8
LAYER_1
 10
101.1302103129769
 20
-20.91247393719602
 30
0.0
  0
VERTEX
  5
36A
  8
LAYER_1
 10
105.0052103129769
 20
-20.91247393719602
 30
0.0
 42
0.4142135623730951
  0
VERTEX
  5
36B
  8
LAYER_1
 10
105.2552103129769
 20
-20.66247393719602
 30
0.0
 42
0.4142135623730951
  0
VERTEX
  5
36C
  8
LAYER_1
 10
105.0052103129769
 20
-20.41247393719602
 30
0.0
  0
VERTEX
  5
36D
  8
LAYER_1
 10
101.1302103129769
 20
-20.41247393719602
 30
0.0
 42
0.4142135623730951
  0
SEQEND
  5
858
  8
LAYER_1
  0
POLYLINE
  5
A0
  8
LAYER_1
 66
     1
 10
0.0
 20
0.0
 30
0.0
 70
     1
  0
VERTEX
  5
36E
  8
LAYER_1
 10
115.9127103129769
 20
-20.66247393719602
 30
0.0
 42
0.4142135623730951
  0
VERTEX
  5
36F
  8
LAYER_1
 10
116.1627103129769
 20
-20.91247393719602
 30
0.0
  0
VERTEX
  5
370
  8
LAYER_1
 10
120.0377103129769
 20
-20.91247393719602
 30
0.0
 42
0.4142135623730951
  0
VERTEX
  5
371
  8
LAYER_1
 10
120.2877103129769
 20
-20.66247393719602
 30
0.0
 42
0.4142135623730951
  0
VERTEX
  5
372
  8
LAYER_1
 10
120.0377103129769
 20
-20.41247393719602
 30
0.0
  0
VERTEX
  5
373
  8
LAYER_1
 10
116.1627103129769
 20
-20.41247393719602
 30
0.0
 42
0.4142135623730951
  0
SEQEND
  5
859
  8
LAYER_1
  0
POLYLINE
  5
A1
  8
LAYER_1
 66
     1
 10
0.0
 20
0.0
 30
0.0
 70
     1
  0
VERTEX
  5
374
  8
LAYER_1
 10
115.9127103129769
 20
-19.66247393719602
 30
0.0
 42
0.4142135623730951
  0
VERTEX
  5
375
  8
LAYER_1
 10
116.1627103129769
 20
-19.91247393719602
 30
0.0
  0
VERTEX
  5
376
  8
LAYER_1
 10
120.0377103129769
 20
-19.91247393719602
 30
0.0
 42
0.4142135623730951
  0
VERTEX
  5
377
  8
LAYER_1
 10
120.2877103129769
 20
-19.66247393719602
 30
0.0
 42
0.4142135623730951
  0
VERTEX
  5
378
  8
LAYER_1
 10
120.0377103129769
 20
-19.41247393719602
 30
0.0
  0
VERTEX
  5
379
  8
LAYER_1
 10
116.1627103129769
 20
-19.41247393719602
 30
0.0
 42
0.4142135623730951
  0
SEQEND
  5
85A
  8
LAYER_1
  0
POLYLINE
  5
A2
  8
LAYER_1
 66
     1
 10
0.0
 20
0.0
 30
0.0
 70
     1
  0
VERTEX
  5
37A
  8
LAYER_1
 10
115.9127103129769
 20
-18.66247393719602
 30
0.0
 42
0.4142135623730951
  0
VERTEX
  5
37B
  8
LAYER_1
 10
116.1627103129769
 20
-18.91247393719602
 30
0.0
  0
VERTEX
  5
37C
  8
LAYER_1
 10
120.0377103129769
 20
-18.91247393719602
 30
0.0
 42
0.4142135623730951
  0
VERTEX
  5
37D
  8
LAYER_1
 10
120.2877103129769
 20
-18.66247393719602
 30
0.0
 42
0.4142135623730951
  0
VERTEX
  5
37E
  8
LAYER_1
 10
120.0377103129769
 20
-18.41247393719602
 30
0.0
  0
VERTEX
  5
37F
  8
LAYER_1
 10
116.1627103129769
 20
-18.41247393719602
 30
0.0
 42
0.4142135623730951
  0
SEQEND
  5
85B
  8
LAYER_1
  0
POLYLINE
  5
A3
  8
LAYER_1
 66
     1
 10
0.0
 20
0.0
 30
0.0
 70
     1
  0
VERTEX
  5
380
  8
LAYER_1
 10
100.8802103129769
 20
-18.66247393719602
 30
0.0
 42
0.4142135623730951
  0
VERTEX
  5
381
  8
LAYER_1
 10
101.1302103129769
 20
-18.91247393719602
 30
0.0
  0
VERTEX
  5
382
  8
LAYER_1
 10
105.0052103129769
 20
-18.91247393719602
 30
0.0
 42
0.4142135623730951
  0
VERTEX
  5
383
  8
LAYER_1
 10
105.2552103129769
 20
-18.66247393719602
 30
0.0
 42
0.4142135623730951
  0
VERTEX
  5
384
  8
LAYER_1
 10
105.0052103129769
 20
-18.41247393719602
 30
0.0
  0
VERTEX
  5
385
  8
LAYER_1
 10
101.1302103129769
 20
-18.41247393719602
 30
0.0
 42
0.4142135623730951
  0
SEQEND
  5
85C
  8
LAYER_1
  0
POLYLINE
  5
A4
  8
LAYER_1
 66
     1
 10
0.0
 20
0.0
 30
0.0
 70
     1
  0
VERTEX
  5
386
  8
LAYER_1
 10
100.8802103129769
 20
-19.66247393719602
 30
0.0
 42
0.4142135623730951
  0
VERTEX
  5
387
  8
LAYER_1
 10
101.1302103129769
 20
-19.91247393719602
 30
0.0
  0
VERTEX
  5
388
  8
LAYER_1
 10
105.0052103129769
 20
-19.91247393719602
 30
0.0
 42
0.4142135623730951
  0
VERTEX
  5
389
  8
LAYER_1
 10
105.2552103129769
 20
-19.66247393719602
 30
0.0
 42
0.4142135623730951
  0
VERTEX
  5
38A
  8
LAYER_1
 10
105.0052103129769
 20
-19.41247393719602
 30
0.0
  0
VERTEX
  5
38B
  8
LAYER_1
 10
101.1302103129769
 20
-19.41247393719602
 30
0.0
 42
0.4142135623730951
  0
SEQEND
  5
85D
  8
LAYER_1
  0
POLYLINE
  5
A5
  8
LAYER_1
 66
     1
 10
0.0
 20
0.0
 30
0.0
 70
     1
  0
VERTEX
  5
38C
  8
LAYER_1
 10
124.4882077171716
 20
-7.450396948668971
 30
0.0
  0
VERTEX
  5
38D
  8
LAYER_1
 10
147.3632077171716
 20
-7.450396948668971
 30
0.0
  0
VERTEX
  5
38E
  8
LAYER_1
 10
147.3632077171716
 20
0.2371030513310295
 30
0.0
  0
VERTEX
  5
38F
  8
LAYER_1
 10
124.4882077171716
 20
0.2371030513310295
 30
0.0
  0
SEQEND
  5
85E
  8
LAYER_1
  0
POLYLINE
  5
A6
  8
LAYER_1
 66
     1
 10
0.0
 20
0.0
 30
0.0
 70
     1
  0
VERTEX
  5
390
  8
LAYER_1
 10
133.9257077171716
 20
-5.387896948668971
 30
0.0
  0
VERTEX
  5
391
  8
LAYER_1
 10
137.9257077171716
 20
-5.387896948668971
 30
0.0
  0
VERTEX
  5
392
  8
LAYER_1
 10
137.9257077171716
 20
-2.012896948668971
 30
0.0
  0
VERTEX
  5
393
  8
LAYER_1
 10
133.9257077171716
 20
-2.012896948668971
 30
0.0
  0
SEQEND
  5
85F
  8
LAYER_1
  0
POLYLINE
  5
A7
  8
LAYER_1
 66
     1
 10
0.0
 20
0.0
 30
0.0
 70
     1
  0
VERTEX
  5
394
  8
LAYER_1
 10
135.9257077171716
 20
-3.137896948668971
 30
0.0
 42
0.4142135623730951
  0
VERTEX
  5
395
  8
LAYER_1
 10
135.3632077171716
 20
-3.700396948668971
 30
0.0
 42
0.4142135623730951
  0
VERTEX
  5
396
  8
LAYER_1
 10
135.9257077171716
 20
-4.262896948668971
 30
0.0
 42
0.4142135623730951
  0
VERTEX
  5
397
  8
LAYER_1
 10
136.4882077171716
 20
-3.700396948668971
 30
0.0
 42
0.4142135623730951
  0
SEQEND
  5
860
  8
LAYER_1
  0
POLYLINE
  5
A8
  8
LAYER_1
 66
     1
 10
0.0
 20
0.0
 30
0.0
 70
     1
  0
VERTEX
  5
398
  8
LAYER_1
 10
134.3632077171716
 20
-4.949896948668968
 30
0.0
 42
0.4142135623730951
  0
VERTEX
  5
399
  8
LAYER_1
 10
134.2377077171716
 20
-5.075396948668971
 30
0.0
 42
0.4142135623730951
  0
VERTEX
  5
39A
  8
LAYER_1
 10
134.3632077171716
 20
-5.200896948668973
 30
0.0
 42
0.4142135623730951
  0
VERTEX
  5
39B
  8
LAYER_1
 10
134.4887077171716
 20
-5.075396948668971
 30
0.0
 42
0.4142135623730951
  0
SEQEND
  5
861
  8
LAYER_1
  0
POLYLINE
  5
A9
  8
LAYER_1
 66
     1
 10
0.0
 20
0.0
 30
0.0
 70
     1
  0
VERTEX
  5
39C
  8
LAYER_1
 10
134.3632077171716
 20
-2.262396948668968
 30
0.0
 42
0.4142135623730951
  0
VERTEX
  5
39D
  8
LAYER_1
 10
134.2377077171716
 20
-2.387896948668971
 30
0.0
 42
0.4142135623730951
  0
VERTEX
  5
39E
  8
LAYER_1
 10
134.3632077171716
 20
-2.513396948668973
 30
0.0
 42
0.4142135623730951
  0
VERTEX
  5
39F
  8
LAYER_1
 10
134.4887077171716
 20
-2.387896948668971
 30
0.0
 42
0.4142135623730951
  0
SEQEND
  5
862
  8
LAYER_1
  0
POLYLINE
  5
AA
  8
LAYER_1
 66
     1
 10
0.0
 20
0.0
 30
0.0
 70
     1
  0
VERTEX
  5
3A0
  8
LAYER_1
 10
137.4257077171716
 20
-2.262396948668968
 30
0.0
 42
0.4142135623730951
  0
VERTEX
  5
3A1
  8
LAYER_1
 10
137.3002077171716
 20
-2.387896948668971
 30
0.0
 42
0.4142135623730951
  0
VERTEX
  5
3A2
  8
LAYER_1
 10
137.4257077171716
 20
-2.513396948668973
 30
0.0
 42
0.4142135623730951
  0
VERTEX
  5
3A3
  8
LAYER_1
 10
137.5512077171716
 20
-2.387896948668971
 30
0.0
 42
0.4142135623730951
  0
SEQEND
  5
863
  8
LAYER_1
  0
POLYLINE
  5
AB
  8
LAYER_1
 66
     1
 10
0.0
 20
0.0
 30
0.0
 70
     1
  0
VERTEX
  5
3A4
  8
LAYER_1
 10
137.4257077171716
 20
-4.949896948668968
 30
0.0
 42
0.4142135623730951
  0
VERTEX
  5
3A5
  8
LAYER_1
 10
137.3002077171716
 20
-5.075396948668971
 30
0.0
 42
0.4142135623730951
  0
VERTEX
  5
3A6
  8
LAYER_1
 10
137.4257077171716
 20
-5.200896948668973
 30
0.0
 42
0.4142135623730951
  0
VERTEX
  5
3A7
  8
LAYER_1
 10
137.5512077171716
 20
-5.075396948668971
 30
0.0
 42
0.4142135623730951
  0
SEQEND
  5
864
  8
LAYER_1
  0
POLYLINE
  5
AC
  8
LAYER_1
 66
     1
 10
0.0
 20
0.0
 30
0.0
 70
     1
  0
VERTEX
  5
3A8
  8
LAYER_1
 10
125.1132077171716
 20
-6.074896948668968
 30
0.0
 42
0.4142135623730951
  0
VERTEX
  5
3A9
  8
LAYER_1
 10
124.9877077171716
 20
-6.200396948668971
 30
0.0
 42
0.4142135623730951
  0
VERTEX
  5
3AA
  8
LAYER_1
 10
125.1132077171716
 20
-6.325896948668973
 30
0.0
 42
0.4142135623730951
  0
VERTEX
  5
3AB
  8
LAYER_1
 10
125.2387077171716
 20
-6.200396948668971
 30
0.0
 42
0.4142135623730951
  0
SEQEND
  5
865
  8
LAYER_1
  0
POLYLINE
  5
AD
  8
LAYER_1
 66
     1
 10
0.0
 20
0.0
 30
0.0
 70
     1
  0
VERTEX
  5
3AC
  8
LAYER_1
 10
125.1132077171716
 20
-1.73119694866897
 30
0.0
 42
0.4142135623730951
  0
VERTEX
  5
3AD
  8
LAYER_1
 10
124.9877077171716
 20
-1.856696948668972
 30
0.0
 42
0.4142135623730951
  0
VERTEX
  5
3AE
  8
LAYER_1
 10
125.1132077171716
 20
-1.982196948668975
 30
0.0
 42
0.4142135623730951
  0
VERTEX
  5
3AF
  8
LAYER_1
 10
125.2387077171716
 20
-1.856696948668972
 30
0.0
 42
0.4142135623730951
  0
SEQEND
  5
866
  8
LAYER_1
  0
POLYLINE
  5
AE
  8
LAYER_1
 66
     1
 10
0.0
 20
0.0
 30
0.0
 70
     1
  0
VERTEX
  5
3B0
  8
LAYER_1
 10
146.6757077171716
 20
-1.73119694866897
 30
0.0
 42
0.4142135623730951
  0
VERTEX
  5
3B1
  8
LAYER_1
 10
146.5502077171716
 20
-1.856696948668972
 30
0.0
 42
0.4142135623730951
  0
VERTEX
  5
3B2
  8
LAYER_1
 10
146.6757077171716
 20
-1.982196948668975
 30
0.0
 42
0.4142135623730951
  0
VERTEX
  5
3B3
  8
LAYER_1
 10
146.8012077171716
 20
-1.856696948668972
 30
0.0
 42
0.4142135623730951
  0
SEQEND
  5
867
  8
LAYER_1
  0
POLYLINE
  5
AF
  8
LAYER_1
 66
     1
 10
0.0
 20
0.0
 30
0.0
 70
     1
  0
VERTEX
  5
3B4
  8
LAYER_1
 10
146.6757077171716
 20
-6.199896948668968
 30
0.0
 42
0.4142135623730951
  0
VERTEX
  5
3B5
  8
LAYER_1
 10
146.5502077171716
 20
-6.325396948668971
 30
0.0
 42
0.4142135623730951
  0
VERTEX
  5
3B6
  8
LAYER_1
 10
146.6757077171716
 20
-6.450896948668973
 30
0.0
 42
0.4142135623730951
  0
VERTEX
  5
3B7
  8
LAYER_1
 10
146.8012077171716
 20
-6.325396948668971
 30
0.0
 42
0.4142135623730951
  0
SEQEND
  5
868
  8
LAYER_1
  0
POLYLINE
  5
B0
  8
LAYER_1
 66
     1
 10
0.0
 20
0.0
 30
0.0
 70
     1
  0
VERTEX
  5
3B8
  8
LAYER_1
 10
127.9882077171716
 20
-2.544146948668971
 30
0.0
 42
0.4142135623730951
  0
VERTEX
  5
3B9
  8
LAYER_1
 10
127.3944577171716
 20
-3.137896948668971
 30
0.0
 42
0.4142135623730951
  0
VERTEX
  5
3BA
  8
LAYER_1
 10
127.9882077171716
 20
-3.731646948668971
 30
0.0
 42
0.4142135623730951
  0
VERTEX
  5
3BB
  8
LAYER_1
 10
128.5819577171716
 20
-3.137896948668971
 30
0.0
 42
0.4142135623730951
  0
SEQEND
  5
869
  8
LAYER_1
  0
POLYLINE
  5
B1
  8
LAYER_1
 66
     1
 10
0.0
 20
0.0
 30
0.0
 70
     1
  0
VERTEX
  5
3BC
  8
LAYER_1
 10
129.4882077171716
 20
-2.544146948668971
 30
0.0
 42
0.4142135623730951
  0
VERTEX
  5
3BD
  8
LAYER_1
 10
128.8944577171716
 20
-3.137896948668971
 30
0.0
 42
0.4142135623730951
  0
VERTEX
  5
3BE
  8
LAYER_1
 10
129.4882077171716
 20
-3.731646948668971
 30
0.0
 42
0.4142135623730951
  0
VERTEX
  5
3BF
  8
LAYER_1
 10
130.0819577171716
 20
-3.137896948668971
 30
0.0
 42
0.4142135623730951
  0
SEQEND
  5
86A
  8
LAYER_1
  0
POLYLINE
  5
B2
  8
LAYER_1
 66
     1
 10
0.0
 20
0.0
 30
0.0
 70
     1
  0
VERTEX
  5
3C0
  8
LAYER_1
 10
142.4882077171716
 20
-2.544146948668971
 30
0.0
 42
0.4142135623730951
  0
VERTEX
  5
3C1
  8
LAYER_1
 10
141.8944577171716
 20
-3.137896948668971
 30
0.0
 42
0.4142135623730951
  0
VERTEX
  5
3C2
  8
LAYER_1
 10
142.4882077171716
 20
-3.731646948668971
 30
0.0
 42
0.4142135623730951
  0
VERTEX
  5
3C3
  8
LAYER_1
 10
143.0819577171716
 20
-3.137896948668971
 30
0.0
 42
0.4142135623730951
  0
SEQEND
  5
86B
  8
LAYER_1
  0
POLYLINE
  5
B3
  8
LAYER_1
 66
     1
 10
0.0
 20
0.0
 30
0.0
 70
     1
  0
VERTEX
  5
3C4
  8
LAYER_1
 10
143.9882077171716
 20
-2.544146948668971
 30
0.0
 42
0.4142135623730951
  0
VERTEX
  5
3C5
  8
LAYER_1
 10
143.3944577171716
 20
-3.137896948668971
 30
0.0
 42
0.4142135623730951
  0
VERTEX
  5
3C6
  8
LAYER_1
 10
143.9882077171716
 20
-3.731646948668971
 30
0.0
 42
0.4142135623730951
  0
VERTEX
  5
3C7
  8
LAYER_1
 10
144.5819577171716
 20
-3.137896948668971
 30
0.0
 42
0.4142135623730951
  0
SEQEND
  5
86C
  8
LAYER_1
  0
POLYLINE
  5
B4
  8
LAYER_1
 66
     1
 10
0.0
 20
0.0
 30
0.0
 70
     1
  0
VERTEX
  5
3C8
  8
LAYER_1
 10
127.1783773724997
 20
-9.245866944646579
 30
0.0
 42
0.4139046192313456
  0
VERTEX
  5
3C9
  8
LAYER_1
 10
126.176054640272
 20
-10.24481203177619
 30
0.0
  0
VERTEX
  5
3CA
  8
LAYER_1
 10
126.1760540838513
 20
-10.24586694464658
 30
0.0
  0
VERTEX
  5
3CB
  8
LAYER_1
 10
126.1760540838513
 20
-10.24612309546526
 30
0.0
  0
VERTEX
  5
3CC
  8
LAYER_1
 10
126.1760540838513
 20
-15.68336694464658
 30
0.0
  0
VERTEX
  5
3CD
  8
LAYER_1
 10
145.8635540838513
 20
-15.68336694464658
 30
0.0
  0
VERTEX
  5
3CE
  8
LAYER_1
 10
145.8635540838513
 20
-10.34831426422615
 30
0.0
  0
VERTEX
  5
3CF
  8
LAYER_1
 10
145.8635540838513
 20
-10.24586694464658
 30
0.0
 42
0.4142135623730951
  0
VERTEX
  5
3D0
  8
LAYER_1
 10
144.862880777181
 20
-9.245866944646579
 30
0.0
  0
SEQEND
  5
86D
  8
LAYER_1
  0
POLYLINE
  5
B5
  8
LAYER_1
 66
     1
 10
0.0
 20
0.0
 30
0.0
 70
     1
  0
VERTEX
  5
3D1
  8
LAYER_1
 10
127.0510540838513
 20
-12.93336694464658
 30
0.0
 42
-0.4142135623730951
  0
VERTEX
  5
3D2
  8
LAYER_1
 10
126.6760540838513
 20
-12.55836694464658
 30
0.0
 42
-0.4142135623730951
  0
VERTEX
  5
3D3
  8
LAYER_1
 10
127.0510540838513
 20
-12.18336694464658
 30
0.0
 42
-0.4142135623730951
  0
VERTEX
  5
3D4
  8
LAYER_1
 10
127.4260540838513
 20
-12.55836694464658
 30
0.0
 42
-0.4142135623730951
  0
SEQEND
  5
86E
  8
LAYER_1
  0
POLYLINE
  5
B6
  8
LAYER_1
 66
     1
 10
0.0
 20
0.0
 30
0.0
 70
     1
  0
VERTEX
  5
3D5
  8
LAYER_1
 10
127.0510540838513
 20
-13.30836694464658
 30
0.0
  0
VERTEX
  5
3D6
  8
LAYER_1
 10
127.0671856148902
 20
-13.3081219890622
 30
0.0
  0
VERTEX
  5
3D7
  8
LAYER_1
 10
127.0832165009534
 20
-13.30739104930053
 30
0.0
  0
VERTEX
  5
3D8
  8
LAYER_1
 10
127.0991418333017
 20
-13.30618001584877
 30
0.0
  0
VERTEX
  5
3D9
  8
LAYER_1
 10
127.1149567031958
 20
-13.30449477919414
 30
0.0
  0
VERTEX
  5
3DA
  8
LAYER_1
 10
127.1306562018962
 20
-13.30234122982381
 30
0.0
  0
VERTEX
  5
3DB
  8
LAYER_1
 10
127.1462354206637
 20
-13.29972525822501
 30
0.0
  0
VERTEX
  5
3DC
  8
LAYER_1
 10
127.1616894507589
 20
-13.29665275488494
 30
0.0
  0
VERTEX
  5
3DD
  8
LAYER_1
 10
127.1770133834425
 20
-13.29312961029079
 30
0.0
  0
VERTEX
  5
3DE
  8
LAYER_1
 10
127.1922023099752
 20
-13.28916171492977
 30
0.0
  0
VERTEX
  5
3DF
  8
LAYER_1
 10
127.2072513216176
 20
-13.28475495928908
 30
0.0
  0
VERTEX
  5
3E0
  8
LAYER_1
 10
127.2221555096304
 20
-13.27991523385593
 30
0.0
  0
VERTEX
  5
3E1
  8
LAYER_1
 10
127.2369099652742
 20
-13.27464842911752
 30
0.0
  0
VERTEX
  5
3E2
  8
LAYER_1
 10
127.2515097798097
 20
-13.26896043556104
 30
0.0
  0
VERTEX
  5
3E3
  8
LAYER_1
 10
127.2659500444976
 20
-13.26285714367371
 30
0.0
  0
VERTEX
  5
3E4
  8
LAYER_1
 10
127.2802258505985
 20
-13.25634444394273
 30
0.0
  0
VERTEX
  5
3E5
  8
LAYER_1
 10
127.2943322893731
 20
-13.2494282268553
 30
0.0
  0
VERTEX
  5
3E6
  8
LAYER_1
 10
127.3082644520821
 20
-13.24211438289861
 30
0.0
  0
VERTEX
  5
3E7
  8
LAYER_1
 10
127.3220174299862
 20
-13.23440880255989
 30
0.0
  0
VERTEX
  5
3E8
  8
LAYER_1
 10
127.3355863143459
 20
-13.22631737632632
 30
0.0
  0
VERTEX
  5
3E9
  8
LAYER_1
 10
127.348966196422
 20
-13.21784599468511
 30
0.0
  0
VERTEX
  5
3EA
  8
LAYER_1
 10
127.3621521674751
 20
-13.20900054812346
 30
0.0
  0
VERTEX
  5
3EB
  8
LAYER_1
 10
127.3751393187659
 20
-13.19978692712858
 30
0.0
  0
VERTEX
  5
3EC
  8
LAYER_1
 10
127.387922741555
 20
-13.19021102218766
 30
0.0
  0
VERTEX
  5
3ED
  8
LAYER_1
 10
127.4004975271032
 20
-13.18027872378792
 30
0.0
  0
VERTEX
  5
3EE
  8
LAYER_1
 10
127.4128587666711
 20
-13.16999592241655
 30
0.0
  0
VERTEX
  5
3EF
  8
LAYER_1
 10
127.4250015515193
 20
-13.15936850856076
 30
0.0
  0
VERTEX
  5
3F0
  8
LAYER_1
 10
127.4369209729085
 20
-13.14840237270775
 30
0.0
  0
VERTEX
  5
3F1
  8
LAYER_1
 10
127.4486121220993
 20
-13.13710340534472
 30
0.0
  0
VERTEX
  5
3F2
  8
LAYER_1
 10
127.4600700903526
 20
-13.12547749695888
 30
0.0
  0
VERTEX
  5
3F3
  8
LAYER_1
 10
127.4712899689288
 20
-13.11353053803743
 30
0.0
  0
VERTEX
  5
3F4
  8
LAYER_1
 10
127.4822668490887
 20
-13.10126841906756
 30
0.0
  0
VERTEX
  5
3F5
  8
LAYER_1
 10
127.4929958220929
 20
-13.08869703053649
 30
0.0
  0
VERTEX
  5
3F6
  8
LAYER_1
 10
127.5034719792021
 20
-13.07582226293142
 30
0.0
  0
VERTEX
  5
3F7
  8
LAYER_1
 10
127.513690411677
 20
-13.06265000673954
 30
0.0
  0
VERTEX
  5
3F8
  8
LAYER_1
 10
127.5236462107783
 20
-13.04918615244807
 30
0.0
  0
VERTEX
  5
3F9
  8
LAYER_1
 10
127.5333344677665
 20
-13.0354365905442
 30
0.0
  0
VERTEX
  5
3FA
  8
LAYER_1
 10
127.5427502739023
 20
-13.02140721151513
 30
0.0
  0
VERTEX
  5
3FB
  8
LAYER_1
 10
127.5518887204465
 20
-13.00710390584808
 30
0.0
  0
VERTEX
  5
3FC
  8
LAYER_1
 10
127.5607448986596
 20
-12.99253256403024
 30
0.0
  0
VERTEX
  5
3FD
  8
LAYER_1
 10
127.5693138998024
 20
-12.97769907654882
 30
0.0
  0
VERTEX
  5
3FE
  8
LAYER_1
 10
127.5775908151356
 20
-12.96260933389101
 30
0.0
  0
VERTEX
  5
3FF
  8
LAYER_1
 10
127.5855707359196
 20
-12.94726922654403
 30
0.0
  0
VERTEX
  5
400
  8
LAYER_1
 10
127.5932487534154
 20
-12.93168464499507
 30
0.0
  0
VERTEX
  5
401
  8
LAYER_1
 10
127.6006199588834
 20
-12.91586147973134
 30
0.0
  0
VERTEX
  5
402
  8
LAYER_1
 10
127.6076794435844
 20
-12.89980562124003
 30
0.0
  0
VERTEX
  5
403
  8
LAYER_1
 10
127.6144222987791
 20
-12.88352296000836
 30
0.0
  0
VERTEX
  5
404
  8
LAYER_1
 10
127.620843615728
 20
-12.86701938652353
 30
0.0
  0
VERTEX
  5
405
  8
LAYER_1
 10
127.6269384856919
 20
-12.85030079127273
 30
0.0
  0
VERTEX
  5
406
  8
LAYER_1
 10
127.6327019999314
 20
-12.83337306474317
 30
0.0
  0
VERTEX
  5
407
  8
LAYER_1
 10
127.6381292497072
 20
-12.81624209742206
 30
0.0
  0
VERTEX
  5
408
  8
LAYER_1
 10
127.64321532628
 20
-12.79891377979659
 30
0.0
  0
VERTEX
  5
409
  8
LAYER_1
 10
127.6479553209104
 20
-12.78139400235397
 30
0.0
  0
VERTEX
  5
40A
  8
LAYER_1
 10
127.6523443248591
 20
-12.7636886555814
 30
0.0
  0
VERTEX
  5
40B
  8
LAYER_1
 10
127.6563774293867
 20
-12.74580362996609
 30
0.0
  0
VERTEX
  5
40C
  8
LAYER_1
 10
127.660049725754
 20
-12.72774481599524
 30
0.0
  0
VERTEX
  5
40D
  8
LAYER_1
 10
127.6633563052215
 20
-12.70951810415604
 30
0.0
  0
VERTEX
  5
40E
  8
LAYER_1
 10
127.6662922590499
 20
-12.69112938493571
 30
0.0
  0
VERTEX
  5
40F
  8
LAYER_1
 10
127.6688526785
 20
-12.67258454882144
 30
0.0
  0
VERTEX
  5
410
  8
LAYER_1
 10
127.6710326548323
 20
-12.65388948630045
 30
0.0
  0
VERTEX
  5
411
  8
LAYER_1
 10
127.6728272793076
 20
-12.63505008785992
 30
0.0
  0
VERTEX
  5
412
  8
LAYER_1
 10
127.6742316431865
 20
-12.61607224398707
 30
0.0
  0
VERTEX
  5
413
  8
LAYER_1
 10
127.6752408377296
 20
-12.59696184516909
 30
0.0
  0
VERTEX
  5
414
  8
LAYER_1
 10
127.6758499541977
 20
-12.57772478189319
 30
0.0
  0
VERTEX
  5
415
  8
LAYER_1
 10
127.6760540838513
 20
-12.55836694464658
 30
0.0
  0
VERTEX
  5
416
  8
LAYER_1
 10
127.6758499541977
 20
-12.53900910739996
 30
0.0
  0
VERTEX
  5
417
  8
LAYER_1
 10
127.6752408377296
 20
-12.51977204412407
 30
0.0
  0
VERTEX
  5
418
  8
LAYER_1
 10
127.6742316431865
 20
-12.50066164530609
 30
0.0
  0
VERTEX
  5
419
  8
LAYER_1
 10
127.6728272793076
 20
-12.48168380143324
 30
0.0
  0
VERTEX
  5
41A
  8
LAYER_1
 10
127.6710326548323
 20
-12.46284440299271
 30
0.0
  0
VERTEX
  5
41B
  8
LAYER_1
 10
127.6688526785
 20
-12.44414934047171
 30
0.0
  0
VERTEX
  5
41C
  8
LAYER_1
 10
127.6662922590499
 20
-12.42560450435745
 30
0.0
  0
VERTEX
  5
41D
  8
LAYER_1
 10
127.6633563052215
 20
-12.40721578513712
 30
0.0
  0
VERTEX
  5
41E
  8
LAYER_1
 10
127.660049725754
 20
-12.38898907329792
 30
0.0
  0
VERTEX
  5
41F
  8
LAYER_1
 10
127.6563774293867
 20
-12.37093025932707
 30
0.0
  0
VERTEX
  5
420
  8
LAYER_1
 10
127.6523443248591
 20
-12.35304523371175
 30
0.0
  0
VERTEX
  5
421
  8
LAYER_1
 10
127.6479553209104
 20
-12.33533988693919
 30
0.0
  0
VERTEX
  5
422
  8
LAYER_1
 10
127.64321532628
 20
-12.31782010949657
 30
0.0
  0
VERTEX
  5
423
  8
LAYER_1
 10
127.6381292497072
 20
-12.3004917918711
 30
0.0
  0
VERTEX
  5
424
  8
LAYER_1
 10
127.6327019999314
 20
-12.28336082454998
 30
0.0
  0
VERTEX
  5
425
  8
LAYER_1
 10
127.6269384856919
 20
-12.26643309802043
 30
0.0
  0
VERTEX
  5
426
  8
LAYER_1
 10
127.620843615728
 20
-12.24971450276963
 30
0.0
  0
VERTEX
  5
427
  8
LAYER_1
 10
127.6144222987791
 20
-12.23321092928479
 30
0.0
  0
VERTEX
  5
428
  8
LAYER_1
 10
127.6076794435844
 20
-12.21692826805312
 30
0.0
  0
VERTEX
  5
429
  8
LAYER_1
 10
127.6006199588834
 20
-12.20087240956182
 30
0.0
  0
VERTEX
  5
42A
  8
LAYER_1
 10
127.5932487534154
 20
-12.18504924429809
 30
0.0
  0
VERTEX
  5
42B
  8
LAYER_1
 10
127.5855707359196
 20
-12.16946466274913
 30
0.0
  0
VERTEX
  5
42C
  8
LAYER_1
 10
127.5775908151356
 20
-12.15412455540214
 30
0.0
  0
VERTEX
  5
42D
  8
LAYER_1
 10
127.5693138998024
 20
-12.13903481274434
 30
0.0
  0
VERTEX
  5
42E
  8
LAYER_1
 10
127.5607448986596
 20
-12.12420132526291
 30
0.0
  0
VERTEX
  5
42F
  8
LAYER_1
 10
127.5518887204465
 20
-12.10962998344508
 30
0.0
  0
VERTEX
  5
430
  8
LAYER_1
 10
127.5427502739023
 20
-12.09532667777802
 30
0.0
  0
VERTEX
  5
431
  8
LAYER_1
 10
127.5333344677665
 20
-12.08129729874896
 30
0.0
  0
VERTEX
  5
432
  8
LAYER_1
 10
127.5236462107783
 20
-12.06754773684509
 30
0.0
  0
VERTEX
  5
433
  8
LAYER_1
 10
127.513690411677
 20
-12.05408388255362
 30
0.0
  0
VERTEX
  5
434
  8
LAYER_1
 10
127.5034719792021
 20
-12.04091162636174
 30
0.0
  0
VERTEX
  5
435
  8
LAYER_1
 10
127.4929958220929
 20
-12.02803685875667
 30
0.0
  0
VERTEX
  5
436
  8
LAYER_1
 10
127.4822668490887
 20
-12.0154654702256
 30
0.0
  0
VERTEX
  5
437
  8
LAYER_1
 10
127.4712899689288
 20
-12.00320335125573
 30
0.0
  0
VERTEX
  5
438
  8
LAYER_1
 10
127.4600700903526
 20
-11.99125639233428
 30
0.0
  0
VERTEX
  5
439
  8
LAYER_1
 10
127.4486121220993
 20
-11.97963048394843
 30
0.0
  0
VERTEX
  5
43A
  8
LAYER_1
 10
127.4369209729085
 20
-11.9683315165854
 30
0.0
  0
VERTEX
  5
43B
  8
LAYER_1
 10
127.4250015515193
 20
-11.95736538073239
 30
0.0
  0
VERTEX
  5
43C
  8
LAYER_1
 10
127.4128587666711
 20
-11.9467379668766
 30
0.0
  0
VERTEX
  5
43D
  8
LAYER_1
 10
127.4004975271032
 20
-11.93645516550524
 30
0.0
  0
VERTEX
  5
43E
  8
LAYER_1
 10
127.387922741555
 20
-11.9265228671055
 30
0.0
  0
VERTEX
  5
43F
  8
LAYER_1
 10
127.3751393187659
 20
-11.91694696216458
 30
0.0
  0
VERTEX
  5
440
  8
LAYER_1
 10
127.3621521674751
 20
-11.9077333411697
 30
0.0
  0
VERTEX
  5
441
  8
LAYER_1
 10
127.348966196422
 20
-11.89888789460805
 30
0.0
  0
VERTEX
  5
442
  8
LAYER_1
 10
127.3355863143459
 20
-11.89041651296684
 30
0.0
  0
VERTEX
  5
443
  8
LAYER_1
 10
127.3220174299862
 20
-11.88232508673327
 30
0.0
  0
VERTEX
  5
444
  8
LAYER_1
 10
127.3082644520821
 20
-11.87461950639454
 30
0.0
  0
VERTEX
  5
445
  8
LAYER_1
 10
127.2943322893731
 20
-11.86730566243786
 30
0.0
  0
VERTEX
  5
446
  8
LAYER_1
 10
127.2802258505985
 20
-11.86038944535043
 30
0.0
  0
VERTEX
  5
447
  8
LAYER_1
 10
127.2659500444976
 20
-11.85387674561944
 30
0.0
  0
VERTEX
  5
448
  8
LAYER_1
 10
127.2515097798097
 20
-11.84777345373211
 30
0.0
  0
VERTEX
  5
449
  8
LAYER_1
 10
127.2369099652742
 20
-11.84208546017564
 30
0.0
  0
VERTEX
  5
44A
  8
LAYER_1
 10
127.2221555096304
 20
-11.83681865543723
 30
0.0
  0
VERTEX
  5
44B
  8
LAYER_1
 10
127.2072513216176
 20
-11.83197893000407
 30
0.0
  0
VERTEX
  5
44C
  8
LAYER_1
 10
127.1922023099752
 20
-11.82757217436339
 30
0.0
  0
VERTEX
  5
44D
  8
LAYER_1
 10
127.1770133834425
 20
-11.82360427900237
 30
0.0
  0
VERTEX
  5
44E
  8
LAYER_1
 10
127.1616894507589
 20
-11.82008113440822
 30
0.0
  0
VERTEX
  5
44F
  8
LAYER_1
 10
127.1462354206637
 20
-11.81700863106814
 30
0.0
  0
VERTEX
  5
450
  8
LAYER_1
 10
127.1306562018962
 20
-11.81439265946934
 30
0.0
  0
VERTEX
  5
451
  8
LAYER_1
 10
127.1149567031958
 20
-11.81223911009902
 30
0.0
  0
VERTEX
  5
452
  8
LAYER_1
 10
127.0991418333017
 20
-11.81055387344438
 30
0.0
  0
VERTEX
  5
453
  8
LAYER_1
 10
127.0832165009534
 20
-11.80934283999263
 30
0.0
  0
VERTEX
  5
454
  8
LAYER_1
 10
127.0671856148902
 20
-11.80861190023096
 30
0.0
  0
VERTEX
  5
455
  8
LAYER_1
 10
127.0510540838513
 20
-11.80836694464658
 30
0.0
  0
VERTEX
  5
456
  8
LAYER_1
 10
127.0349225528125
 20
-11.80861190023096
 30
0.0
  0
VERTEX
  5
457
  8
LAYER_1
 10
127.0188916667492
 20
-11.80934283999263
 30
0.0
  0
VERTEX
  5
458
  8
LAYER_1
 10
127.0029663344009
 20
-11.81055387344438
 30
0.0
  0
VERTEX
  5
459
  8
LAYER_1
 10
126.9871514645069
 20
-11.81223911009902
 30
0.0
  0
VERTEX
  5
45A
  8
LAYER_1
 10
126.9714519658064
 20
-11.81439265946934
 30
0.0
  0
VERTEX
  5
45B
  8
LAYER_1
 10
126.9558727470389
 20
-11.81700863106814
 30
0.0
  0
VERTEX
  5
45C
  8
LAYER_1
 10
126.9404187169437
 20
-11.82008113440822
 30
0.0
  0
VERTEX
  5
45D
  8
LAYER_1
 10
126.9250947842601
 20
-11.82360427900237
 30
0.0
  0
VERTEX
  5
45E
  8
LAYER_1
 10
126.9099058577274
 20
-11.82757217436339
 30
0.0
  0
VERTEX
  5
45F
  8
LAYER_1
 10
126.894856846085
 20
-11.83197893000407
 30
0.0
  0
VERTEX
  5
460
  8
LAYER_1
 10
126.8799526580723
 20
-11.83681865543723
 30
0.0
  0
VERTEX
  5
461
  8
LAYER_1
 10
126.8651982024285
 20
-11.84208546017564
 30
0.0
  0
VERTEX
  5
462
  8
LAYER_1
 10
126.850598387893
 20
-11.84777345373211
 30
0.0
  0
VERTEX
  5
463
  8
LAYER_1
 10
126.8361581232051
 20
-11.85387674561944
 30
0.0
  0
VERTEX
  5
464
  8
LAYER_1
 10
126.8218823171042
 20
-11.86038944535043
 30
0.0
  0
VERTEX
  5
465
  8
LAYER_1
 10
126.8077758783295
 20
-11.86730566243786
 30
0.0
  0
VERTEX
  5
466
  8
LAYER_1
 10
126.7938437156205
 20
-11.87461950639454
 30
0.0
  0
VERTEX
  5
467
  8
LAYER_1
 10
126.7800907377165
 20
-11.88232508673327
 30
0.0
  0
VERTEX
  5
468
  8
LAYER_1
 10
126.7665218533567
 20
-11.89041651296684
 30
0.0
  0
VERTEX
  5
469
  8
LAYER_1
 10
126.7531419712807
 20
-11.89888789460805
 30
0.0
  0
VERTEX
  5
46A
  8
LAYER_1
 10
126.7399560002276
 20
-11.9077333411697
 30
0.0
  0
VERTEX
  5
46B
  8
LAYER_1
 10
126.7269688489367
 20
-11.91694696216458
 30
0.0
  0
VERTEX
  5
46C
  8
LAYER_1
 10
126.7141854261476
 20
-11.9265228671055
 30
0.0
  0
VERTEX
  5
46D
  8
LAYER_1
 10
126.7016106405994
 20
-11.93645516550524
 30
0.0
  0
VERTEX
  5
46E
  8
LAYER_1
 10
126.6892494010316
 20
-11.9467379668766
 30
0.0
  0
VERTEX
  5
46F
  8
LAYER_1
 10
126.6771066161834
 20
-11.95736538073239
 30
0.0
  0
VERTEX
  5
470
  8
LAYER_1
 10
126.6651871947942
 20
-11.9683315165854
 30
0.0
  0
VERTEX
  5
471
  8
LAYER_1
 10
126.6534960456033
 20
-11.97963048394843
 30
0.0
  0
VERTEX
  5
472
  8
LAYER_1
 10
126.6420380773501
 20
-11.99125639233428
 30
0.0
  0
VERTEX
  5
473
  8
LAYER_1
 10
126.6308181987738
 20
-12.00320335125573
 30
0.0
  0
VERTEX
  5
474
  8
LAYER_1
 10
126.6198413186139
 20
-12.0154654702256
 30
0.0
  0
VERTEX
  5
475
  8
LAYER_1
 10
126.6091123456097
 20
-12.02803685875667
 30
0.0
  0
VERTEX
  5
476
  8
LAYER_1
 10
126.5986361885005
 20
-12.04091162636174
 30
0.0
  0
VERTEX
  5
477
  8
LAYER_1
 10
126.5884177560256
 20
-12.05408388255362
 30
0.0
  0
VERTEX
  5
478
  8
LAYER_1
 10
126.5784619569244
 20
-12.06754773684509
 30
0.0
  0
VERTEX
  5
479
  8
LAYER_1
 10
126.5687736999362
 20
-12.08129729874896
 30
0.0
  0
VERTEX
  5
47A
  8
LAYER_1
 10
126.5593578938003
 20
-12.09532667777802
 30
0.0
  0
VERTEX
  5
47B
  8
LAYER_1
 10
126.5502194472561
 20
-12.10962998344508
 30
0.0
  0
VERTEX
  5
47C
  8
LAYER_1
 10
126.541363269043
 20
-12.12420132526291
 30
0.0
  0
VERTEX
  5
47D
  8
LAYER_1
 10
126.5327942679002
 20
-12.13903481274434
 30
0.0
  0
VERTEX
  5
47E
  8
LAYER_1
 10
126.5245173525671
 20
-12.15412455540214
 30
0.0
  0
VERTEX
  5
47F
  8
LAYER_1
 10
126.516537431783
 20
-12.16946466274913
 30
0.0
  0
VERTEX
  5
480
  8
LAYER_1
 10
126.5088594142872
 20
-12.18504924429809
 30
0.0
  0
VERTEX
  5
481
  8
LAYER_1
 10
126.5014882088192
 20
-12.20087240956182
 30
0.0
  0
VERTEX
  5
482
  8
LAYER_1
 10
126.4944287241182
 20
-12.21692826805312
 30
0.0
  0
VERTEX
  5
483
  8
LAYER_1
 10
126.4876858689236
 20
-12.23321092928479
 30
0.0
  0
VERTEX
  5
484
  8
LAYER_1
 10
126.4812645519746
 20
-12.24971450276963
 30
0.0
  0
VERTEX
  5
485
  8
LAYER_1
 10
126.4751696820107
 20
-12.26643309802043
 30
0.0
  0
VERTEX
  5
486
  8
LAYER_1
 10
126.4694061677712
 20
-12.28336082454998
 30
0.0
  0
VERTEX
  5
487
  8
LAYER_1
 10
126.4639789179954
 20
-12.3004917918711
 30
0.0
  0
VERTEX
  5
488
  8
LAYER_1
 10
126.4588928414226
 20
-12.31782010949657
 30
0.0
  0
VERTEX
  5
489
  8
LAYER_1
 10
126.4541528467922
 20
-12.33533988693919
 30
0.0
  0
VERTEX
  5
48A
  8
LAYER_1
 10
126.4497638428435
 20
-12.35304523371175
 30
0.0
  0
VERTEX
  5
48B
  8
LAYER_1
 10
126.4457307383159
 20
-12.37093025932707
 30
0.0
  0
VERTEX
  5
48C
  8
LAYER_1
 10
126.4420584419487
 20
-12.38898907329792
 30
0.0
  0
VERTEX
  5
48D
  8
LAYER_1
 10
126.4387518624811
 20
-12.40721578513712
 30
0.0
  0
VERTEX
  5
48E
  8
LAYER_1
 10
126.4358159086527
 20
-12.42560450435745
 30
0.0
  0
VERTEX
  5
48F
  8
LAYER_1
 10
126.4332554892026
 20
-12.44414934047171
 30
0.0
  0
VERTEX
  5
490
  8
LAYER_1
 10
126.4310755128703
 20
-12.46284440299271
 30
0.0
  0
VERTEX
  5
491
  8
LAYER_1
 10
126.429280888395
 20
-12.48168380143324
 30
0.0
  0
VERTEX
  5
492
  8
LAYER_1
 10
126.4278765245162
 20
-12.50066164530609
 30
0.0
  0
VERTEX
  5
493
  8
LAYER_1
 10
126.426867329973
 20
-12.51977204412407
 30
0.0
  0
VERTEX
  5
494
  8
LAYER_1
 10
126.426258213505
 20
-12.53900910739996
 30
0.0
  0
VERTEX
  5
495
  8
LAYER_1
 10
126.4260540838513
 20
-12.55836694464658
 30
0.0
  0
VERTEX
  5
496
  8
LAYER_1
 10
126.426258213505
 20
-12.57772478189319
 30
0.0
  0
VERTEX
  5
497
  8
LAYER_1
 10
126.426867329973
 20
-12.59696184516909
 30
0.0
  0
VERTEX
  5
498
  8
LAYER_1
 10
126.4278765245162
 20
-12.61607224398707
 30
0.0
  0
VERTEX
  5
499
  8
LAYER_1
 10
126.429280888395
 20
-12.63505008785992
 30
0.0
  0
VERTEX
  5
49A
  8
LAYER_1
 10
126.4310755128703
 20
-12.65388948630045
 30
0.0
  0
VERTEX
  5
49B
  8
LAYER_1
 10
126.4332554892026
 20
-12.67258454882144
 30
0.0
  0
VERTEX
  5
49C
  8
LAYER_1
 10
126.4358159086527
 20
-12.69112938493571
 30
0.0
  0
VERTEX
  5
49D
  8
LAYER_1
 10
126.4387518624811
 20
-12.70951810415604
 30
0.0
  0
VERTEX
  5
49E
  8
LAYER_1
 10
126.4420584419487
 20
-12.72774481599524
 30
0.0
  0
VERTEX
  5
49F
  8
LAYER_1
 10
126.4457307383159
 20
-12.74580362996609
 30
0.0
  0
VERTEX
  5
4A0
  8
LAYER_1
 10
126.4497638428435
 20
-12.7636886555814
 30
0.0
  0
VERTEX
  5
4A1
  8
LAYER_1
 10
126.4541528467922
 20
-12.78139400235397
 30
0.0
  0
VERTEX
  5
4A2
  8
LAYER_1
 10
126.4588928414226
 20
-12.79891377979659
 30
0.0
  0
VERTEX
  5
4A3
  8
LAYER_1
 10
126.4639789179954
 20
-12.81624209742206
 30
0.0
  0
VERTEX
  5
4A4
  8
LAYER_1
 10
126.4694061677712
 20
-12.83337306474317
 30
0.0
  0
VERTEX
  5
4A5
  8
LAYER_1
 10
126.4751696820107
 20
-12.85030079127273
 30
0.0
  0
VERTEX
  5
4A6
  8
LAYER_1
 10
126.4812645519746
 20
-12.86701938652353
 30
0.0
  0
VERTEX
  5
4A7
  8
LAYER_1
 10
126.4876858689236
 20
-12.88352296000836
 30
0.0
  0
VERTEX
  5
4A8
  8
LAYER_1
 10
126.4944287241182
 20
-12.89980562124003
 30
0.0
  0
VERTEX
  5
4A9
  8
LAYER_1
 10
126.5014882088192
 20
-12.91586147973134
 30
0.0
  0
VERTEX
  5
4AA
  8
LAYER_1
 10
126.5088594142872
 20
-12.93168464499507
 30
0.0
  0
VERTEX
  5
4AB
  8
LAYER_1
 10
126.516537431783
 20
-12.94726922654403
 30
0.0
  0
VERTEX
  5
4AC
  8
LAYER_1
 10
126.5245173525671
 20
-12.96260933389101
 30
0.0
  0
VERTEX
  5
4AD
  8
LAYER_1
 10
126.5327942679002
 20
-12.97769907654882
 30
0.0
  0
VERTEX
  5
4AE
  8
LAYER_1
 10
126.541363269043
 20
-12.99253256403024
 30
0.0
  0
VERTEX
  5
4AF
  8
LAYER_1
 10
126.5502194472561
 20
-13.00710390584808
 30
0.0
  0
VERTEX
  5
4B0
  8
LAYER_1
 10
126.5593578938003
 20
-13.02140721151513
 30
0.0
  0
VERTEX
  5
4B1
  8
LAYER_1
 10
126.5687736999362
 20
-13.0354365905442
 30
0.0
  0
VERTEX
  5
4B2
  8
LAYER_1
 10
126.5784619569244
 20
-13.04918615244807
 30
0.0
  0
VERTEX
  5
4B3
  8
LAYER_1
 10
126.5884177560256
 20
-13.06265000673954
 30
0.0
  0
VERTEX
  5
4B4
  8
LAYER_1
 10
126.5986361885005
 20
-13.07582226293142
 30
0.0
  0
VERTEX
  5
4B5
  8
LAYER_1
 10
126.6091123456097
 20
-13.08869703053649
 30
0.0
  0
VERTEX
  5
4B6
  8
LAYER_1
 10
126.6198413186139
 20
-13.10126841906756
 30
0.0
  0
VERTEX
  5
4B7
  8
LAYER_1
 10
126.6308181987738
 20
-13.11353053803743
 30
0.0
  0
VERTEX
  5
4B8
  8
LAYER_1
 10
126.6420380773501
 20
-13.12547749695888
 30
0.0
  0
VERTEX
  5
4B9
  8
LAYER_1
 10
126.6534960456033
 20
-13.13710340534472
 30
0.0
  0
VERTEX
  5
4BA
  8
LAYER_1
 10
126.6651871947942
 20
-13.14840237270775
 30
0.0
  0
VERTEX
  5
4BB
  8
LAYER_1
 10
126.6771066161834
 20
-13.15936850856076
 30
0.0
  0
VERTEX
  5
4BC
  8
LAYER_1
 10
126.6892494010316
 20
-13.16999592241655
 30
0.0
  0
VERTEX
  5
4BD
  8
LAYER_1
 10
126.7016106405994
 20
-13.18027872378792
 30
0.0
  0
VERTEX
  5
4BE
  8
LAYER_1
 10
126.7141854261476
 20
-13.19021102218766
 30
0.0
  0
VERTEX
  5
4BF
  8
LAYER_1
 10
126.7269688489367
 20
-13.19978692712858
 30
0.0
  0
VERTEX
  5
4C0
  8
LAYER_1
 10
126.7399560002276
 20
-13.20900054812346
 30
0.0
  0
VERTEX
  5
4C1
  8
LAYER_1
 10
126.7531419712807
 20
-13.21784599468511
 30
0.0
  0
VERTEX
  5
4C2
  8
LAYER_1
 10
126.7665218533567
 20
-13.22631737632632
 30
0.0
  0
VERTEX
  5
4C3
  8
LAYER_1
 10
126.7800907377165
 20
-13.23440880255989
 30
0.0
  0
VERTEX
  5
4C4
  8
LAYER_1
 10
126.7938437156205
 20
-13.24211438289861
 30
0.0
  0
VERTEX
  5
4C5
  8
LAYER_1
 10
126.8077758783295
 20
-13.2494282268553
 30
0.0
  0
VERTEX
  5
4C6
  8
LAYER_1
 10
126.8218823171042
 20
-13.25634444394273
 30
0.0
  0
VERTEX
  5
4C7
  8
LAYER_1
 10
126.8361581232051
 20
-13.26285714367371
 30
0.0
  0
VERTEX
  5
4C8
  8
LAYER_1
 10
126.850598387893
 20
-13.26896043556104
 30
0.0
  0
VERTEX
  5
4C9
  8
LAYER_1
 10
126.8651982024285
 20
-13.27464842911752
 30
0.0
  0
VERTEX
  5
4CA
  8
LAYER_1
 10
126.8799526580723
 20
-13.27991523385593
 30
0.0
  0
VERTEX
  5
4CB
  8
LAYER_1
 10
126.894856846085
 20
-13.28475495928908
 30
0.0
  0
VERTEX
  5
4CC
  8
LAYER_1
 10
126.9099058577274
 20
-13.28916171492977
 30
0.0
  0
VERTEX
  5
4CD
  8
LAYER_1
 10
126.9250947842601
 20
-13.29312961029079
 30
0.0
  0
VERTEX
  5
4CE
  8
LAYER_1
 10
126.9404187169437
 20
-13.29665275488494
 30
0.0
  0
VERTEX
  5
4CF
  8
LAYER_1
 10
126.9558727470389
 20
-13.29972525822501
 30
0.0
  0
VERTEX
  5
4D0
  8
LAYER_1
 10
126.9714519658064
 20
-13.30234122982381
 30
0.0
  0
VERTEX
  5
4D1
  8
LAYER_1
 10
126.9871514645069
 20
-13.30449477919414
 30
0.0
  0
VERTEX
  5
4D2
  8
LAYER_1
 10
127.0029663344009
 20
-13.30618001584877
 30
0.0
  0
VERTEX
  5
4D3
  8
LAYER_1
 10
127.0188916667492
 20
-13.30739104930053
 30
0.0
  0
VERTEX
  5
4D4
  8
LAYER_1
 10
127.0349225528125
 20
-13.3081219890622
 30
0.0
  0
SEQEND
  5
86F
  8
LAYER_1
  0
POLYLINE
  5
B7
  8
LAYER_1
 66
     1
 10
0.0
 20
0.0
 30
0.0
 70
     1
  0
VERTEX
  5
4D5
  8
LAYER_1
 10
71.69302684223233
 20
43.11352178988116
 30
0.0
  0
VERTEX
  5
4D6
  8
LAYER_1
 10
95.13052684223233
 20
43.11352178988116
 30
0.0
  0
VERTEX
  5
4D7
  8
LAYER_1
 10
95.13052684223233
 20
47.11352178988116
 30
0.0
  0
VERTEX
  5
4D8
  8
LAYER_1
 10
71.69302684223233
 20
47.11352178988116
 30
0.0
  0
SEQEND
  5
870
  8
LAYER_1
  0
POLYLINE
  5
B8
  8
LAYER_1
 66
     1
 10
0.0
 20
0.0
 30
0.0
 70
     1
  0
VERTEX
  5
4D9
  8
LAYER_1
 10
71.63052684223233
 20
42.98852178988116
 30
0.0
  0
VERTEX
  5
4DA
  8
LAYER_1
 10
71.94302684223233
 20
42.98852178988116
 30
0.0
  0
VERTEX
  5
4DB
  8
LAYER_1
 10
71.94302684223233
 20
47.23852178988116
 30
0.0
  0
VERTEX
  5
4DC
  8
LAYER_1
 10
71.63052684223233
 20
47.23852178988116
 30
0.0
  0
SEQEND
  5
871
  8
LAYER_1
  0
POLYLINE
  5
B9
  8
LAYER_1
 66
     1
 10
0.0
 20
0.0
 30
0.0
 70
     1
  0
VERTEX
  5
4DD
  8
LAYER_1
 10
71.63052684223233
 20
42.98852178988116
 30
0.0
  0
VERTEX
  5
4DE
  8
LAYER_1
 10
71.94302684223233
 20
42.98852178988116
 30
0.0
  0
VERTEX
  5
4DF
  8
LAYER_1
 10
71.94302684223233
 20
43.92602178988116
 30
0.0
  0
VERTEX
  5
4E0
  8
LAYER_1
 10
71.63052684223233
 20
43.92602178988116
 30
0.0
  0
SEQEND
  5
872
  8
LAYER_1
  0
POLYLINE
  5
BA
  8
LAYER_1
 66
     1
 10
0.0
 20
0.0
 30
0.0
 70
     1
  0
VERTEX
  5
4E1
  8
LAYER_1
 10
94.88052684223233
 20
42.98852178988116
 30
0.0
  0
VERTEX
  5
4E2
  8
LAYER_1
 10
95.19302684223233
 20
42.98852178988116
 30
0.0
  0
VERTEX
  5
4E3
  8
LAYER_1
 10
95.19302684223233
 20
43.92602178988116
 30
0.0
  0
VERTEX
  5
4E4
  8
LAYER_1
 10
94.88052684223233
 20
43.92602178988116
 30
0.0
  0
SEQEND
  5
873
  8
LAYER_1
  0
POLYLINE
  5
BB
  8
LAYER_1
 66
     1
 10
0.0
 20
0.0
 30
0.0
 70
     1
  0
VERTEX
  5
4E5
  8
LAYER_1
 10
94.88052684223233
 20
42.98852178988116
 30
0.0
  0
VERTEX
  5
4E6
  8
LAYER_1
 10
95.19302684223233
 20
42.98852178988116
 30
0.0
  0
VERTEX
  5
4E7
  8
LAYER_1
 10
95.19302684223233
 20
47.23852178988116
 30
0.0
  0
VERTEX
  5
4E8
  8
LAYER_1
 10
94.88052684223233
 20
47.23852178988116
 30
0.0
  0
SEQEND
  5
874
  8
LAYER_1
  0
POLYLINE
  5
BC
  8
LAYER_1
 66
     1
 10
0.0
 20
0.0
 30
0.0
 70
     1
  0
VERTEX
  5
4E9
  8
LAYER_1
 10
74.81310482246705
 20
35.57816045572429
 30
0.0
  0
VERTEX
  5
4EA
  8
LAYER_1
 10
94.81310482246705
 20
35.57816045572429
 30
0.0
  0
VERTEX
  5
4EB
  8
LAYER_1
 10
94.81310482246705
 20
37.57816045572429
 30
0.0
  0
VERTEX
  5
4EC
  8
LAYER_1
 10
74.81310482246705
 20
37.57816045572429
 30
0.0
  0
SEQEND
  5
875
  8
LAYER_1
  0
POLYLINE
  5
BD
  8
LAYER_1
 66
     1
 10
0.0
 20
0.0
 30
0.0
 70
     1
  0
VERTEX
  5
4ED
  8
LAYER_1
 10
74.81310482246705
 20
39.27257058543398
 30
0.0
  0
VERTEX
  5
4EE
  8
LAYER_1
 10
94.81310482246705
 20
39.27257058543398
 30
0.0
  0
VERTEX
  5
4EF
  8
LAYER_1
 10
94.81310482246705
 20
41.27257058543398
 30
0.0
  0
VERTEX
  5
4F0
  8
LAYER_1
 10
74.81310482246705
 20
41.27257058543398
 30
0.0
  0
SEQEND
  5
876
  8
LAYER_1
  0
POLYLINE
  5
BE
  8
LAYER_1
 66
     1
 10
0.0
 20
0.0
 30
0.0
 70
     1
  0
VERTEX
  5
4F1
  8
LAYER_1
 10
74.46696136971845
 20
33.02071758975765
 30
0.0
  0
VERTEX
  5
4F2
  8
LAYER_1
 10
94.90446136971845
 20
33.02071758975765
 30
0.0
  0
VERTEX
  5
4F3
  8
LAYER_1
 10
94.90446136971845
 20
34.02071758975765
 30
0.0
  0
VERTEX
  5
4F4
  8
LAYER_1
 10
74.46696136971845
 20
34.02071758975765
 30
0.0
  0
SEQEND
  5
877
  8
LAYER_1
  0
POLYLINE
  5
BF
  8
LAYER_1
 66
     1
 10
0.0
 20
0.0
 30
0.0
 70
     1
  0
VERTEX
  5
4F5
  8
LAYER_1
 10
71.50961571741892
 20
27.33785274991527
 30
0.0
  0
VERTEX
  5
4F6
  8
LAYER_1
 10
71.82211571741892
 20
27.33785274991527
 30
0.0
  0
VERTEX
  5
4F7
  8
LAYER_1
 10
71.82211571741892
 20
31.46285274991527
 30
0.0
  0
VERTEX
  5
4F8
  8
LAYER_1
 10
71.50961571741892
 20
31.46285274991527
 30
0.0
  0
SEQEND
  5
878
  8
LAYER_1
  0
POLYLINE
  5
C0
  8
LAYER_1
 66
     1
 10
0.0
 20
0.0
 30
0.0
 70
     1
  0
VERTEX
  5
4F9
  8
LAYER_1
 10
94.75961571741892
 20
27.33785274991527
 30
0.0
  0
VERTEX
  5
4FA
  8
LAYER_1
 10
95.07211571741892
 20
27.33785274991527
 30
0.0
  0
VERTEX
  5
4FB
  8
LAYER_1
 10
95.07211571741892
 20
31.46285274991527
 30
0.0
  0
VERTEX
  5
4FC
  8
LAYER_1
 10
94.75961571741892
 20
31.46285274991527
 30
0.0
  0
SEQEND
  5
879
  8
LAYER_1
  0
POLYLINE
  5
C1
  8
LAYER_1
 66
     1
 10
0.0
 20
0.0
 30
0.0
 70
     1
  0
VERTEX
  5
4FD
  8
LAYER_1
 10
94.75961571741892
 20
27.33785274991527
 30
0.0
  0
VERTEX
  5
4FE
  8
LAYER_1
 10
95.07211571741892
 20
27.33785274991527
 30
0.0
  0
VERTEX
  5
4FF
  8
LAYER_1
 10
95.07211571741892
 20
28.08785274991527
 30
0.0
  0
VERTEX
  5
500
  8
LAYER_1
 10
94.75961571741892
 20
28.08785274991527
 30
0.0
  0
SEQEND
  5
87A
  8
LAYER_1
  0
POLYLINE
  5
C2
  8
LAYER_1
 66
     1
 10
0.0
 20
0.0
 30
0.0
 70
     1
  0
VERTEX
  5
501
  8
LAYER_1
 10
71.50961571741892
 20
27.33785274991527
 30
0.0
  0
VERTEX
  5
502
  8
LAYER_1
 10
71.82211571741892
 20
27.33785274991527
 30
0.0
  0
VERTEX
  5
503
  8
LAYER_1
 10
71.82211571741892
 20
28.08785274991527
 30
0.0
  0
VERTEX
  5
504
  8
LAYER_1
 10
71.50961571741892
 20
28.08785274991527
 30
0.0
  0
SEQEND
  5
87B
  8
LAYER_1
  0
POLYLINE
  5
C3
  8
LAYER_1
 66
     1
 10
0.0
 20
0.0
 30
0.0
 70
     1
  0
VERTEX
  5
505
  8
LAYER_1
 10
84.41590980870866
 20
27.46285274991527
 30
0.0
  0
VERTEX
  5
506
  8
LAYER_1
 10
95.00961571741892
 20
27.46285274991527
 30
0.0
  0
VERTEX
  5
507
  8
LAYER_1
 10
95.00961571741892
 20
31.33785274991527
 30
0.0
  0
VERTEX
  5
508
  8
LAYER_1
 10
71.57211571741892
 20
31.33785274991527
 30
0.0
  0
VERTEX
  5
509
  8
LAYER_1
 10
71.57211571741892
 20
27.46285274991527
 30
0.0
  0
VERTEX
  5
50A
  8
LAYER_1
 10
82.1658552077149
 20
27.46285274991527
 30
0.0
  0
VERTEX
  5
50B
  8
LAYER_1
 10
82.16586571741892
 20
28.46285274991527
 30
0.0
  0
VERTEX
  5
50C
  8
LAYER_1
 10
84.41586571741892
 20
28.46285274991527
 30
0.0
  0
VERTEX
  5
50D
  8
LAYER_1
 10
84.41586571741892
 20
27.46285274991527
 30
0.0
  0
SEQEND
  5
87C
  8
LAYER_1
  0
POLYLINE
  5
C4
  8
LAYER_1
 66
     1
 10
0.0
 20
0.0
 30
0.0
 70
     1
  0
VERTEX
  5
50E
  8
LAYER_1
 10
71.4324478242708
 20
0.7614782101188382
 30
0.0
  0
VERTEX
  5
50F
  8
LAYER_1
 10
71.7449478242708
 20
0.7614782101188382
 30
0.0
  0
VERTEX
  5
510
  8
LAYER_1
 10
71.7449478242708
 20
26.32397821011884
 30
0.0
  0
VERTEX
  5
511
  8
LAYER_1
 10
71.4324478242708
 20
26.32397821011884
 30
0.0
  0
SEQEND
  5
87D
  8
LAYER_1
  0
POLYLINE
  5
C5
  8
LAYER_1
 66
     1
 10
0.0
 20
0.0
 30
0.0
 70
     1
  0
VERTEX
  5
512
  8
LAYER_1
 10
75.3074478242708
 20
4.511478210118838
 30
0.0
 42
0.4142135623730951
  0
VERTEX
  5
513
  8
LAYER_1
 10
76.0574478242708
 20
3.761478210118838
 30
0.0
  0
VERTEX
  5
514
  8
LAYER_1
 10
81.8074478242708
 20
3.761478210118838
 30
0.0
 42
0.4142135623730951
  0
VERTEX
  5
515
  8
LAYER_1
 10
82.5574478242708
 20
4.511478210118838
 30
0.0
  0
VERTEX
  5
516
  8
LAYER_1
 10
82.5574478242708
 20
22.82397821011884
 30
0.0
 42
0.4142135623730951
  0
VERTEX
  5
517
  8
LAYER_1
 10
81.8074478242708
 20
23.57397821011884
 30
0.0
  0
VERTEX
  5
518
  8
LAYER_1
 10
76.0574478242708
 20
23.57397821011884
 30
0.0
 42
0.4142135623730951
  0
VERTEX
  5
519
  8
LAYER_1
 10
75.3074478242708
 20
22.82397821011884
 30
0.0
  0
SEQEND
  5
87E
  8
LAYER_1
  0
POLYLINE
  5
C6
  8
LAYER_1
 66
     1
 10
0.0
 20
0.0
 30
0.0
 70
     1
  0
VERTEX
  5
51A
  8
LAYER_1
 10
94.91603575368039
 20
3.856236161539755
 30
0.0
  0
VERTEX
  5
51B
  8
LAYER_1
 10
89.47879190449909
 20
3.856236161539755
 30
0.0
  0
VERTEX
  5
51C
  8
LAYER_1
 10
89.47853575368039
 20
3.856236161539755
 30
0.0
  0
VERTEX
  5
51D
  8
LAYER_1
 10
89.47748084081
 20
3.856236717960485
 30
0.0
  0
VERTEX
  5
51E
  8
LAYER_1
 10
89.47879190449909
 20
3.856236161539762
 30
0.0
  0
VERTEX
  5
51F
  8
LAYER_1
 10
89.47853575368039
 20
3.856236161539762
 30
0.0
  0
VERTEX
  5
520
  8
LAYER_1
 10
89.47748084081
 20
3.856236717960492
 30
0.0
 42
-0.4139046192313456
  0
VERTEX
  5
521
  8
LAYER_1
 10
88.47853575368039
 20
4.858559450188118
 30
0.0
  0
VERTEX
  5
522
  8
LAYER_1
 10
88.47799896858605
 20
11.77038630260737
 30
0.0
  0
VERTEX
  5
523
  8
LAYER_1
 10
88.47853575368039
 20
11.85116293792355
 30
0.0
  0
VERTEX
  5
524
  8
LAYER_1
 10
88.47853575368042
 20
22.54306285486943
 30
0.0
 42
-0.4142135623730951
  0
VERTEX
  5
525
  8
LAYER_1
 10
89.47853575368039
 20
23.54373616153975
 30
0.0
  0
VERTEX
  5
526
  8
LAYER_1
 10
89.58098307325996
 20
23.54373616153975
 30
0.0
  0
VERTEX
  5
527
  8
LAYER_1
 10
94.91603575368039
 20
23.54373616153975
 30
0.0
  0
VERTEX
  5
528
  8
LAYER_1
 10
94.9324478242708
 20
23.54412778140941
 30
0.0
  0
VERTEX
  5
529
  8
LAYER_1
 10
94.9324478242708
 20
26.19897821011884
 30
0.0
  0
VERTEX
  5
52A
  8
LAYER_1
 10
71.4949478242708
 20
26.19897821011884
 30
0.0
  0
VERTEX
  5
52B
  8
LAYER_1
 10
71.4949478242708
 20
0.8864782101188382
 30
0.0
  0
VERTEX
  5
52C
  8
LAYER_1
 10
94.9324478242708
 20
0.8864782101188382
 30
0.0
  0
VERTEX
  5
52D
  8
LAYER_1
 10
94.9324478242708
 20
3.855376521876984
 30
0.0
  0
SEQEND
  5
87F
  8
LAYER_1
  0
POLYLINE
  5
C7
  8
LAYER_1
 66
     1
 10
0.0
 20
0.0
 30
0.0
 70
     1
  0
VERTEX
  5
52E
  8
LAYER_1
 10
94.6824478242708
 20
0.7614782101188382
 30
0.0
  0
VERTEX
  5
52F
  8
LAYER_1
 10
94.9949478242708
 20
0.7614782101188382
 30
0.0
  0
VERTEX
  5
530
  8
LAYER_1
 10
94.9949478242708
 20
4.011478210118838
 30
0.0
  0
VERTEX
  5
531
  8
LAYER_1
 10
94.6824478242708
 20
4.011478210118838
 30
0.0
  0
SEQEND
  5
880
  8
LAYER_1
  0
POLYLINE
  5
C8
  8
LAYER_1
 66
     1
 10
0.0
 20
0.0
 30
0.0
 70
     1
  0
VERTEX
  5
532
  8
LAYER_1
 10
94.6824478242708
 20
23.44647821011884
 30
0.0
  0
VERTEX
  5
533
  8
LAYER_1
 10
94.9949478242708
 20
23.44647821011884
 30
0.0
  0
VERTEX
  5
534
  8
LAYER_1
 10
94.9949478242708
 20
26.32147821011884
 30
0.0
  0
VERTEX
  5
535
  8
LAYER_1
 10
94.6824478242708
 20
26.32147821011884
 30
0.0
  0
SEQEND
  5
881
  8
LAYER_1
  0
POLYLINE
  5
C9
  8
LAYER_1
 66
     1
 10
0.0
 20
0.0
 30
0.0
 70
     1
  0
VERTEX
  5
536
  8
LAYER_1
 10
87.3074478242708
 20
6.761978210118841
 30
0.0
 42
0.4142135623730951
  0
VERTEX
  5
537
  8
LAYER_1
 10
87.18194782427078
 20
6.636478210118838
 30
0.0
 42
0.4142135623730951
  0
VERTEX
  5
538
  8
LAYER_1
 10
87.3074478242708
 20
6.510978210118836
 30
0.0
 42
0.4142135623730951
  0
VERTEX
  5
539
  8
LAYER_1
 10
87.43294782427078
 20
6.636478210118838
 30
0.0
 42
0.4142135623730951
  0
SEQEND
  5
882
  8
LAYER_1
  0
POLYLINE
  5
CA
  8
LAYER_1
 66
     1
 10
0.0
 20
0.0
 30
0.0
 70
     1
  0
VERTEX
  5
53A
  8
LAYER_1
 10
87.3074478242708
 20
14.07447821011884
 30
0.0
 42
0.4142135623730951
  0
VERTEX
  5
53B
  8
LAYER_1
 10
87.18194782427078
 20
13.94897821011884
 30
0.0
 42
0.4142135623730951
  0
VERTEX
  5
53C
  8
LAYER_1
 10
87.3074478242708
 20
13.82347821011884
 30
0.0
 42
0.4142135623730951
  0
VERTEX
  5
53D
  8
LAYER_1
 10
87.43294782427078
 20
13.94897821011884
 30
0.0
 42
0.4142135623730951
  0
SEQEND
  5
883
  8
LAYER_1
  0
POLYLINE
  5
CB
  8
LAYER_1
 66
     1
 10
0.0
 20
0.0
 30
0.0
 70
     1
  0
VERTEX
  5
53E
  8
LAYER_1
 10
87.3074478242708
 20
21.32447821011884
 30
0.0
 42
0.4142135623730951
  0
VERTEX
  5
53F
  8
LAYER_1
 10
87.18194782427078
 20
21.19897821011884
 30
0.0
 42
0.4142135623730951
  0
VERTEX
  5
540
  8
LAYER_1
 10
87.3074478242708
 20
21.07347821011884
 30
0.0
 42
0.4142135623730951
  0
VERTEX
  5
541
  8
LAYER_1
 10
87.43294782427078
 20
21.19897821011884
 30
0.0
 42
0.4142135623730951
  0
SEQEND
  5
884
  8
LAYER_1
  0
POLYLINE
  5
CC
  8
LAYER_1
 66
     1
 10
0.0
 20
0.0
 30
0.0
 70
     1
  0
VERTEX
  5
542
  8
LAYER_1
 10
71.3699478242708
 20
0.8239782101188382
 30
0.0
  0
VERTEX
  5
543
  8
LAYER_1
 10
94.9949478242708
 20
0.8239782101188382
 30
0.0
  0
VERTEX
  5
544
  8
LAYER_1
 10
94.9949478242708
 20
1.261478210118838
 30
0.0
  0
VERTEX
  5
545
  8
LAYER_1
 10
71.3699478242708
 20
1.261478210118838
 30
0.0
  0
SEQEND
  5
885
  8
LAYER_1
  0
POLYLINE
  5
CD
  8
LAYER_1
 66
     1
 10
0.0
 20
0.0
 30
0.0
 70
     1
  0
VERTEX
  5
546
  8
LAYER_1
 10
32.08124471686371
 20
36.2461585220482
 30
0.0
  0
VERTEX
  5
547
  8
LAYER_1
 10
32.08122963792683
 20
36.74614631704647
 30
0.0
  0
VERTEX
  5
548
  8
LAYER_1
 10
32.08122963792683
 20
38.24614631704647
 30
0.0
 42
0.4142135623730951
  0
VERTEX
  5
549
  8
LAYER_1
 10
31.58122963792683
 20
38.74614631704647
 30
0.0
  0
VERTEX
  5
54A
  8
LAYER_1
 10
31.20622963792683
 20
38.74614631704647
 30
0.0
 42
0.4142135623730951
  0
VERTEX
  5
54B
  8
LAYER_1
 10
30.70622963792683
 20
38.24614631704647
 30
0.0
  0
VERTEX
  5
54C
  8
LAYER_1
 10
30.70622963792683
 20
36.74614631704647
 30
0.0
  0
VERTEX
  5
54D
  8
LAYER_1
 10
30.70622963792683
 20
36.24617647978209
 30
0.0
  0
VERTEX
  5
54E
  8
LAYER_1
 10
30.70619894055232
 20
36.24614631704647
 30
0.0
  0
VERTEX
  5
54F
  8
LAYER_1
 10
29.64373799455456
 20
36.24616443163802
 30
0.0
  0
VERTEX
  5
550
  8
LAYER_1
 10
29.64372963792683
 20
36.74614631704647
 30
0.0
  0
VERTEX
  5
551
  8
LAYER_1
 10
29.64372963792683
 20
38.24614631704647
 30
0.0
 42
0.4142135623730951
  0
VERTEX
  5
552
  8
LAYER_1
 10
29.14372963792683
 20
38.74614631704647
 30
0.0
  0
VERTEX
  5
553
  8
LAYER_1
 10
28.76872963792683
 20
38.74614631704647
 30
0.0
 42
0.4142135623730951
  0
VERTEX
  5
554
  8
LAYER_1
 10
28.26872963792683
 20
38.24614631704647
 30
0.0
  0
VERTEX
  5
555
  8
LAYER_1
 10
28.26872963792683
 20
36.74614631704647
 30
0.0
  0
VERTEX
  5
556
  8
LAYER_1
 10
28.26871913613522
 20
36.2461562500373
 30
0.0
  0
VERTEX
  5
557
  8
LAYER_1
 10
24.76872963792683
 20
36.24614631704647
 30
0.0
  0
VERTEX
  5
558
  8
LAYER_1
 10
24.76872963792683
 20
46.62114631704647
 30
0.0
  0
VERTEX
  5
559
  8
LAYER_1
 10
34.51872963792683
 20
46.62114631704647
 30
0.0
  0
VERTEX
  5
55A
  8
LAYER_1
 10
34.51872963792683
 20
36.24614631704647
 30
0.0
  0
SEQEND
  5
886
  8
LAYER_1
  0
POLYLINE
  5
CE
  8
LAYER_1
 66
     1
 10
0.0
 20
0.0
 30
0.0
 70
     1
  0
VERTEX
  5
55B
  8
LAYER_1
 10
25.14372963792683
 20
36.12114631704647
 30
0.0
  0
VERTEX
  5
55C
  8
LAYER_1
 10
25.51872963792683
 20
36.12114631704647
 30
0.0
  0
VERTEX
  5
55D
  8
LAYER_1
 10
25.51872963792683
 20
46.74614631704647
 30
0.0
  0
VERTEX
  5
55E
  8
LAYER_1
 10
25.14372963792683
 20
46.74614631704647
 30
0.0
  0
SEQEND
  5
887
  8
LAYER_1
  0
POLYLINE
  5
CF
  8
LAYER_1
 66
     1
 10
0.0
 20
0.0
 30
0.0
 70
     1
  0
VERTEX
  5
55F
  8
LAYER_1
 10
33.76872963792683
 20
36.12114631704647
 30
0.0
  0
VERTEX
  5
560
  8
LAYER_1
 10
34.14372963792683
 20
36.12114631704647
 30
0.0
  0
VERTEX
  5
561
  8
LAYER_1
 10
34.14372963792683
 20
46.74614631704647
 30
0.0
  0
VERTEX
  5
562
  8
LAYER_1
 10
33.76872963792683
 20
46.74614631704647
 30
0.0
  0
SEQEND
  5
888
  8
LAYER_1
  0
POLYLINE
  5
D0
  8
LAYER_1
 66
     1
 10
0.0
 20
0.0
 30
0.0
 70
     1
  0
VERTEX
  5
563
  8
LAYER_1
 10
13.08817799598335
 20
34.94445060987424
 30
0.0
  0
VERTEX
  5
564
  8
LAYER_1
 10
23.46317799598335
 20
34.94445060987424
 30
0.0
  0
VERTEX
  5
565
  8
LAYER_1
 10
23.46317799598335
 20
46.69445060987424
 30
0.0
  0
VERTEX
  5
566
  8
LAYER_1
 10
13.08817799598335
 20
46.69445060987424
 30
0.0
  0
SEQEND
  5
889
  8
LAYER_1
  0
POLYLINE
  5
D1
  8
LAYER_1
 66
     1
 10
0.0
 20
0.0
 30
0.0
 70
     1
  0
VERTEX
  5
567
  8
LAYER_1
 10
12.96317799598335
 20
36.63195060987424
 30
0.0
  0
VERTEX
  5
568
  8
LAYER_1
 10
23.58817799598335
 20
36.63195060987424
 30
0.0
  0
VERTEX
  5
569
  8
LAYER_1
 10
23.58817799598335
 20
37.00695060987424
 30
0.0
  0
VERTEX
  5
56A
  8
LAYER_1
 10
12.96317799598335
 20
37.00695060987424
 30
0.0
  0
SEQEND
  5
88A
  8
LAYER_1
  0
POLYLINE
  5
D2
  8
LAYER_1
 66
     1
 10
0.0
 20
0.0
 30
0.0
 70
     1
  0
VERTEX
  5
56B
  8
LAYER_1
 10
1.352042397373644
 20
34.94445060987424
 30
0.0
  0
VERTEX
  5
56C
  8
LAYER_1
 10
11.72704239737364
 20
34.94445060987424
 30
0.0
  0
VERTEX
  5
56D
  8
LAYER_1
 10
11.72704239737364
 20
46.69445060987424
 30
0.0
  0
VERTEX
  5
56E
  8
LAYER_1
 10
1.352042397373644
 20
46.69445060987424
 30
0.0
  0
SEQEND
  5
88B
  8
LAYER_1
  0
POLYLINE
  5
D3
  8
LAYER_1
 66
     1
 10
0.0
 20
0.0
 30
0.0
 70
     1
  0
VERTEX
  5
56F
  8
LAYER_1
 10
1.227042397373644
 20
36.63195060987424
 30
0.0
  0
VERTEX
  5
570
  8
LAYER_1
 10
11.85204239737364
 20
36.63195060987424
 30
0.0
  0
VERTEX
  5
571
  8
LAYER_1
 10
11.85204239737364
 20
37.00695060987424
 30
0.0
  0
VERTEX
  5
572
  8
LAYER_1
 10
1.227042397373644
 20
37.00695060987424
 30
0.0
  0
SEQEND
  5
88C
  8
LAYER_1
  0
POLYLINE
  5
D4
  8
LAYER_1
 66
     1
 10
0.0
 20
0.0
 30
0.0
 70
     1
  0
VERTEX
  5
573
  8
LAYER_1
 10
49.12241638709278
 20
36.48004329752422
 30
0.0
  0
VERTEX
  5
574
  8
LAYER_1
 10
49.12241638709278
 20
39.10504329752422
 30
0.0
  0
VERTEX
  5
575
  8
LAYER_1
 10
51.12241638709278
 20
39.10504329752422
 30
0.0
  0
VERTEX
  5
576
  8
LAYER_1
 10
51.12241638709278
 20
36.48004329752422
 30
0.0
  0
VERTEX
  5
577
  8
LAYER_1
 10
51.12277344464832
 20
36.48004329752422
 30
0.0
  0
VERTEX
  5
578
  8
LAYER_1
 10
54.62241638709278
 20
36.48004329752422
 30
0.0
  0
VERTEX
  5
579
  8
LAYER_1
 10
54.62241638709278
 20
45.60504329752422
 30
0.0
  0
VERTEX
  5
57A
  8
LAYER_1
 10
45.62241638709278
 20
45.60504329752422
 30
0.0
  0
VERTEX
  5
57B
  8
LAYER_1
 10
45.62241638709278
 20
36.48004329752422
 30
0.0
  0
VERTEX
  5
57C
  8
LAYER_1
 10
49.11978762128373
 20
36.48004329752422
 30
0.0
  0
SEQEND
  5
88D
  8
LAYER_1
  0
POLYLINE
  5
D5
  8
LAYER_1
 66
     1
 10
0.0
 20
0.0
 30
0.0
 70
     1
  0
VERTEX
  5
57D
  8
LAYER_1
 10
35.70943501577161
 20
35.35504329752422
 30
0.0
  0
VERTEX
  5
57E
  8
LAYER_1
 10
44.02193501577161
 20
35.35504329752422
 30
0.0
  0
VERTEX
  5
57F
  8
LAYER_1
 10
44.02193501577161
 20
46.73004329752422
 30
0.0
  0
VERTEX
  5
580
  8
LAYER_1
 10
35.70943501577161
 20
46.73004329752422
 30
0.0
  0
SEQEND
  5
88E
  8
LAYER_1
  0
POLYLINE
  5
D6
  8
LAYER_1
 66
     1
 10
0.0
 20
0.0
 30
0.0
 70
     1
  0
VERTEX
  5
581
  8
LAYER_1
 10
14.49463541645851
 20
12.87337345352034
 30
0.0
  0
VERTEX
  5
582
  8
LAYER_1
 10
9.369635416457957
 20
4.185873453511959
 30
0.0
  0
VERTEX
  5
583
  8
LAYER_1
 10
9.356735927201985
 20
4.164426920171406
 30
0.0
  0
VERTEX
  5
584
  8
LAYER_1
 10
9.343399584765525
 20
4.143076104599681
 30
0.0
  0
VERTEX
  5
585
  8
LAYER_1
 10
9.32963433997721
 20
4.121829818027384
 30
0.0
  0
VERTEX
  5
586
  8
LAYER_1
 10
9.315448143665664
 20
4.100696871685116
 30
0.0
  0
VERTEX
  5
587
  8
LAYER_1
 10
9.300848946659524
 20
4.079686076803481
 30
0.0
  0
VERTEX
  5
588
  8
LAYER_1
 10
9.285844699787422
 20
4.058806244613077
 30
0.0
  0
VERTEX
  5
589
  8
LAYER_1
 10
9.270443353877987
 20
4.038066186344507
 30
0.0
  0
VERTEX
  5
58A
  8
LAYER_1
 10
9.254652859759853
 20
4.017474713228372
 30
0.0
  0
VERTEX
  5
58B
  8
LAYER_1
 10
9.23848116826165
 20
3.997040636495274
 30
0.0
  0
VERTEX
  5
58C
  8
LAYER_1
 10
9.221936230212009
 20
3.976772767375813
 30
0.0
  0
VERTEX
  5
58D
  8
LAYER_1
 10
9.20502599643956
 20
3.95667991710059
 30
0.0
  0
VERTEX
  5
58E
  8
LAYER_1
 10
9.187758417772937
 20
3.936770896900208
 30
0.0
  0
VERTEX
  5
58F
  8
LAYER_1
 10
9.170141445040771
 20
3.917054518005266
 30
0.0
  0
VERTEX
  5
590
  8
LAYER_1
 10
9.152183029071693
 20
3.897539591646367
 30
0.0
  0
VERTEX
  5
591
  8
LAYER_1
 10
9.133891120694337
 20
3.878234929054111
 30
0.0
  0
VERTEX
  5
592
  8
LAYER_1
 10
9.115273670737333
 20
3.8591493414591
 30
0.0
  0
VERTEX
  5
593
  8
LAYER_1
 10
9.096338630029312
 20
3.840291640091936
 30
0.0
  0
VERTEX
  5
594
  8
LAYER_1
 10
9.0770939493989
 20
3.821670636183218
 30
0.0
  0
VERTEX
  5
595
  8
LAYER_1
 10
9.057547579674738
 20
3.803295140963548
 30
0.0
  0
VERTEX
  5
596
  8
LAYER_1
 10
9.03770747168545
 20
3.785173965663529
 30
0.0
  0
VERTEX
  5
597
  8
LAYER_1
 10
9.017581576259673
 20
3.76731592151376
 30
0.0
  0
VERTEX
  5
598
  8
LAYER_1
 10
8.997177844226036
 20
3.749729819744844
 30
0.0
  0
VERTEX
  5
599
  8
LAYER_1
 10
8.97650422641317
 20
3.732424471587381
 30
0.0
  0
VERTEX
  5
59A
  8
LAYER_1
 10
8.955568673649704
 20
3.715408688271972
 30
0.0
  0
VERTEX
  5
59B
  8
LAYER_1
 10
8.934379136764276
 20
3.69869128102922
 30
0.0
  0
VERTEX
  5
59C
  8
LAYER_1
 10
8.912943566585511
 20
3.682281061089724
 30
0.0
  0
VERTEX
  5
59D
  8
LAYER_1
 10
8.891269913942047
 20
3.666186839684087
 30
0.0
  0
VERTEX
  5
59E
  8
LAYER_1
 10
8.86936612966251
 20
3.650417428042909
 30
0.0
  0
VERTEX
  5
59F
  8
LAYER_1
 10
8.847240164575533
 20
3.634981637396792
 30
0.0
  0
VERTEX
  5
5A0
  8
LAYER_1
 10
8.824899969509747
 20
3.619888278976337
 30
0.0
  0
VERTEX
  5
5A1
  8
LAYER_1
 10
8.802353495293785
 20
3.605146164012146
 30
0.0
  0
VERTEX
  5
5A2
  8
LAYER_1
 10
8.779608692756277
 20
3.590764103734818
 30
0.0
  0
VERTEX
  5
5A3
  8
LAYER_1
 10
8.756673512725854
 20
3.576750909374956
 30
0.0
  0
VERTEX
  5
5A4
  8
LAYER_1
 10
8.73355590603115
 20
3.563115392163161
 30
0.0
  0
VERTEX
  5
5A5
  8
LAYER_1
 10
8.710263823500796
 20
3.549866363330035
 30
0.0
  0
VERTEX
  5
5A6
  8
LAYER_1
 10
8.686805215963421
 20
3.537012634106177
 30
0.0
  0
VERTEX
  5
5A7
  8
LAYER_1
 10
8.663188034247659
 20
3.52456301572219
 30
0.0
  0
VERTEX
  5
5A8
  8
LAYER_1
 10
8.63942022918214
 20
3.512526319408675
 30
0.0
  0
VERTEX
  5
5A9
  8
LAYER_1
 10
8.615509751595496
 20
3.500911356396233
 30
0.0
  0
VERTEX
  5
5AA
  8
LAYER_1
 10
8.591464552316358
 20
3.489726937915465
 30
0.0
  0
VERTEX
  5
5AB
  8
LAYER_1
 10
8.567292582173359
 20
3.478981875196973
 30
0.0
  0
VERTEX
  5
5AC
  8
LAYER_1
 10
8.543001791995128
 20
3.468684979471358
 30
0.0
  0
VERTEX
  5
5AD
  8
LAYER_1
 10
8.518600132610295
 20
3.45884506196922
 30
0.0
  0
VERTEX
  5
5AE
  8
LAYER_1
 10
8.494095554847497
 20
3.449470933921162
 30
0.0
  0
VERTEX
  5
5AF
  8
LAYER_1
 10
8.469496009535364
 20
3.440571406557784
 30
0.0
  0
VERTEX
  5
5B0
  8
LAYER_1
 10
8.444809447502525
 20
3.432155291109687
 30
0.0
  0
VERTEX
  5
5B1
  8
LAYER_1
 10
8.42004381957761
 20
3.424231398807474
 30
0.0
  0
VERTEX
  5
5B2
  8
LAYER_1
 10
8.395207076589257
 20
3.416808540881744
 30
0.0
  0
VERTEX
  5
5B3
  8
LAYER_1
 10
8.370307169366091
 20
3.4098955285631
 30
0.0
  0
VERTEX
  5
5B4
  8
LAYER_1
 10
8.345352048736746
 20
3.403501173082142
 30
0.0
  0
VERTEX
  5
5B5
  8
LAYER_1
 10
8.320349665529855
 20
3.397634285669473
 30
0.0
  0
VERTEX
  5
5B6
  8
LAYER_1
 10
8.295307970574047
 20
3.392303677555692
 30
0.0
  0
VERTEX
  5
5B7
  8
LAYER_1
 10
8.270234914697953
 20
3.387518159971401
 30
0.0
  0
VERTEX
  5
5B8
  8
LAYER_1
 10
8.245138448730208
 20
3.383286544147202
 30
0.0
  0
VERTEX
  5
5B9
  8
LAYER_1
 10
8.22002652349944
 20
3.379617641313696
 30
0.0
  0
VERTEX
  5
5BA
  8
LAYER_1
 10
8.194907089834281
 20
3.376520262701483
 30
0.0
  0
VERTEX
  5
5BB
  8
LAYER_1
 10
8.169788098563362
 20
3.374003219541167
 30
0.0
  0
VERTEX
  5
5BC
  8
LAYER_1
 10
8.14467750051532
 20
3.372075323063345
 30
0.0
  0
VERTEX
  5
5BD
  8
LAYER_1
 10
8.11958324651878
 20
3.370745384498622
 30
0.0
  0
VERTEX
  5
5BE
  8
LAYER_1
 10
8.094513287402375
 20
3.370022215077597
 30
0.0
  0
VERTEX
  5
5BF
  8
LAYER_1
 10
8.069475573994737
 20
3.369914626030872
 30
0.0
  0
VERTEX
  5
5C0
  8
LAYER_1
 10
8.044478057124497
 20
3.370431428589049
 30
0.0
  0
VERTEX
  5
5C1
  8
LAYER_1
 10
8.019528687620287
 20
3.371581433982728
 30
0.0
  0
VERTEX
  5
5C2
  8
LAYER_1
 10
7.994635416310739
 20
3.373373453442511
 30
0.0
  0
VERTEX
  5
5C3
  8
LAYER_1
 10
2.119635416607355
 20
3.873373453577997
 30
0.0
  0
VERTEX
  5
5C4
  8
LAYER_1
 10
2.088679126295912
 20
3.876532390354912
 30
0.0
  0
VERTEX
  5
5C5
  8
LAYER_1
 10
2.057750269743346
 20
3.880725854539956
 30
0.0
  0
VERTEX
  5
5C6
  8
LAYER_1
 10
2.026863569398821
 20
3.885934809821246
 30
0.0
  0
VERTEX
  5
5C7
  8
LAYER_1
 10
1.9960337477115
 20
3.892140219886898
 30
0.0
  0
VERTEX
  5
5C8
  8
LAYER_1
 10
1.965275527130546
 20
3.899323048425028
 30
0.0
  0
VERTEX
  5
5C9
  8
LAYER_1
 10
1.934603630105122
 20
3.907464259123752
 30
0.0
  0
VERTEX
  5
5CA
  8
LAYER_1
 10
1.904032779084391
 20
3.916544815671187
 30
0.0
  0
VERTEX
  5
5CB
  8
LAYER_1
 10
1.873577696517517
 20
3.926545681755448
 30
0.0
  0
VERTEX
  5
5CC
  8
LAYER_1
 10
1.843253104853662
 20
3.937447821064652
 30
0.0
  0
VERTEX
  5
5CD
  8
LAYER_1
 10
1.81307372654199
 20
3.949232197286915
 30
0.0
  0
VERTEX
  5
5CE
  8
LAYER_1
 10
1.783054284031663
 20
3.961879774110354
 30
0.0
  0
VERTEX
  5
5CF
  8
LAYER_1
 10
1.753209499771846
 20
3.975371515223084
 30
0.0
  0
VERTEX
  5
5D0
  8
LAYER_1
 10
1.7235540962117
 20
3.989688384313221
 30
0.0
  0
VERTEX
  5
5D1
  8
LAYER_1
 10
1.69410279580039
 20
4.004811345068882
 30
0.0
  0
VERTEX
  5
5D2
  8
LAYER_1
 10
1.664870320987078
 20
4.020721361178183
 30
0.0
  0
VERTEX
  5
5D3
  8
LAYER_1
 10
1.635871394220928
 20
4.03739939632924
 30
0.0
  0
VERTEX
  5
5D4
  8
LAYER_1
 10
1.607120737951102
 20
4.05482641421017
 30
0.0
  0
VERTEX
  5
5D5
  8
LAYER_1
 10
1.578633074626764
 20
4.072983378509088
 30
0.0
  0
VERTEX
  5
5D6
  8
LAYER_1
 10
1.550423126697077
 20
4.09185125291411
 30
0.0
  0
VERTEX
  5
5D7
  8
LAYER_1
 10
1.522505616611204
 20
4.111411001113353
 30
0.0
  0
VERTEX
  5
5D8
  8
LAYER_1
 10
1.494895266818308
 20
4.131643586794935
 30
0.0
  0
VERTEX
  5
5D9
  8
LAYER_1
 10
1.467606799767553
 20
4.152529973646969
 30
0.0
  0
VERTEX
  5
5DA
  8
LAYER_1
 10
1.4406549379081
 20
4.174051125357572
 30
0.0
  0
VERTEX
  5
5DB
  8
LAYER_1
 10
1.414054403689115
 20
4.196188005614861
 30
0.0
  0
VERTEX
  5
5DC
  8
LAYER_1
 10
1.387819919559759
 20
4.218921578106952
 30
0.0
  0
VERTEX
  5
5DD
  8
LAYER_1
 10
1.361966207969196
 20
4.242232806521961
 30
0.0
  0
VERTEX
  5
5DE
  8
LAYER_1
 10
1.336507991366589
 20
4.266102654548003
 30
0.0
  0
VERTEX
  5
5DF
  8
LAYER_1
 10
1.311459992201101
 20
4.290512085873197
 30
0.0
  0
VERTEX
  5
5E0
  8
LAYER_1
 10
1.286836932921895
 20
4.315442064185658
 30
0.0
  0
VERTEX
  5
5E1
  8
LAYER_1
 10
1.262653535978135
 20
4.3408735531735
 30
0.0
  0
VERTEX
  5
5E2
  8
LAYER_1
 10
1.238924523818983
 20
4.366787516524841
 30
0.0
  0
VERTEX
  5
5E3
  8
LAYER_1
 10
1.215664618893603
 20
4.393164917927798
 30
0.0
  0
VERTEX
  5
5E4
  8
LAYER_1
 10
1.192888543651158
 20
4.419986721070486
 30
0.0
  0
VERTEX
  5
5E5
  8
LAYER_1
 10
1.170611020540811
 20
4.447233889641022
 30
0.0
  0
VERTEX
  5
5E6
  8
LAYER_1
 10
1.148846772011724
 20
4.47488738732752
 30
0.0
  0
VERTEX
  5
5E7
  8
LAYER_1
 10
1.127610520513062
 20
4.502928177818101
 30
0.0
  0
VERTEX
  5
5E8
  8
LAYER_1
 10
1.106916988493988
 20
4.531337224800875
 30
0.0
  0
VERTEX
  5
5E9
  8
LAYER_1
 10
1.086780898403664
 20
4.560095491963962
 30
0.0
  0
VERTEX
  5
5EA
  8
LAYER_1
 10
1.067216972691253
 20
4.589183942995477
 30
0.0
  0
VERTEX
  5
5EB
  8
LAYER_1
 10
1.048239933805919
 20
4.618583541583538
 30
0.0
  0
VERTEX
  5
5EC
  8
LAYER_1
 10
1.029864504196826
 20
4.648275251416259
 30
0.0
  0
VERTEX
  5
5ED
  8
LAYER_1
 10
1.012105406313135
 20
4.678240036181758
 30
0.0
  0
VERTEX
  5
5EE
  8
LAYER_1
 10
0.9949773626040104
 20
4.708458859568149
 30
0.0
  0
VERTEX
  5
5EF
  8
LAYER_1
 10
0.978495095518615
 20
4.73891268526355
 30
0.0
  0
VERTEX
  5
5F0
  8
LAYER_1
 10
0.9626733275061121
 20
4.769582476956076
 30
0.0
  0
VERTEX
  5
5F1
  8
LAYER_1
 10
0.9475267810156648
 20
4.800449198333844
 30
0.0
  0
VERTEX
  5
5F2
  8
LAYER_1
 10
0.9330701784964361
 20
4.831493813084969
 30
0.0
  0
VERTEX
  5
5F3
  8
LAYER_1
 10
0.9193182423975894
 20
4.862697284897569
 30
0.0
  0
VERTEX
  5
5F4
  8
LAYER_1
 10
0.9062856951682876
 20
4.89404057745976
 30
0.0
  0
VERTEX
  5
5F5
  8
LAYER_1
 10
0.8939872592576941
 20
4.925504654459656
 30
0.0
  0
VERTEX
  5
5F6
  8
LAYER_1
 10
0.8824376571149717
 20
4.957070479585376
 30
0.0
  0
VERTEX
  5
5F7
  8
LAYER_1
 10
0.8716516111892838
 20
4.988719016525033
 30
0.0
  0
VERTEX
  5
5F8
  8
LAYER_1
 10
0.8616438439297935
 20
5.020431228966746
 30
0.0
  0
VERTEX
  5
5F9
  8
LAYER_1
 10
0.8524290777856638
 20
5.052188080598631
 30
0.0
  0
VERTEX
  5
5FA
  8
LAYER_1
 10
0.8440220352060579
 20
5.083970535108802
 30
0.0
  0
VERTEX
  5
5FB
  8
LAYER_1
 10
0.836437438640139
 20
5.115759556185377
 30
0.0
  0
VERTEX
  5
5FC
  8
LAYER_1
 10
0.8296900105370701
 20
5.147536107516473
 30
0.0
  0
VERTEX
  5
5FD
  8
LAYER_1
 10
0.8237944733460145
 20
5.179281152790203
 30
0.0
  0
VERTEX
  5
5FE
  8
LAYER_1
 10
0.8187655495161352
 20
5.210975655694687
 30
0.0
  0
VERTEX
  5
5FF
  8
LAYER_1
 10
0.8146179614965955
 20
5.242600579918038
 30
0.0
  0
VERTEX
  5
600
  8
LAYER_1
 10
0.8113664317365583
 20
5.274136889148375
 30
0.0
  0
VERTEX
  5
601
  8
LAYER_1
 10
0.8090256826851869
 20
5.305565547073812
 30
0.0
  0
VERTEX
  5
602
  8
LAYER_1
 10
0.8076104367916446
 20
5.336867517382465
 30
0.0
  0
VERTEX
  5
603
  8
LAYER_1
 10
0.8071354165050941
 20
5.368023763762451
 30
0.0
  0
VERTEX
  5
604
  8
LAYER_1
 10
0.8071354165050941
 20
24.749967536844
 30
0.0
  0
VERTEX
  5
605
  8
LAYER_1
 10
0.8069731577676655
 20
24.82348416647441
 30
0.0
  0
VERTEX
  5
606
  8
LAYER_1
 10
0.807110306731642
 20
24.86120433380868
 30
0.0
  0
VERTEX
  5
607
  8
LAYER_1
 10
0.8076951722603121
 20
24.89929363329358
 30
0.0
  0
VERTEX
  5
608
  8
LAYER_1
 10
0.8089544026108506
 20
24.93754798778251
 30
0.0
  0
VERTEX
  5
609
  8
LAYER_1
 10
0.8111146460404326
 20
24.9757633201289
 30
0.0
  0
VERTEX
  5
60A
  8
LAYER_1
 10
0.812603475240232
 20
24.99479257889034
 30
0.0
  0
VERTEX
  5
60B
  8
LAYER_1
 10
0.8144025508062328
 20
25.01373555318618
 30
0.0
  0
VERTEX
  5
60C
  8
LAYER_1
 10
0.8165402037705819
 20
25.03256673337311
 30
0.0
  0
VERTEX
  5
60D
  8
LAYER_1
 10
0.819044765165426
 20
25.05126060980778
 30
0.0
  0
VERTEX
  5
60E
  8
LAYER_1
 10
0.8219445660229122
 20
25.06979167284689
 30
0.0
  0
VERTEX
  5
60F
  8
LAYER_1
 10
0.8252679373751871
 20
25.08813441284711
 30
0.0
  0
VERTEX
  5
610
  8
LAYER_1
 10
0.8290432102543978
 20
25.10626332016513
 30
0.0
  0
VERTEX
  5
611
  8
LAYER_1
 10
0.833298715692691
 20
25.12415288515761
 30
0.0
  0
VERTEX
  5
612
  8
LAYER_1
 10
0.8380627847222135
 20
25.14177759818124
 30
0.0
  0
VERTEX
  5
613
  8
LAYER_1
 10
0.8433637483751124
 20
25.1591119495927
 30
0.0
  0
VERTEX
  5
614
  8
LAYER_1
 10
0.8492299376835342
 20
25.17613042974866
 30
0.0
  0
VERTEX
  5
615
  8
LAYER_1
 10
0.8556896836796262
 20
25.1928075290058
 30
0.0
  0
VERTEX
  5
616
  8
LAYER_1
 10
0.8627713173955349
 20
25.2091177377208
 30
0.0
  0
VERTEX
  5
617
  8
LAYER_1
 10
0.8705031698634073
 20
25.22503554625033
 30
0.0
  0
VERTEX
  5
618
  8
LAYER_1
 10
0.8789135721153901
 20
25.24053544495108
 30
0.0
  0
VERTEX
  5
619
  8
LAYER_1
 10
0.8880308551836305
 20
25.25559192417973
 30
0.0
  0
VERTEX
  5
61A
  8
LAYER_1
 10
0.8978833501002751
 20
25.27017947429294
 30
0.0
  0
VERTEX
  5
61B
  8
LAYER_1
 10
0.9084993878974708
 20
25.28427258564741
 30
0.0
  0
VERTEX
  5
61C
  8
LAYER_1
 10
0.9199072996073644
 20
25.2978457485998
 30
0.0
  0
VERTEX
  5
61D
  8
LAYER_1
 10
0.9321354162621027
 20
25.3108734535068
 30
0.0
  0
VERTEX
  5
61E
  8
LAYER_1
 10
8.932135416505371
 20
33.37337345353532
 30
0.0
  0
VERTEX
  5
61F
  8
LAYER_1
 10
8.939409924988322
 20
33.37337345353532
 30
0.0
  0
VERTEX
  5
620
  8
LAYER_1
 10
68.0863148966484
 20
33.37337345353532
 30
0.0
  0
VERTEX
  5
621
  8
LAYER_1
 10
68.11963541650509
 20
33.37337345353532
 30
0.0
  0
VERTEX
  5
622
  8
LAYER_1
 10
70.61963541650509
 20
29.24837345353532
 30
0.0
  0
VERTEX
  5
623
  8
LAYER_1
 10
70.61963541650509
 20
29.2015358395393
 30
0.0
  0
VERTEX
  5
624
  8
LAYER_1
 10
70.61963541650509
 20
1.373373453535322
 30
0.0
  0
VERTEX
  5
625
  8
LAYER_1
 10
32.88192560284761
 20
1.373373453535322
 30
0.0
  0
VERTEX
  5
626
  8
LAYER_1
 10
32.85650599791192
 20
1.373678930925776
 30
0.0
  0
VERTEX
  5
627
  8
LAYER_1
 10
32.83096803294075
 20
1.374590499887328
 30
0.0
  0
VERTEX
  5
628
  8
LAYER_1
 10
32.80532468504531
 20
1.376100865605261
 30
0.0
  0
VERTEX
  5
629
  8
LAYER_1
 10
32.77958893133679
 20
1.37820273326486
 30
0.0
  0
VERTEX
  5
62A
  8
LAYER_1
 10
32.7537737489264
 20
1.380888808051409
 30
0.0
  0
VERTEX
  5
62B
  8
LAYER_1
 10
32.72789211492533
 20
1.384151795150192
 30
0.0
  0
VERTEX
  5
62C
  8
LAYER_1
 10
32.70195700644479
 20
1.387984399746493
 30
0.0
  0
VERTEX
  5
62D
  8
LAYER_1
 10
32.67598140059598
 20
1.392379327025596
 30
0.0
  0
VERTEX
  5
62E
  8
LAYER_1
 10
32.6499782744901
 20
1.397329282172787
 30
0.0
  0
VERTEX
  5
62F
  8
LAYER_1
 10
32.62396060523835
 20
1.402826970373348
 30
0.0
  0
VERTEX
  5
630
  8
LAYER_1
 10
32.59794136995193
 20
1.408865096812563
 30
0.0
  0
VERTEX
  5
631
  8
LAYER_1
 10
32.57193354574203
 20
1.415436366675718
 30
0.0
  0
VERTEX
  5
632
  8
LAYER_1
 10
32.54595010971986
 20
1.422533485148096
 30
0.0
  0
VERTEX
  5
633
  8
LAYER_1
 10
32.52000403899663
 20
1.430149157414981
 30
0.0
  0
VERTEX
  5
634
  8
LAYER_1
 10
32.49410831068353
 20
1.438276088661658
 30
0.0
  0
VERTEX
  5
635
  8
LAYER_1
 10
32.46827590189176
 20
1.44690698407341
 30
0.0
  0
VERTEX
  5
636
  8
LAYER_1
 10
32.44251978973251
 20
1.456034548835522
 30
0.0
  0
VERTEX
  5
637
  8
LAYER_1
 10
32.41685295131701
 20
1.465651488133279
 30
0.0
  0
VERTEX
  5
638
  8
LAYER_1
 10
32.39128836375644
 20
1.475750507151963
 30
0.0
  0
VERTEX
  5
639
  8
LAYER_1
 10
32.36583900416201
 20
1.486324311076859
 30
0.0
  0
VERTEX
  5
63A
  8
LAYER_1
 10
32.34051784964491
 20
1.497365605093252
 30
0.0
  0
VERTEX
  5
63B
  8
LAYER_1
 10
32.31533787731635
 20
1.508867094386426
 30
0.0
  0
VERTEX
  5
63C
  8
LAYER_1
 10
32.29031206428753
 20
1.520821484141664
 30
0.0
  0
VERTEX
  5
63D
  8
LAYER_1
 10
32.26545338766964
 20
1.533221479544251
 30
0.0
  0
VERTEX
  5
63E
  8
LAYER_1
 10
32.24077482457389
 20
1.54605978577947
 30
0.0
  0
VERTEX
  5
63F
  8
LAYER_1
 10
32.21628935211147
 20
1.559329108032608
 30
0.0
  0
VERTEX
  5
640
  8
LAYER_1
 10
32.1920099473936
 20
1.573022151488946
 30
0.0
  0
VERTEX
  5
641
  8
LAYER_1
 10
32.16794958753147
 20
1.587131621333771
 30
0.0
  0
VERTEX
  5
642
  8
LAYER_1
 10
32.14412124963627
 20
1.601650222752364
 30
0.0
  0
VERTEX
  5
643
  8
LAYER_1
 10
32.12053791081921
 20
1.616570660930012
 30
0.0
  0
VERTEX
  5
644
  8
LAYER_1
 10
32.0972125481915
 20
1.631885641051997
 30
0.0
  0
VERTEX
  5
645
  8
LAYER_1
 10
32.07415813886433
 20
1.647587868303605
 30
0.0
  0
VERTEX
  5
646
  8
LAYER_1
 10
32.05138765994891
 20
1.663670047870119
 30
0.0
  0
VERTEX
  5
647
  8
LAYER_1
 10
32.02891408855642
 20
1.680124884936823
 30
0.0
  0
VERTEX
  5
648
  8
LAYER_1
 10
32.00675040179808
 20
1.696945084689002
 30
0.0
  0
VERTEX
  5
649
  8
LAYER_1
 10
31.98490957678508
 20
1.714123352311939
 30
0.0
  0
VERTEX
  5
64A
  8
LAYER_1
 10
31.96340459062863
 20
1.731652392990919
 30
0.0
  0
VERTEX
  5
64B
  8
LAYER_1
 10
31.94224842043992
 20
1.749524911911226
 30
0.0
  0
VERTEX
  5
64C
  8
LAYER_1
 10
31.92145404333016
 20
1.767733614258145
 30
0.0
  0
VERTEX
  5
64D
  8
LAYER_1
 10
31.90103443641054
 20
1.786271205216959
 30
0.0
  0
VERTEX
  5
64E
  8
LAYER_1
 10
31.88100257679228
 20
1.805130389972952
 30
0.0
  0
VERTEX
  5
64F
  8
LAYER_1
 10
31.86137144158656
 20
1.824303873711409
 30
0.0
  0
VERTEX
  5
650
  8
LAYER_1
 10
31.84215400790458
 20
1.843784361617614
 30
0.0
  0
VERTEX
  5
651
  8
LAYER_1
 10
31.82336325285756
 20
1.863564558876851
 30
0.0
  0
VERTEX
  5
652
  8
LAYER_1
 10
31.80501215355669
 20
1.883637170674403
 30
0.0
  0
VERTEX
  5
653
  8
LAYER_1
 10
31.78711368711316
 20
1.903994902195556
 30
0.0
  0
VERTEX
  5
654
  8
LAYER_1
 10
31.76968083063819
 20
1.924630458625594
 30
0.0
  0
VERTEX
  5
655
  8
LAYER_1
 10
31.75272656124297
 20
1.9455365451498
 30
0.0
  0
VERTEX
  5
656
  8
LAYER_1
 10
31.7362638560387
 20
1.966705866953459
 30
0.0
  0
VERTEX
  5
657
  8
LAYER_1
 10
31.72030569213658
 20
1.988131129221854
 30
0.0
  0
VERTEX
  5
658
  8
LAYER_1
 10
31.70486504664782
 20
2.009805037140271
 30
0.0
  0
VERTEX
  5
659
  8
LAYER_1
 10
31.68995489668361
 20
2.031720295893993
 30
0.0
  0
VERTEX
  5
65A
  8
LAYER_1
 10
31.67558821935515
 20
2.053869610668304
 30
0.0
  0
VERTEX
  5
65B
  8
LAYER_1
 10
31.66177799177365
 20
2.076245686648488
 30
0.0
  0
VERTEX
  5
65C
  8
LAYER_1
 10
31.6485371910503
 20
2.09884122901983
 30
0.0
  0
VERTEX
  5
65D
  8
LAYER_1
 10
31.63587879429631
 20
2.121648942967615
 30
0.0
  0
VERTEX
  5
65E
  8
LAYER_1
 10
31.62381577862288
 20
2.144661533677125
 30
0.0
  0
VERTEX
  5
65F
  8
LAYER_1
 10
31.6123611211412
 20
2.167871706333645
 30
0.0
  0
VERTEX
  5
660
  8
LAYER_1
 10
31.60152779896249
 20
2.191272166122459
 30
0.0
  0
VERTEX
  5
661
  8
LAYER_1
 10
31.59132878919792
 20
2.214855618228852
 30
0.0
  0
VERTEX
  5
662
  8
LAYER_1
 10
31.58177706895872
 20
2.238614767838107
 30
0.0
  0
VERTEX
  5
663
  8
LAYER_1
 10
31.57288561535608
 20
2.262542320135509
 30
0.0
  0
VERTEX
  5
664
  8
LAYER_1
 10
31.5646674055012
 20
2.286630980306342
 30
0.0
  0
VERTEX
  5
665
  8
LAYER_1
 10
31.55713541650528
 20
2.310873453535891
 30
0.0
  0
VERTEX
  5
666
  8
LAYER_1
 10
30.74463541659571
 20
5.060873453602795
 30
0.0
  0
VERTEX
  5
667
  8
LAYER_1
 10
30.73553493503035
 20
5.090026769735411
 30
0.0
  0
VERTEX
  5
668
  8
LAYER_1
 10
30.72553589629308
 20
5.118965364902998
 30
0.0
  0
VERTEX
  5
669
  8
LAYER_1
 10
30.7146608608208
 20
5.147673834968894
 30
0.0
  0
VERTEX
  5
66A
  8
LAYER_1
 10
30.70293238905041
 20
5.176136775796444
 30
0.0
  0
VERTEX
  5
66B
  8
LAYER_1
 10
30.69037304141881
 20
5.204338783248988
 30
0.0
  0
VERTEX
  5
66C
  8
LAYER_1
 10
30.6770053783629
 20
5.232264453189869
 30
0.0
  0
VERTEX
  5
66D
  8
LAYER_1
 10
30.66285196031957
 20
5.259898381482427
 30
0.0
  0
VERTEX
  5
66E
  8
LAYER_1
 10
30.64793534772572
 20
5.287225163990005
 30
0.0
  0
VERTEX
  5
66F
  8
LAYER_1
 10
30.63227810101826
 20
5.314229396575945
 30
0.0
  0
VERTEX
  5
670
  8
LAYER_1
 10
30.61590278063408
 20
5.340895675103589
 30
0.0
  0
VERTEX
  5
671
  8
LAYER_1
 10
30.59883194701008
 20
5.367208595436276
 30
0.0
  0
VERTEX
  5
672
  8
LAYER_1
 10
30.58108816058316
 20
5.393152753437352
 30
0.0
  0
VERTEX
  5
673
  8
LAYER_1
 10
30.56269398179021
 20
5.418712744970156
 30
0.0
  0
VERTEX
  5
674
  8
LAYER_1
 10
30.54367197106814
 20
5.44387316589803
 30
0.0
  0
VERTEX
  5
675
  8
LAYER_1
 10
30.52404468885383
 20
5.468618612084317
 30
0.0
  0
VERTEX
  5
676
  8
LAYER_1
 10
30.5038346955842
 20
5.492933679392356
 30
0.0
  0
VERTEX
  5
677
  8
LAYER_1
 10
30.48306455169615
 20
5.516802963685493
 30
0.0
  0
VERTEX
  5
678
  8
LAYER_1
 10
30.46175681762655
 20
5.540211060827065
 30
0.0
  0
VERTEX
  5
679
  8
LAYER_1
 10
30.43993405381232
 20
5.563142566680417
 30
0.0
  0
VERTEX
  5
67A
  8
LAYER_1
 10
30.41761882069036
 20
5.58558207710889
 30
0.0
  0
VERTEX
  5
67B
  8
LAYER_1
 10
30.39483367869756
 20
5.607514187975827
 30
0.0
  0
VERTEX
  5
67C
  8
LAYER_1
 10
30.37160118827082
 20
5.628923495144567
 30
0.0
  0
VERTEX
  5
67D
  8
LAYER_1
 10
30.34794390984705
 20
5.649794594478454
 30
0.0
  0
VERTEX
  5
67E
  8
LAYER_1
 10
30.32388440386313
 20
5.670112081840828
 30
0.0
  0
VERTEX
  5
67F
  8
LAYER_1
 10
30.29944523075597
 20
5.689860553095031
 30
0.0
  0
VERTEX
  5
680
  8
LAYER_1
 10
30.27464895096247
 20
5.709024604104407
 30
0.0
  0
VERTEX
  5
681
  8
LAYER_1
 10
30.24951812491951
 20
5.727588830732296
 30
0.0
  0
VERTEX
  5
682
  8
LAYER_1
 10
30.22407531306401
 20
5.745537828842039
 30
0.0
  0
VERTEX
  5
683
  8
LAYER_1
 10
30.19834307583286
 20
5.76285619429698
 30
0.0
  0
VERTEX
  5
684
  8
LAYER_1
 10
30.17234397366296
 20
5.779528522960458
 30
0.0
  0
VERTEX
  5
685
  8
LAYER_1
 10
30.14610056699121
 20
5.795539410695817
 30
0.0
  0
VERTEX
  5
686
  8
LAYER_1
 10
30.1196354162545
 20
5.810873453366398
 30
0.0
  0
VERTEX
  5
687
  8
LAYER_1
 10
16.49463541658872
 20
13.49837345356585
 30
0.0
  0
VERTEX
  5
688
  8
LAYER_1
 10
16.46581386274291
 20
13.51394231044806
 30
0.0
  0
VERTEX
  5
689
  8
LAYER_1
 10
16.43638983935255
 20
13.52848221189796
 30
0.0
  0
VERTEX
  5
68A
  8
LAYER_1
 10
16.40638876783778
 20
13.5420040298268
 30
0.0
  0
VERTEX
  5
68B
  8
LAYER_1
 10
16.3758360696187
 20
13.55451863614586
 30
0.0
  0
VERTEX
  5
68C
  8
LAYER_1
 10
16.34475716611544
 20
13.56603690276639
 30
0.0
  0
VERTEX
  5
68D
  8
LAYER_1
 10
16.31317747874811
 20
13.57656970159968
 30
0.0
  0
VERTEX
  5
68E
  8
LAYER_1
 10
16.28112242893684
 20
13.58612790455698
 30
0.0
  0
VERTEX
  5
68F
  8
LAYER_1
 10
16.24861743810173
 20
13.59472238354957
 30
0.0
  0
VERTEX
  5
690
  8
LAYER_1
 10
16.21568792766291
 20
13.6023640104887
 30
0.0
  0
VERTEX
  5
691
  8
LAYER_1
 10
16.1823593190405
 20
13.60906365728566
 30
0.0
  0
VERTEX
  5
692
  8
LAYER_1
 10
16.14865703365461
 20
13.6148321958517
 30
0.0
  0
VERTEX
  5
693
  8
LAYER_1
 10
16.11460649292536
 20
13.6196804980981
 30
0.0
  0
VERTEX
  5
694
  8
LAYER_1
 10
16.08023311827287
 20
13.62361943593612
 30
0.0
  0
VERTEX
  5
695
  8
LAYER_1
 10
16.04556233111725
 20
13.62665988127703
 30
0.0
  0
VERTEX
  5
696
  8
LAYER_1
 10
16.01061955287863
 20
13.6288127060321
 30
0.0
  0
VERTEX
  5
697
  8
LAYER_1
 10
15.97543020497713
 20
13.63008878211259
 30
0.0
  0
VERTEX
  5
698
  8
LAYER_1
 10
15.94001970883285
 20
13.63049898142977
 30
0.0
  0
VERTEX
  5
699
  8
LAYER_1
 10
15.90441348586592
 20
13.63005417589491
 30
0.0
  0
VERTEX
  5
69A
  8
LAYER_1
 10
15.86863695749645
 20
13.62876523741929
 30
0.0
  0
VERTEX
  5
69B
  8
LAYER_1
 10
15.83271554514457
 20
13.62664303791415
 30
0.0
  0
VERTEX
  5
69C
  8
LAYER_1
 10
15.79667467023039
 20
13.62369844929078
 30
0.0
  0
VERTEX
  5
69D
  8
LAYER_1
 10
15.76053975417403
 20
13.61994234346044
 30
0.0
  0
VERTEX
  5
69E
  8
LAYER_1
 10
15.72433621839561
 20
13.61538559233439
 30
0.0
  0
VERTEX
  5
69F
  8
LAYER_1
 10
15.68808948431524
 20
13.61003906782392
 30
0.0
  0
VERTEX
  5
6A0
  8
LAYER_1
 10
15.65182497335305
 20
13.60391364184027
 30
0.0
  0
VERTEX
  5
6A1
  8
LAYER_1
 10
15.61556810692914
 20
13.59702018629473
 30
0.0
  0
VERTEX
  5
6A2
  8
LAYER_1
 10
15.57934430646364
 20
13.58936957309855
 30
0.0
  0
VERTEX
  5
6A3
  8
LAYER_1
 10
15.54317899337667
 20
13.58097267416301
 30
0.0
  0
VERTEX
  5
6A4
  8
LAYER_1
 10
15.50709758908835
 20
13.57184036139937
 30
0.0
  0
VERTEX
  5
6A5
  8
LAYER_1
 10
15.47112551501878
 20
13.56198350671891
 30
0.0
  0
VERTEX
  5
6A6
  8
LAYER_1
 10
15.4352881925881
 20
13.55141298203288
 30
0.0
  0
VERTEX
  5
6A7
  8
LAYER_1
 10
15.39961104321641
 20
13.54013965925256
 30
0.0
  0
VERTEX
  5
6A8
  8
LAYER_1
 10
15.36411948832384
 20
13.52817441028921
 30
0.0
  0
VERTEX
  5
6A9
  8
LAYER_1
 10
15.32883894933051
 20
13.5155281070541
 30
0.0
  0
VERTEX
  5
6AA
  8
LAYER_1
 10
15.29379484765652
 20
13.5022116214585
 30
0.0
  0
VERTEX
  5
6AB
  8
LAYER_1
 10
15.259012604722
 20
13.48823582541368
 30
0.0
  0
VERTEX
  5
6AC
  8
LAYER_1
 10
15.22451764194707
 20
13.4736115908309
 30
0.0
  0
VERTEX
  5
6AD
  8
LAYER_1
 10
15.19033538075185
 20
13.45834978962144
 30
0.0
  0
VERTEX
  5
6AE
  8
LAYER_1
 10
15.15649124255645
 20
13.44246129369655
 30
0.0
  0
VERTEX
  5
6AF
  8
LAYER_1
 10
15.12301064878099
 20
13.42595697496751
 30
0.0
  0
VERTEX
  5
6B0
  8
LAYER_1
 10
15.08991902084559
 20
13.40884770534559
 30
0.0
  0
VERTEX
  5
6B1
  8
LAYER_1
 10
15.05724178017036
 20
13.39114435674205
 30
0.0
  0
VERTEX
  5
6B2
  8
LAYER_1
 10
15.02500434817543
 20
13.37285780106815
 30
0.0
  0
VERTEX
  5
6B3
  8
LAYER_1
 10
14.99323214628091
 20
13.35399891023518
 30
0.0
  0
VERTEX
  5
6B4
  8
LAYER_1
 10
14.96195059590692
 20
13.33457855615438
 30
0.0
  0
VERTEX
  5
6B5
  8
LAYER_1
 10
14.93118511847358
 20
13.31460761073705
 30
0.0
  0
VERTEX
  5
6B6
  8
LAYER_1
 10
14.900961135401
 20
13.29409694589443
 30
0.0
  0
VERTEX
  5
6B7
  8
LAYER_1
 10
14.8713040681093
 20
13.27305743353779
 30
0.0
  0
VERTEX
  5
6B8
  8
LAYER_1
 10
14.84223933801861
 20
13.25149994557842
 30
0.0
  0
VERTEX
  5
6B9
  8
LAYER_1
 10
14.81379236654904
 20
13.22943535392756
 30
0.0
  0
VERTEX
  5
6BA
  8
LAYER_1
 10
14.7859885751207
 20
13.2068745304965
 30
0.0
  0
VERTEX
  5
6BB
  8
LAYER_1
 10
14.75885338515372
 20
13.18382834719649
 30
0.0
  0
VERTEX
  5
6BC
  8
LAYER_1
 10
14.73241221806821
 20
13.16030767593881
 30
0.0
  0
VERTEX
  5
6BD
  8
LAYER_1
 10
14.70669049528429
 20
13.13632338863473
 30
0.0
  0
VERTEX
  5
6BE
  8
LAYER_1
 10
14.68171363822208
 20
13.1118863571955
 30
0.0
  0
VERTEX
  5
6BF
  8
LAYER_1
 10
14.65750706830169
 20
13.0870074535324
 30
0.0
  0
VERTEX
  5
6C0
  8
LAYER_1
 10
14.63409620694325
 20
13.0616975495567
 30
0.0
  0
VERTEX
  5
6C1
  8
LAYER_1
 10
14.61150647556688
 20
13.03596751717966
 30
0.0
  0
VERTEX
  5
6C2
  8
LAYER_1
 10
14.58976329559268
 20
13.00982822831255
 30
0.0
  0
VERTEX
  5
6C3
  8
LAYER_1
 10
14.56889208844078
 20
12.98329055486664
 30
0.0
  0
VERTEX
  5
6C4
  8
LAYER_1
 10
14.54891827553129
 20
12.9563653687532
 30
0.0
  0
VERTEX
  5
6C5
  8
LAYER_1
 10
14.52986727828434
 20
12.92906354188349
 30
0.0
  0
VERTEX
  5
6C6
  8
LAYER_1
 10
14.51176451812004
 20
12.90139594616878
 30
0.0
  0
SEQEND
  5
88F
  8
LAYER_1
  0
POLYLINE
  5
D7
  8
LAYER_1
 66
     1
 10
0.0
 20
0.0
 30
0.0
 70
     1
  0
VERTEX
  5
6C7
  8
LAYER_1
 10
33.4161272409138
 20
10.74695720819756
 30
0.0
 42
-0.2160601912527399
  0
VERTEX
  5
6C8
  8
LAYER_1
 10
33.55713541650509
 20
10.81087345353532
 30
0.0
 42
-0.4142135623730951
  0
VERTEX
  5
6C9
  8
LAYER_1
 10
33.74463541650509
 20
10.62337345353532
 30
0.0
 42
-0.1867149458714474
  0
VERTEX
  5
6CA
  8
LAYER_1
 10
33.6958057059583
 20
10.49717202397541
 30
0.0
  0
VERTEX
  5
6CB
  8
LAYER_1
 10
32.20436903665988
 20
7.882276463496311
 30
0.0
 42
-0.2296893446243965
  0
VERTEX
  5
6CC
  8
LAYER_1
 10
32.05713541650509
 20
7.810873453535322
 30
0.0
 42
-0.4142135623730951
  0
VERTEX
  5
6CD
  8
LAYER_1
 10
31.86963541650509
 20
7.998373453535322
 30
0.0
 42
-0.1917017303095512
  0
VERTEX
  5
6CE
  8
LAYER_1
 10
31.92092103658786
 20
8.127221785708315
 30
0.0
  0
SEQEND
  5
890
  8
LAYER_1
  0
POLYLINE
  5
D8
  8
LAYER_1
 66
     1
 10
0.0
 20
0.0
 30
0.0
 70
     1
  0
VERTEX
  5
6CF
  8
LAYER_1
 10
34.07902725109215
 20
11.60330782352855
 30
0.0
  0
VERTEX
  5
6D0
  8
LAYER_1
 10
15.40561333942721
 20
22.09543017917528
 30
0.0
 42
0.1391295368564364
  0
VERTEX
  5
6D1
  8
LAYER_1
 10
15.30713541650509
 20
22.12337345353532
 30
0.0
 42
0.4142135623730951
  0
VERTEX
  5
6D2
  8
LAYER_1
 10
15.11963541650509
 20
21.93587345353532
 30
0.0
 42
0.2490963593714569
  0
VERTEX
  5
6D3
  8
LAYER_1
 10
15.20215117836879
 20
21.78052043701186
 30
0.0
  0
VERTEX
  5
6D4
  8
LAYER_1
 10
33.89654076068295
 20
11.27608081134196
 30
0.0
 42
0.1385178975520576
  0
VERTEX
  5
6D5
  8
LAYER_1
 10
33.99463541650509
 20
11.24837345353532
 30
0.0
 42
0.4142135623730951
  0
VERTEX
  5
6D6
  8
LAYER_1
 10
34.18213541650509
 20
11.43587345353532
 30
0.0
 42
0.2832097450102494
  0
SEQEND
  5
891
  8
LAYER_1
  0
POLYLINE
  5
D9
  8
LAYER_1
 66
     1
 10
0.0
 20
0.0
 30
0.0
 70
     1
  0
VERTEX
  5
6D7
  8
LAYER_1
 10
8.38595663164978
 20
8.708377191265782
 30
0.0
  0
VERTEX
  5
6D8
  8
LAYER_1
 10
13.77942805869846
 20
18.21277879771318
 30
0.0
 42
0.1385178975523244
  0
VERTEX
  5
6D9
  8
LAYER_1
 10
13.80713541650509
 20
18.31087345353532
 30
0.0
 42
0.4142135623730951
  0
VERTEX
  5
6DA
  8
LAYER_1
 10
13.61963541650509
 20
18.49837345353532
 30
0.0
 42
0.2797733994923233
  0
VERTEX
  5
6DB
  8
LAYER_1
 10
13.45328942746276
 20
18.39739086178088
 30
0.0
  0
VERTEX
  5
6DC
  8
LAYER_1
 10
7.152969695774534
 20
7.292593557319123
 30
0.0
 42
0.1525421150447755
  0
VERTEX
  5
6DD
  8
LAYER_1
 10
7.119635416505094
 20
7.185873453535322
 30
0.0
 42
0.4142135623730951
  0
VERTEX
  5
6DE
  8
LAYER_1
 10
7.307135416505094
 20
6.998373453535322
 30
0.0
 42
0.2478127176096709
  0
VERTEX
  5
6DF
  8
LAYER_1
 10
7.461978910452775
 20
7.080139152657722
 30
0.0
  0
VERTEX
  5
6E0
  8
LAYER_1
 10
7.935397351733084
 20
7.914366631201091
 30
0.0
  0
VERTEX
  5
6E1
  8
LAYER_1
 10
7.685153843381674
 20
5.094381649217979
 30
0.0
 42
0.044949128306829
  0
VERTEX
  5
6E2
  8
LAYER_1
 10
7.682135416505094
 20
5.060873453535322
 30
0.0
 42
0.4142135623730951
  0
VERTEX
  5
6E3
  8
LAYER_1
 10
7.869635416505094
 20
4.873373453535322
 30
0.0
 42
0.3765424069803357
  0
VERTEX
  5
6E4
  8
LAYER_1
 10
8.055545790964612
 20
5.036509901488813
 30
0.0
  0
VERTEX
  5
6E5
  8
LAYER_1
 10
8.38593178028908
 20
8.708324860280669
 30
0.0
  0
SEQEND
  5
892
  8
LAYER_1
  0
POLYLINE
  5
DA
  8
LAYER_1
 66
     1
 10
0.0
 20
0.0
 30
0.0
 70
     1
  0
VERTEX
  5
6E6
  8
LAYER_1
 10
2.432135416505094
 20
22.90314812609991
 30
0.0
  0
VERTEX
  5
6E7
  8
LAYER_1
 10
2.432135416505094
 20
7.185873453535322
 30
0.0
 42
-0.4142135623730951
  0
VERTEX
  5
6E8
  8
LAYER_1
 10
2.244635416505094
 20
6.998373453535322
 30
0.0
 42
-0.4142135623730951
  0
VERTEX
  5
6E9
  8
LAYER_1
 10
2.057135416505094
 20
7.185873453535322
 30
0.0
  0
VERTEX
  5
6EA
  8
LAYER_1
 10
2.057135416505094
 20
24.18587345353532
 30
0.0
 42
-0.4142135623730951
  0
VERTEX
  5
6EB
  8
LAYER_1
 10
2.244635416505094
 20
24.37337345353532
 30
0.0
 42
-0.4142135623730951
  0
VERTEX
  5
6EC
  8
LAYER_1
 10
2.432135416505094
 20
24.18587345353532
 30
0.0
  0
VERTEX
  5
6ED
  8
LAYER_1
 10
2.432135416505094
 20
23.44549207362928
 30
0.0
  0
VERTEX
  5
6EE
  8
LAYER_1
 10
2.432916999338307
 20
23.44408688307055
 30
0.0
  0
VERTEX
  5
6EF
  8
LAYER_1
 10
11.4670012172995
 20
32.6699381993497
 30
0.0
  0
VERTEX
  5
6F0
  8
LAYER_1
 10
11.57803928370565
 20
32.78321543445256
 30
0.0
  0
VERTEX
  5
6F1
  8
LAYER_1
 10
12.25067961530523
 20
33.47004746848222
 30
0.0
  0
VERTEX
  5
6F2
  8
LAYER_1
 10
12.74431592040076
 20
33.44440605993083
 30
0.0
  0
VERTEX
  5
6F3
  8
LAYER_1
 10
12.24821472649944
 20
32.9367252769475
 30
0.0
  0
VERTEX
  5
6F4
  8
LAYER_1
 10
12.24867009838219
 20
32.93587345353532
 30
0.0
  0
VERTEX
  5
6F5
  8
LAYER_1
 10
17.30713541650509
 20
32.93587345353532
 30
0.0
 42
-0.4142135623730951
  0
VERTEX
  5
6F6
  8
LAYER_1
 10
17.49463541650509
 20
32.74837345353532
 30
0.0
 42
-0.4142135623730951
  0
VERTEX
  5
6F7
  8
LAYER_1
 10
17.30713541650509
 20
32.56087345353532
 30
0.0
  0
VERTEX
  5
6F8
  8
LAYER_1
 10
11.88097155141853
 20
32.56087345353532
 30
0.0
  0
VERTEX
  5
6F9
  8
LAYER_1
 10
11.88092564220723
 20
32.5608632306816
 30
0.0
  0
VERTEX
  5
6FA
  8
LAYER_1
 10
11.83480458165742
 20
32.51366564998678
 30
0.0
  0
VERTEX
  5
6FB
  8
LAYER_1
 10
11.75221793797757
 20
32.42829093206285
 30
0.0
  0
VERTEX
  5
6FC
  8
LAYER_1
 10
2.433860039733137
 20
22.90635948277942
 30
0.0
  0
SEQEND
  5
893
  8
LAYER_1
  0
POLYLINE
  5
DB
  8
LAYER_1
 66
     1
 10
0.0
 20
0.0
 30
0.0
 70
     1
  0
VERTEX
  5
6FD
  8
LAYER_1
 10
69.74463541650509
 20
2.436831265754755
 30
0.0
  0
VERTEX
  5
6FE
  8
LAYER_1
 10
69.74463541650509
 20
27.52965313972189
 30
0.0
  0
VERTEX
  5
6FF
  8
LAYER_1
 10
69.7445150762771
 20
27.52967345353532
 30
0.0
  0
VERTEX
  5
700
  8
LAYER_1
 10
66.99463541650509
 20
27.52967345353532
 30
0.0
 42
-0.4142135623730951
  0
VERTEX
  5
701
  8
LAYER_1
 10
66.80713541650509
 20
27.71717345353532
 30
0.0
 42
-0.4142135623730951
  0
VERTEX
  5
702
  8
LAYER_1
 10
66.99463541650509
 20
27.90467345353532
 30
0.0
  0
VERTEX
  5
703
  8
LAYER_1
 10
67.55710265919505
 20
27.90467345353532
 30
0.0
  0
VERTEX
  5
704
  8
LAYER_1
 10
67.55713541650509
 20
27.90471666877052
 30
0.0
  0
VERTEX
  5
705
  8
LAYER_1
 10
67.55805631155964
 20
32.54987143198886
 30
0.0
  0
VERTEX
  5
706
  8
LAYER_1
 10
67.55805843569512
 20
32.56058594062665
 30
0.0
  0
VERTEX
  5
707
  8
LAYER_1
 10
67.5579885498622
 20
32.56087345353532
 30
0.0
  0
VERTEX
  5
708
  8
LAYER_1
 10
66.71963541650508
 20
32.56087345353532
 30
0.0
  0
VERTEX
  5
709
  8
LAYER_1
 10
66.61963541650509
 20
32.56087345353532
 30
0.0
  0
VERTEX
  5
70A
  8
LAYER_1
 10
58.12071238727212
 20
32.56087345353532
 30
0.0
  0
VERTEX
  5
70B
  8
LAYER_1
 10
58.11963541650509
 20
32.55837728371783
 30
0.0
  0
VERTEX
  5
70C
  8
LAYER_1
 10
58.11963541650509
 20
2.437759739162573
 30
0.0
  0
VERTEX
  5
70D
  8
LAYER_1
 10
58.12060026916943
 20
2.435873453535322
 30
0.0
  0
VERTEX
  5
70E
  8
LAYER_1
 10
58.1215412729953
 20
2.435873453535322
 30
0.0
  0
VERTEX
  5
70F
  8
LAYER_1
 10
69.74355099476061
 20
2.435873453535322
 30
0.0
  0
SEQEND
  5
894
  8
LAYER_1
  0
POLYLINE
  5
DC
  8
LAYER_1
 66
     1
 10
0.0
 20
0.0
 30
0.0
 70
     1
  0
VERTEX
  5
710
  8
LAYER_1
 10
70.11963541650509
 20
2.32477151879489
 30
0.0
  0
VERTEX
  5
711
  8
LAYER_1
 10
70.11963541650509
 20
27.90465188660951
 30
0.0
  0
VERTEX
  5
712
  8
LAYER_1
 10
70.11955031475368
 20
27.90467345353532
 30
0.0
  0
VERTEX
  5
713
  8
LAYER_1
 10
67.93218721709194
 20
27.90467345353532
 30
0.0
  0
VERTEX
  5
714
  8
LAYER_1
 10
67.93213541650509
 20
27.90473505288494
 30
0.0
  0
VERTEX
  5
715
  8
LAYER_1
 10
67.93294231705674
 20
32.93585580316193
 30
0.0
  0
VERTEX
  5
716
  8
LAYER_1
 10
67.93287857982101
 20
32.93587345353532
 30
0.0
  0
VERTEX
  5
717
  8
LAYER_1
 10
66.61963541650509
 20
32.93587345353532
 30
0.0
  0
VERTEX
  5
718
  8
LAYER_1
 10
47.55713541650509
 20
32.93587345353532
 30
0.0
 42
0.4142135623730951
  0
VERTEX
  5
719
  8
LAYER_1
 10
47.36963541650509
 20
32.74837345353532
 30
0.0
 42
0.4142135623730951
  0
VERTEX
  5
71A
  8
LAYER_1
 10
47.55713541650509
 20
32.56087345353532
 30
0.0
  0
VERTEX
  5
71B
  8
LAYER_1
 10
57.74452796140228
 20
32.56087345353532
 30
0.0
  0
VERTEX
  5
71C
  8
LAYER_1
 10
57.74463541650509
 20
32.55837728371783
 30
0.0
  0
VERTEX
  5
71D
  8
LAYER_1
 10
57.74463541650509
 20
2.439877321530702
 30
0.0
  0
VERTEX
  5
71E
  8
LAYER_1
 10
57.74165904093589
 20
2.435873453535322
 30
0.0
  0
VERTEX
  5
71F
  8
LAYER_1
 10
57.74177022885101
 20
2.435873453535322
 30
0.0
  0
VERTEX
  5
720
  8
LAYER_1
 10
35.93213541650509
 20
2.435873453535322
 30
0.0
  0
VERTEX
  5
721
  8
LAYER_1
 10
35.83213541650509
 20
2.435873453535322
 30
0.0
  0
VERTEX
  5
722
  8
LAYER_1
 10
33.30658688091237
 20
2.433246319738458
 30
0.0
  0
VERTEX
  5
723
  8
LAYER_1
 10
33.18213541650509
 20
2.435873453535322
 30
0.0
 42
0.4142135623730951
  0
VERTEX
  5
724
  8
LAYER_1
 10
32.99463541650509
 20
2.248373453535322
 30
0.0
 42
0.4142135623730951
  0
VERTEX
  5
725
  8
LAYER_1
 10
33.18213541650509
 20
2.060873453535322
 30
0.0
  0
VERTEX
  5
726
  8
LAYER_1
 10
35.93213541650509
 20
2.060873453535322
 30
0.0
  0
VERTEX
  5
727
  8
LAYER_1
 10
69.90939268899002
 20
2.060873453535322
 30
0.0
  0
VERTEX
  5
728
  8
LAYER_1
 10
69.93228331725281
 20
2.059744387063091
 30
0.0
 42
0.4142135623730951
  0
VERTEX
  5
729
  8
LAYER_1
 10
70.11978331725281
 20
2.247244387063091
 30
0.0
  0
SEQEND
  5
895
  8
LAYER_1
  0
POLYLINE
  5
DD
  8
LAYER_1
 66
     1
 10
0.0
 20
0.0
 30
0.0
 70
     1
  0
VERTEX
  5
72A
  8
LAYER_1
 10
59.06982461574582
 20
34.61647771151905
 30
0.0
  0
VERTEX
  5
72B
  8
LAYER_1
 10
57.06984103503756
 20
34.61647771151905
 30
0.0
  0
VERTEX
  5
72C
  8
LAYER_1
 10
57.06984103503756
 20
38.24147771151905
 30
0.0
  0
VERTEX
  5
72D
  8
LAYER_1
 10
73.06984103503756
 20
38.24147771151905
 30
0.0
  0
VERTEX
  5
72E
  8
LAYER_1
 10
73.06984103503756
 20
34.61647771151905
 30
0.0
  0
VERTEX
  5
72F
  8
LAYER_1
 10
71.06985511928947
 20
34.61647771151905
 30
0.0
  0
VERTEX
  5
730
  8
LAYER_1
 10
71.06984103503756
 20
36.55397771151905
 30
0.0
  0
VERTEX
  5
731
  8
LAYER_1
 10
59.06984103503756
 20
36.55397771151905
 30
0.0
  0
SEQEND
  5
896
  8
LAYER_1
  0
POLYLINE
  5
DE
  8
LAYER_1
 66
     1
 10
0.0
 20
0.0
 30
0.0
 70
     1
  0
VERTEX
  5
732
  8
LAYER_1
 10
57.00553295739196
 20
40.29898397325982
 30
0.0
  0
VERTEX
  5
733
  8
LAYER_1
 10
60.00553295739196
 20
40.29898397325982
 30
0.0
  0
VERTEX
  5
734
  8
LAYER_1
 10
60.00553295739196
 20
44.29898397325982
 30
0.0
  0
VERTEX
  5
735
  8
LAYER_1
 10
57.00553295739196
 20
44.29898397325982
 30
0.0
  0
SEQEND
  5
897
  8
LAYER_1
  0
POLYLINE
  5
DF
  8
LAYER_1
 66
     1
 10
0.0
 20
0.0
 30
0.0
 70
     1
  0
VERTEX
  5
736
  8
LAYER_1
 10
58.50553295739196
 20
43.17398397325982
 30
0.0
 42
0.4142135623730951
  0
VERTEX
  5
737
  8
LAYER_1
 10
57.63053295739196
 20
42.29898397325982
 30
0.0
 42
0.4142135623730951
  0
VERTEX
  5
738
  8
LAYER_1
 10
58.50553295739196
 20
41.42398397325982
 30
0.0
 42
0.4142135623730951
  0
VERTEX
  5
739
  8
LAYER_1
 10
59.38053295739196
 20
42.29898397325982
 30
0.0
 42
0.4142135623730951
  0
SEQEND
  5
898
  8
LAYER_1
  0
POLYLINE
  5
E0
  8
LAYER_1
 66
     1
 10
0.0
 20
0.0
 30
0.0
 70
     1
  0
VERTEX
  5
73A
  8
LAYER_1
 10
99.8004124376909
 20
2.188230859927035
 30
0.0
  0
VERTEX
  5
73B
  8
LAYER_1
 10
122.7379124376909
 20
2.188230859927035
 30
0.0
  0
VERTEX
  5
73C
  8
LAYER_1
 10
122.7379124376909
 20
32.81323085992703
 30
0.0
  0
VERTEX
  5
73D
  8
LAYER_1
 10
99.8004124376909
 20
32.81323085992703
 30
0.0
  0
SEQEND
  5
899
  8
LAYER_1
  0
POLYLINE
  5
E1
  8
LAYER_1
 66
     1
 10
0.0
 20
0.0
 30
0.0
 70
     1
  0
VERTEX
  5
73E
  8
LAYER_1
 10
111.2379124376909
 20
32.12573085992703
 30
0.0
 42
0.4142135623730951
  0
VERTEX
  5
73F
  8
LAYER_1
 10
110.8629124376909
 20
31.75073085992704
 30
0.0
 42
0.4142135623730951
  0
VERTEX
  5
740
  8
LAYER_1
 10
111.2379124376909
 20
31.37573085992704
 30
0.0
 42
0.4142135623730951
  0
VERTEX
  5
741
  8
LAYER_1
 10
111.6129124376909
 20
31.75073085992704
 30
0.0
 42
0.4142135623730951
  0
SEQEND
  5
89A
  8
LAYER_1
  0
POLYLINE
  5
E2
  8
LAYER_1
 66
     1
 10
0.0
 20
0.0
 30
0.0
 70
     1
  0
VERTEX
  5
742
  8
LAYER_1
 10
111.2379124376909
 20
32.37573085992703
 30
0.0
 42
0.4142135623730951
  0
VERTEX
  5
743
  8
LAYER_1
 10
110.6129124376909
 20
31.75073085992704
 30
0.0
 42
0.4142135623730951
  0
VERTEX
  5
744
  8
LAYER_1
 10
111.2379124376909
 20
31.12573085992704
 30
0.0
 42
0.4142135623730951
  0
VERTEX
  5
745
  8
LAYER_1
 10
111.8629124376909
 20
31.75073085992704
 30
0.0
 42
0.4142135623730951
  0
SEQEND
  5
89B
  8
LAYER_1
  0
POLYLINE
  5
E3
  8
LAYER_1
 66
     1
 10
0.0
 20
0.0
 30
0.0
 70
     1
  0
VERTEX
  5
746
  8
LAYER_1
 10
99.6754124376909
 20
32.43823085992703
 30
0.0
  0
VERTEX
  5
747
  8
LAYER_1
 10
122.8629124376909
 20
32.43823085992703
 30
0.0
  0
VERTEX
  5
748
  8
LAYER_1
 10
122.8629124376909
 20
32.87573085992703
 30
0.0
  0
VERTEX
  5
749
  8
LAYER_1
 10
99.6754124376909
 20
32.87573085992703
 30
0.0
  0
SEQEND
  5
89C
  8
LAYER_1
  0
POLYLINE
  5
E4
  8
LAYER_1
 66
     1
 10
0.0
 20
0.0
 30
0.0
 70
     1
  0
VERTEX
  5
74A
  8
LAYER_1
 10
169.0168593389262
 20
-23.60828824809717
 30
0.0
  0
VERTEX
  5
74B
  8
LAYER_1
 10
169.0168593389262
 20
-0.1707882480971747
 30
0.0
  0
VERTEX
  5
74C
  8
LAYER_1
 10
151.3293593389262
 20
-0.1707882480971747
 30
0.0
  0
VERTEX
  5
74D
  8
LAYER_1
 10
151.3293593389262
 20
-23.60828824809717
 30
0.0
  0
SEQEND
  5
89D
  8
LAYER_1
  0
POLYLINE
  5
E5
  8
LAYER_1
 66
     1
 10
0.0
 20
0.0
 30
0.0
 70
     1
  0
VERTEX
  5
74E
  8
LAYER_1
 10
169.1418593389262
 20
-23.67078824809717
 30
0.0
  0
VERTEX
  5
74F
  8
LAYER_1
 10
169.1418593389262
 20
-23.35828824809717
 30
0.0
  0
VERTEX
  5
750
  8
LAYER_1
 10
151.2043593389262
 20
-23.35828824809717
 30
0.0
  0
VERTEX
  5
751
  8
LAYER_1
 10
151.2043593389262
 20
-23.67078824809717
 30
0.0
  0
SEQEND
  5
89E
  8
LAYER_1
  0
POLYLINE
  5
E6
  8
LAYER_1
 66
     1
 10
0.0
 20
0.0
 30
0.0
 70
     1
  0
VERTEX
  5
752
  8
LAYER_1
 10
169.1418593389262
 20
-0.4207882480971747
 30
0.0
  0
VERTEX
  5
753
  8
LAYER_1
 10
169.1418593389262
 20
-0.1082882480971747
 30
0.0
  0
VERTEX
  5
754
  8
LAYER_1
 10
151.2043593389262
 20
-0.1082882480971747
 30
0.0
  0
VERTEX
  5
755
  8
LAYER_1
 10
151.2043593389262
 20
-0.4207882480971747
 30
0.0
  0
SEQEND
  5
89F
  8
LAYER_1
  0
POLYLINE
  5
E7
  8
LAYER_1
 66
     1
 10
0.0
 20
0.0
 30
0.0
 70
     1
  0
VERTEX
  5
756
  8
LAYER_1
 10
156.8293593389262
 20
-4.295788248097175
 30
0.0
 42
0.4142135623730951
  0
VERTEX
  5
757
  8
LAYER_1
 10
157.7043593389262
 20
-5.170788248097175
 30
0.0
 42
0.4142135623730951
  0
VERTEX
  5
758
  8
LAYER_1
 10
158.5793593389262
 20
-4.295788248097175
 30
0.0
 42
0.4142135623730951
  0
VERTEX
  5
759
  8
LAYER_1
 10
157.7043593389262
 20
-3.420788248097175
 30
0.0
 42
0.4142135623730951
  0
SEQEND
  5
8A0
  8
LAYER_1
  0
POLYLINE
  5
E8
  8
LAYER_1
 66
     1
 10
0.0
 20
0.0
 30
0.0
 70
     1
  0
VERTEX
  5
75A
  8
LAYER_1
 10
99.8944207344974
 20
34.0003042788375
 30
0.0
  0
VERTEX
  5
75B
  8
LAYER_1
 10
123.3319207344974
 20
34.0003042788375
 30
0.0
  0
VERTEX
  5
75C
  8
LAYER_1
 10
123.3319207344974
 20
48.1878042788375
 30
0.0
  0
VERTEX
  5
75D
  8
LAYER_1
 10
99.8944207344974
 20
48.1878042788375
 30
0.0
  0
SEQEND
  5
8A1
  8
LAYER_1
  0
POLYLINE
  5
E9
  8
LAYER_1
 66
     1
 10
0.0
 20
0.0
 30
0.0
 70
     1
  0
VERTEX
  5
75E
  8
LAYER_1
 10
99.8319207344974
 20
33.8753042788375
 30
0.0
  0
VERTEX
  5
75F
  8
LAYER_1
 10
100.1444207344974
 20
33.8753042788375
 30
0.0
  0
VERTEX
  5
760
  8
LAYER_1
 10
100.1444207344974
 20
48.3128042788375
 30
0.0
  0
VERTEX
  5
761
  8
LAYER_1
 10
99.8319207344974
 20
48.3128042788375
 30
0.0
  0
SEQEND
  5
8A2
  8
LAYER_1
  0
POLYLINE
  5
EA
  8
LAYER_1
 66
     1
 10
0.0
 20
0.0
 30
0.0
 70
     1
  0
VERTEX
  5
762
  8
LAYER_1
 10
123.0819207344974
 20
33.8753042788375
 30
0.0
  0
VERTEX
  5
763
  8
LAYER_1
 10
123.3944207344974
 20
33.8753042788375
 30
0.0
  0
VERTEX
  5
764
  8
LAYER_1
 10
123.3944207344974
 20
48.3128042788375
 30
0.0
  0
VERTEX
  5
765
  8
LAYER_1
 10
123.0819207344974
 20
48.3128042788375
 30
0.0
  0
SEQEND
  5
8A3
  8
LAYER_1
  0
POLYLINE
  5
EB
  8
LAYER_1
 66
     1
 10
0.0
 20
0.0
 30
0.0
 70
     1
  0
VERTEX
  5
766
  8
LAYER_1
 10
111.6131707344974
 20
45.8440542788375
 30
0.0
 42
0.4142135623730951
  0
VERTEX
  5
767
  8
LAYER_1
 10
108.9569207344974
 20
43.1878042788375
 30
0.0
 42
0.4142135623730951
  0
VERTEX
  5
768
  8
LAYER_1
 10
111.6131707344974
 20
40.5315542788375
 30
0.0
 42
0.4142135623730951
  0
VERTEX
  5
769
  8
LAYER_1
 10
114.2694207344974
 20
43.1878042788375
 30
0.0
 42
0.4142135623730951
  0
SEQEND
  5
8A4
  8
LAYER_1
  0
POLYLINE
  5
EC
  8
LAYER_1
 66
     1
 10
0.0
 20
0.0
 30
0.0
 70
     1
  0
VERTEX
  5
76A
  8
LAYER_1
 10
104.5819207344974
 20
37.06330427883751
 30
0.0
 42
0.4142135623730951
  0
VERTEX
  5
76B
  8
LAYER_1
 10
104.4564207344974
 20
36.9378042788375
 30
0.0
 42
0.4142135623730951
  0
VERTEX
  5
76C
  8
LAYER_1
 10
104.5819207344974
 20
36.8123042788375
 30
0.0
 42
0.4142135623730951
  0
VERTEX
  5
76D
  8
LAYER_1
 10
104.7074207344974
 20
36.9378042788375
 30
0.0
 42
0.4142135623730951
  0
SEQEND
  5
8A5
  8
LAYER_1
  0
POLYLINE
  5
ED
  8
LAYER_1
 66
     1
 10
0.0
 20
0.0
 30
0.0
 70
     1
  0
VERTEX
  5
76E
  8
LAYER_1
 10
118.9569207344974
 20
37.06330427883751
 30
0.0
 42
0.4142135623730951
  0
VERTEX
  5
76F
  8
LAYER_1
 10
118.8314207344974
 20
36.9378042788375
 30
0.0
 42
0.4142135623730951
  0
VERTEX
  5
770
  8
LAYER_1
 10
118.9569207344974
 20
36.8123042788375
 30
0.0
 42
0.4142135623730951
  0
VERTEX
  5
771
  8
LAYER_1
 10
119.0824207344974
 20
36.9378042788375
 30
0.0
 42
0.4142135623730951
  0
SEQEND
  5
8A6
  8
LAYER_1
  0
POLYLINE
  5
EE
  8
LAYER_1
 66
     1
 10
0.0
 20
0.0
 30
0.0
 70
     1
  0
VERTEX
  5
772
  8
LAYER_1
 10
118.9569207344974
 20
39.25080427883751
 30
0.0
 42
0.4142135623730951
  0
VERTEX
  5
773
  8
LAYER_1
 10
118.8314207344974
 20
39.1253042788375
 30
0.0
 42
0.4142135623730951
  0
VERTEX
  5
774
  8
LAYER_1
 10
118.9569207344974
 20
38.9998042788375
 30
0.0
 42
0.4142135623730951
  0
VERTEX
  5
775
  8
LAYER_1
 10
119.0824207344974
 20
39.1253042788375
 30
0.0
 42
0.4142135623730951
  0
SEQEND
  5
8A7
  8
LAYER_1
  0
POLYLINE
  5
EF
  8
LAYER_1
 66
     1
 10
0.0
 20
0.0
 30
0.0
 70
     1
  0
VERTEX
  5
776
  8
LAYER_1
 10
104.5819207344974
 20
39.25080427883751
 30
0.0
 42
0.4142135623730951
  0
VERTEX
  5
777
  8
LAYER_1
 10
104.4564207344974
 20
39.1253042788375
 30
0.0
 42
0.4142135623730951
  0
VERTEX
  5
778
  8
LAYER_1
 10
104.5819207344974
 20
38.9998042788375
 30
0.0
 42
0.4142135623730951
  0
VERTEX
  5
779
  8
LAYER_1
 10
104.7074207344974
 20
39.1253042788375
 30
0.0
 42
0.4142135623730951
  0
SEQEND
  5
8A8
  8
LAYER_1
  0
POLYLINE
  5
F0
  8
LAYER_1
 66
     1
 10
0.0
 20
0.0
 30
0.0
 70
     1
  0
VERTEX
  5
77A
  8
LAYER_1
 10
148.6849028885362
 20
2.491596545587655
 30
0.0
  0
VERTEX
  5
77B
  8
LAYER_1
 10
172.1224028885362
 20
2.491596545587655
 30
0.0
  0
VERTEX
  5
77C
  8
LAYER_1
 10
172.1224028885362
 20
7.741596545587655
 30
0.0
  0
VERTEX
  5
77D
  8
LAYER_1
 10
148.6849028885362
 20
7.741596545587655
 30
0.0
  0
SEQEND
  5
8A9
  8
LAYER_1
  0
POLYLINE
  5
F1
  8
LAYER_1
 66
     1
 10
0.0
 20
0.0
 30
0.0
 70
     1
  0
VERTEX
  5
77E
  8
LAYER_1
 10
148.6224028885362
 20
2.366596545587655
 30
0.0
  0
VERTEX
  5
77F
  8
LAYER_1
 10
148.9349028885362
 20
2.366596545587655
 30
0.0
  0
VERTEX
  5
780
  8
LAYER_1
 10
148.9349028885362
 20
7.866596545587655
 30
0.0
  0
VERTEX
  5
781
  8
LAYER_1
 10
148.6224028885362
 20
7.866596545587655
 30
0.0
  0
SEQEND
  5
8AA
  8
LAYER_1
  0
POLYLINE
  5
F2
  8
LAYER_1
 66
     1
 10
0.0
 20
0.0
 30
0.0
 70
     1
  0
VERTEX
  5
782
  8
LAYER_1
 10
171.8724028885362
 20
2.366596545587655
 30
0.0
  0
VERTEX
  5
783
  8
LAYER_1
 10
172.1849028885362
 20
2.366596545587655
 30
0.0
  0
VERTEX
  5
784
  8
LAYER_1
 10
172.1849028885362
 20
7.866596545587655
 30
0.0
  0
VERTEX
  5
785
  8
LAYER_1
 10
171.8724028885362
 20
7.866596545587655
 30
0.0
  0
SEQEND
  5
8AB
  8
LAYER_1
  0
POLYLINE
  5
F3
  8
LAYER_1
 66
     1
 10
0.0
 20
0.0
 30
0.0
 70
     1
  0
VERTEX
  5
786
  8
LAYER_1
 10
124.1318659442657
 20
2.318271561242007
 30
0.0
  0
VERTEX
  5
787
  8
LAYER_1
 10
147.5693659442657
 20
2.318271561242007
 30
0.0
  0
VERTEX
  5
788
  8
LAYER_1
 10
147.5693659442657
 20
23.56827156124201
 30
0.0
  0
VERTEX
  5
789
  8
LAYER_1
 10
124.1318659442657
 20
23.56827156124201
 30
0.0
  0
SEQEND
  5
8AC
  8
LAYER_1
  0
POLYLINE
  5
F4
  8
LAYER_1
 66
     1
 10
0.0
 20
0.0
 30
0.0
 70
     1
  0
VERTEX
  5
78A
  8
LAYER_1
 10
124.0693659442657
 20
2.193271561242007
 30
0.0
  0
VERTEX
  5
78B
  8
LAYER_1
 10
124.3818659442657
 20
2.193271561242007
 30
0.0
  0
VERTEX
  5
78C
  8
LAYER_1
 10
124.3818659442657
 20
23.69327156124201
 30
0.0
  0
VERTEX
  5
78D
  8
LAYER_1
 10
124.0693659442657
 20
23.69327156124201
 30
0.0
  0
SEQEND
  5
8AD
  8
LAYER_1
  0
POLYLINE
  5
F5
  8
LAYER_1
 66
     1
 10
0.0
 20
0.0
 30
0.0
 70
     1
  0
VERTEX
  5
78E
  8
LAYER_1
 10
147.3193659442657
 20
2.193271561242007
 30
0.0
  0
VERTEX
  5
78F
  8
LAYER_1
 10
147.6318659442657
 20
2.193271561242007
 30
0.0
  0
VERTEX
  5
790
  8
LAYER_1
 10
147.6318659442657
 20
23.69327156124201
 30
0.0
  0
VERTEX
  5
791
  8
LAYER_1
 10
147.3193659442657
 20
23.69327156124201
 30
0.0
  0
SEQEND
  5
8AE
  8
LAYER_1
  0
POLYLINE
  5
F6
  8
LAYER_1
 66
     1
 10
0.0
 20
0.0
 30
0.0
 70
     1
  0
VERTEX
  5
792
  8
LAYER_1
 10
135.8506159442657
 20
10.59952156124201
 30
0.0
 42
0.4142135623730951
  0
VERTEX
  5
793
  8
LAYER_1
 10
133.1943659442657
 20
7.943271561242007
 30
0.0
 42
0.4142135623730951
  0
VERTEX
  5
794
  8
LAYER_1
 10
135.8506159442657
 20
5.287021561242007
 30
0.0
 42
0.4142135623730951
  0
VERTEX
  5
795
  8
LAYER_1
 10
138.5068659442657
 20
7.943271561242007
 30
0.0
 42
0.4142135623730951
  0
SEQEND
  5
8AF
  8
LAYER_1
  0
POLYLINE
  5
F7
  8
LAYER_1
 66
     1
 10
0.0
 20
0.0
 30
0.0
 70
     1
  0
VERTEX
  5
796
  8
LAYER_1
 10
139.6943659442657
 20
3.818271561242007
 30
0.0
  0
VERTEX
  5
797
  8
LAYER_1
 10
142.9443659442657
 20
3.818271561242007
 30
0.0
  0
VERTEX
  5
798
  8
LAYER_1
 10
142.9443659442657
 20
5.818271561242007
 30
0.0
  0
VERTEX
  5
799
  8
LAYER_1
 10
139.6943659442657
 20
5.818271561242007
 30
0.0
  0
SEQEND
  5
8B0
  8
LAYER_1
  0
POLYLINE
  5
F8
  8
LAYER_1
 66
     1
 10
0.0
 20
0.0
 30
0.0
 70
     1
  0
VERTEX
  5
79A
  8
LAYER_1
 10
148.6224028885362
 20
2.429096545587655
 30
0.0
  0
VERTEX
  5
79B
  8
LAYER_1
 10
172.1224028885362
 20
2.429096545587655
 30
0.0
  0
VERTEX
  5
79C
  8
LAYER_1
 10
172.1224028885362
 20
2.866596545587655
 30
0.0
  0
VERTEX
  5
79D
  8
LAYER_1
 10
148.6224028885362
 20
2.866596545587655
 30
0.0
  0
SEQEND
  5
8B1
  8
LAYER_1
  0
POLYLINE
  5
F9
  8
LAYER_1
 66
     1
 10
0.0
 20
0.0
 30
0.0
 70
     1
  0
VERTEX
  5
79E
  8
LAYER_1
 10
148.7188669153446
 20
9.23660280732842
 30
0.0
  0
VERTEX
  5
79F
  8
LAYER_1
 10
172.1563669153446
 20
9.23660280732842
 30
0.0
  0
VERTEX
  5
7A0
  8
LAYER_1
 10
172.1563669153446
 20
12.73660280732842
 30
0.0
  0
VERTEX
  5
7A1
  8
LAYER_1
 10
148.7188669153446
 20
12.73660280732842
 30
0.0
  0
SEQEND
  5
8B2
  8
LAYER_1
  0
POLYLINE
  5
FA
  8
LAYER_1
 66
     1
 10
0.0
 20
0.0
 30
0.0
 70
     1
  0
VERTEX
  5
7A2
  8
LAYER_1
 10
148.6563669153446
 20
9.11160280732842
 30
0.0
  0
VERTEX
  5
7A3
  8
LAYER_1
 10
148.9688669153446
 20
9.11160280732842
 30
0.0
  0
VERTEX
  5
7A4
  8
LAYER_1
 10
148.9688669153446
 20
12.86160280732842
 30
0.0
  0
VERTEX
  5
7A5
  8
LAYER_1
 10
148.6563669153446
 20
12.86160280732842
 30
0.0
  0
SEQEND
  5
8B3
  8
LAYER_1
  0
POLYLINE
  5
FB
  8
LAYER_1
 66
     1
 10
0.0
 20
0.0
 30
0.0
 70
     1
  0
VERTEX
  5
7A6
  8
LAYER_1
 10
171.9063669153446
 20
9.11160280732842
 30
0.0
  0
VERTEX
  5
7A7
  8
LAYER_1
 10
172.2188669153446
 20
9.11160280732842
 30
0.0
  0
VERTEX
  5
7A8
  8
LAYER_1
 10
172.2188669153446
 20
12.86160280732842
 30
0.0
  0
VERTEX
  5
7A9
  8
LAYER_1
 10
171.9063669153446
 20
12.86160280732842
 30
0.0
  0
SEQEND
  5
8B4
  8
LAYER_1
  0
POLYLINE
  5
FC
  8
LAYER_1
 66
     1
 10
0.0
 20
0.0
 30
0.0
 70
     1
  0
VERTEX
  5
7AA
  8
LAYER_1
 10
148.5938669153446
 20
10.04910280732842
 30
0.0
  0
VERTEX
  5
7AB
  8
LAYER_1
 10
172.2813669153446
 20
10.04910280732842
 30
0.0
  0
VERTEX
  5
7AC
  8
LAYER_1
 10
172.2813669153446
 20
10.42410280732842
 30
0.0
  0
VERTEX
  5
7AD
  8
LAYER_1
 10
148.5938669153446
 20
10.42410280732842
 30
0.0
  0
SEQEND
  5
8B5
  8
LAYER_1
  0
POLYLINE
  5
FD
  8
LAYER_1
 66
     1
 10
0.0
 20
0.0
 30
0.0
 70
     1
  0
VERTEX
  5
7AE
  8
LAYER_1
 10
148.9907585480935
 20
14.31453506312053
 30
0.0
  0
VERTEX
  5
7AF
  8
LAYER_1
 10
149.3032585480935
 20
14.31453506312053
 30
0.0
  0
VERTEX
  5
7B0
  8
LAYER_1
 10
149.3032585480935
 20
44.56453506312053
 30
0.0
  0
VERTEX
  5
7B1
  8
LAYER_1
 10
148.9907585480935
 20
44.56453506312053
 30
0.0
  0
SEQEND
  5
8B6
  8
LAYER_1
  0
POLYLINE
  5
FE
  8
LAYER_1
 66
     1
 10
0.0
 20
0.0
 30
0.0
 70
     1
  0
VERTEX
  5
7B2
  8
LAYER_1
 10
172.2407585480935
 20
14.31453506312053
 30
0.0
  0
VERTEX
  5
7B3
  8
LAYER_1
 10
172.5532585480935
 20
14.31453506312053
 30
0.0
  0
VERTEX
  5
7B4
  8
LAYER_1
 10
172.5532585480935
 20
40.56453506312053
 30
0.0
  0
VERTEX
  5
7B5
  8
LAYER_1
 10
172.2407585480935
 20
40.56453506312053
 30
0.0
  0
SEQEND
  5
8B7
  8
LAYER_1
  0
POLYLINE
  5
FF
  8
LAYER_1
 66
     1
 10
0.0
 20
0.0
 30
0.0
 70
     1
  0
VERTEX
  5
7B6
  8
LAYER_1
 10
162.209555595555
 20
14.43953506312053
 30
0.0
  0
VERTEX
  5
7B7
  8
LAYER_1
 10
172.4907585480935
 20
14.43953506312053
 30
0.0
  0
VERTEX
  5
7B8
  8
LAYER_1
 10
172.4907585480935
 20
40.43908622584748
 30
0.0
  0
VERTEX
  5
7B9
  8
LAYER_1
 10
172.4907585480935
 20
40.43953506312053
 30
0.0
  0
VERTEX
  5
7BA
  8
LAYER_1
 10
170.3657585480935
 20
40.43953506312053
 30
0.0
  0
VERTEX
  5
7BB
  8
LAYER_1
 10
170.3657585480935
 20
44.43953506312053
 30
0.0
  0
VERTEX
  5
7BC
  8
LAYER_1
 10
170.3636453012473
 20
44.43953506312053
 30
0.0
  0
VERTEX
  5
7BD
  8
LAYER_1
 10
149.0532585480935
 20
44.43953506312053
 30
0.0
  0
VERTEX
  5
7BE
  8
LAYER_1
 10
149.0532585480935
 20
14.43953506312053
 30
0.0
  0
VERTEX
  5
7BF
  8
LAYER_1
 10
159.3344621196824
 20
14.43953506312053
 30
0.0
  0
VERTEX
  5
7C0
  8
LAYER_1
 10
159.3345085480935
 20
14.43953506312053
 30
0.0
  0
VERTEX
  5
7C1
  8
LAYER_1
 10
159.3345085480935
 20
15.43953506312053
 30
0.0
  0
VERTEX
  5
7C2
  8
LAYER_1
 10
162.2095085480935
 20
15.43953506312053
 30
0.0
  0
VERTEX
  5
7C3
  8
LAYER_1
 10
162.2095085480935
 20
14.43953506312053
 30
0.0
  0
SEQEND
  5
8B8
  8
LAYER_1
  0
POLYLINE
  5
100
  8
LAYER_1
 66
     1
 10
0.0
 20
0.0
 30
0.0
 70
     1
  0
VERTEX
  5
7C4
  8
LAYER_1
 10
157.0532585480935
 20
19.43953506312053
 30
0.0
 42
0.4142135623730951
  0
VERTEX
  5
7C5
  8
LAYER_1
 10
156.5532585480935
 20
18.93953506312053
 30
0.0
 42
0.4142135623730951
  0
VERTEX
  5
7C6
  8
LAYER_1
 10
157.0532585480935
 20
18.43953506312053
 30
0.0
 42
0.4142135623730951
  0
VERTEX
  5
7C7
  8
LAYER_1
 10
157.5532585480935
 20
18.93953506312053
 30
0.0
 42
0.4142135623730951
  0
SEQEND
  5
8B9
  8
LAYER_1
  0
POLYLINE
  5
101
  8
LAYER_1
 66
     1
 10
0.0
 20
0.0
 30
0.0
 70
     1
  0
VERTEX
  5
7C8
  8
LAYER_1
 10
124.4711270588556
 20
25.24477437902536
 30
0.0
  0
VERTEX
  5
7C9
  8
LAYER_1
 10
147.9086270588556
 20
25.24477437902536
 30
0.0
  0
VERTEX
  5
7CA
  8
LAYER_1
 10
147.9086270588556
 20
46.24477437902536
 30
0.0
  0
VERTEX
  5
7CB
  8
LAYER_1
 10
124.4711270588556
 20
46.24477437902536
 30
0.0
  0
SEQEND
  5
8BA
  8
LAYER_1
  0
POLYLINE
  5
102
  8
LAYER_1
 66
     1
 10
0.0
 20
0.0
 30
0.0
 70
     1
  0
VERTEX
  5
7CC
  8
LAYER_1
 10
124.4086270588556
 20
25.11977437902536
 30
0.0
  0
VERTEX
  5
7CD
  8
LAYER_1
 10
124.7211270588556
 20
25.11977437902536
 30
0.0
  0
VERTEX
  5
7CE
  8
LAYER_1
 10
124.7211270588556
 20
46.36977437902536
 30
0.0
  0
VERTEX
  5
7CF
  8
LAYER_1
 10
124.4086270588556
 20
46.36977437902536
 30
0.0
  0
SEQEND
  5
8BB
  8
LAYER_1
  0
POLYLINE
  5
103
  8
LAYER_1
 66
     1
 10
0.0
 20
0.0
 30
0.0
 70
     1
  0
VERTEX
  5
7D0
  8
LAYER_1
 10
147.6586270588556
 20
25.11977437902536
 30
0.0
  0
VERTEX
  5
7D1
  8
LAYER_1
 10
147.9711270588556
 20
25.11977437902536
 30
0.0
  0
VERTEX
  5
7D2
  8
LAYER_1
 10
147.9711270588556
 20
46.36977437902536
 30
0.0
  0
VERTEX
  5
7D3
  8
LAYER_1
 10
147.6586270588556
 20
46.36977437902536
 30
0.0
  0
SEQEND
  5
8BC
  8
LAYER_1
  0
POLYLINE
  5
104
  8
LAYER_1
 66
     1
 10
0.0
 20
0.0
 30
0.0
 70
     1
  0
VERTEX
  5
7D4
  8
LAYER_1
 10
129.7836270588556
 20
28.62027437902536
 30
0.0
 42
0.4142135623730951
  0
VERTEX
  5
7D5
  8
LAYER_1
 10
129.6581270588556
 20
28.49477437902536
 30
0.0
 42
0.4142135623730951
  0
VERTEX
  5
7D6
  8
LAYER_1
 10
129.7836270588556
 20
28.36927437902536
 30
0.0
 42
0.4142135623730951
  0
VERTEX
  5
7D7
  8
LAYER_1
 10
129.9091270588556
 20
28.49477437902536
 30
0.0
 42
0.4142135623730951
  0
SEQEND
  5
8BD
  8
LAYER_1
  0
POLYLINE
  5
105
  8
LAYER_1
 66
     1
 10
0.0
 20
0.0
 30
0.0
 70
     1
  0
VERTEX
  5
7D8
  8
LAYER_1
 10
129.7836270588556
 20
44.30777437902536
 30
0.0
 42
0.4142135623730951
  0
VERTEX
  5
7D9
  8
LAYER_1
 10
129.6581270588556
 20
44.18227437902536
 30
0.0
 42
0.4142135623730951
  0
VERTEX
  5
7DA
  8
LAYER_1
 10
129.7836270588556
 20
44.05677437902537
 30
0.0
 42
0.4142135623730951
  0
VERTEX
  5
7DB
  8
LAYER_1
 10
129.9091270588556
 20
44.18227437902536
 30
0.0
 42
0.4142135623730951
  0
SEQEND
  5
8BE
  8
LAYER_1
  0
POLYLINE
  5
106
  8
LAYER_1
 66
     1
 10
0.0
 20
0.0
 30
0.0
 70
     1
  0
VERTEX
  5
7DC
  8
LAYER_1
 10
142.7836270588556
 20
44.30777437902536
 30
0.0
 42
0.4142135623730951
  0
VERTEX
  5
7DD
  8
LAYER_1
 10
142.6581270588556
 20
44.18227437902536
 30
0.0
 42
0.4142135623730951
  0
VERTEX
  5
7DE
  8
LAYER_1
 10
142.7836270588556
 20
44.05677437902537
 30
0.0
 42
0.4142135623730951
  0
VERTEX
  5
7DF
  8
LAYER_1
 10
142.9091270588556
 20
44.18227437902536
 30
0.0
 42
0.4142135623730951
  0
SEQEND
  5
8BF
  8
LAYER_1
  0
POLYLINE
  5
107
  8
LAYER_1
 66
     1
 10
0.0
 20
0.0
 30
0.0
 70
     1
  0
VERTEX
  5
7E0
  8
LAYER_1
 10
142.7836270588556
 20
28.62027437902536
 30
0.0
 42
0.4142135623730951
  0
VERTEX
  5
7E1
  8
LAYER_1
 10
142.6581270588556
 20
28.49477437902536
 30
0.0
 42
0.4142135623730951
  0
VERTEX
  5
7E2
  8
LAYER_1
 10
142.7836270588556
 20
28.36927437902536
 30
0.0
 42
0.4142135623730951
  0
VERTEX
  5
7E3
  8
LAYER_1
 10
142.9091270588556
 20
28.49477437902536
 30
0.0
 42
0.4142135623730951
  0
SEQEND
  5
8C0
  8
LAYER_1
  0
POLYLINE
  5
108
  8
LAYER_1
 66
     1
 10
0.0
 20
0.0
 30
0.0
 70
     1
  0
VERTEX
  5
7E4
  8
LAYER_1
 10
126.4711270588556
 20
31.62027437902536
 30
0.0
 42
0.4142135623730951
  0
VERTEX
  5
7E5
  8
LAYER_1
 10
126.3456270588556
 20
31.49477437902536
 30
0.0
 42
0.4142135623730951
  0
VERTEX
  5
7E6
  8
LAYER_1
 10
126.4711270588556
 20
31.36927437902536
 30
0.0
 42
0.4142135623730951
  0
VERTEX
  5
7E7
  8
LAYER_1
 10
126.5966270588556
 20
31.49477437902536
 30
0.0
 42
0.4142135623730951
  0
SEQEND
  5
8C1
  8
LAYER_1
  0
POLYLINE
  5
109
  8
LAYER_1
 66
     1
 10
0.0
 20
0.0
 30
0.0
 70
     1
  0
VERTEX
  5
7E8
  8
LAYER_1
 10
126.4711270588556
 20
40.62027437902536
 30
0.0
 42
0.4142135623730951
  0
VERTEX
  5
7E9
  8
LAYER_1
 10
126.3456270588556
 20
40.49477437902536
 30
0.0
 42
0.4142135623730951
  0
VERTEX
  5
7EA
  8
LAYER_1
 10
126.4711270588556
 20
40.36927437902536
 30
0.0
 42
0.4142135623730951
  0
VERTEX
  5
7EB
  8
LAYER_1
 10
126.5966270588556
 20
40.49477437902536
 30
0.0
 42
0.4142135623730951
  0
SEQEND
  5
8C2
  8
LAYER_1
  0
POLYLINE
  5
10A
  8
LAYER_1
 66
     1
 10
0.0
 20
0.0
 30
0.0
 70
     1
  0
VERTEX
  5
7EC
  8
LAYER_1
 10
146.0961270588556
 20
40.62027437902536
 30
0.0
 42
0.4142135623730951
  0
VERTEX
  5
7ED
  8
LAYER_1
 10
145.9706270588556
 20
40.49477437902536
 30
0.0
 42
0.4142135623730951
  0
VERTEX
  5
7EE
  8
LAYER_1
 10
146.0961270588556
 20
40.36927437902536
 30
0.0
 42
0.4142135623730951
  0
VERTEX
  5
7EF
  8
LAYER_1
 10
146.2216270588556
 20
40.49477437902536
 30
0.0
 42
0.4142135623730951
  0
SEQEND
  5
8C3
  8
LAYER_1
  0
POLYLINE
  5
10B
  8
LAYER_1
 66
     1
 10
0.0
 20
0.0
 30
0.0
 70
     1
  0
VERTEX
  5
7F0
  8
LAYER_1
 10
146.0961270588556
 20
31.62027437902536
 30
0.0
 42
0.4142135623730951
  0
VERTEX
  5
7F1
  8
LAYER_1
 10
145.9706270588556
 20
31.49477437902536
 30
0.0
 42
0.4142135623730951
  0
VERTEX
  5
7F2
  8
LAYER_1
 10
146.0961270588556
 20
31.36927437902536
 30
0.0
 42
0.4142135623730951
  0
VERTEX
  5
7F3
  8
LAYER_1
 10
146.2216270588556
 20
31.49477437902536
 30
0.0
 42
0.4142135623730951
  0
SEQEND
  5
8C4
  8
LAYER_1
  0
POLYLINE
  5
10C
  8
LAYER_1
 66
     1
 10
0.0
 20
0.0
 30
0.0
 70
     1
  0
VERTEX
  5
7F4
  8
LAYER_1
 10
126.5851824373834
 20
29.86977437902536
 30
0.0
  0
VERTEX
  5
7F5
  8
LAYER_1
 10
125.8461270588556
 20
29.86977437902536
 30
0.0
  0
VERTEX
  5
7F6
  8
LAYER_1
 10
125.8461270588556
 20
28.55727437902536
 30
0.0
  0
VERTEX
  5
7F7
  8
LAYER_1
 10
126.9661744220544
 20
28.55727437902536
 30
0.0
  0
VERTEX
  5
7F8
  8
LAYER_1
 10
126.9711270588556
 20
28.54982850013652
 30
0.0
  0
VERTEX
  5
7F9
  8
LAYER_1
 10
126.9711270588556
 20
27.80727437902536
 30
0.0
  0
VERTEX
  5
7FA
  8
LAYER_1
 10
127.7836270588556
 20
27.80727437902536
 30
0.0
  0
VERTEX
  5
7FB
  8
LAYER_1
 10
127.7836270588556
 20
28.54422567683254
 30
0.0
  0
VERTEX
  5
7FC
  8
LAYER_1
 10
127.7897894477402
 20
28.55727437902536
 30
0.0
  0
VERTEX
  5
7FD
  8
LAYER_1
 10
128.2836270588556
 20
28.55727437902536
 30
0.0
  0
VERTEX
  5
7FE
  8
LAYER_1
 10
128.2836270588556
 20
28.90840919159157
 30
0.0
  0
VERTEX
  5
7FF
  8
LAYER_1
 10
128.2884407217949
 20
28.93227437902536
 30
0.0
  0
VERTEX
  5
800
  8
LAYER_1
 10
144.2071952465635
 20
28.93227437902536
 30
0.0
  0
VERTEX
  5
801
  8
LAYER_1
 10
144.2211270588556
 20
28.93634697073538
 30
0.0
  0
VERTEX
  5
802
  8
LAYER_1
 10
144.2211270588556
 20
28.55727437902536
 30
0.0
  0
VERTEX
  5
803
  8
LAYER_1
 10
146.7211270588556
 20
28.55727437902536
 30
0.0
  0
VERTEX
  5
804
  8
LAYER_1
 10
146.7211270588556
 20
29.80727437902536
 30
0.0
  0
VERTEX
  5
805
  8
LAYER_1
 10
145.9909065718556
 20
29.80727437902536
 30
0.0
  0
VERTEX
  5
806
  8
LAYER_1
 10
145.9711270588556
 20
29.82273112624866
 30
0.0
  0
VERTEX
  5
807
  8
LAYER_1
 10
145.9711270588556
 20
30.93227437902536
 30
0.0
  0
VERTEX
  5
808
  8
LAYER_1
 10
145.5531860012318
 20
30.93227437902536
 30
0.0
  0
VERTEX
  5
809
  8
LAYER_1
 10
145.5336270588556
 20
30.94986159560505
 30
0.0
  0
VERTEX
  5
80A
  8
LAYER_1
 10
145.5336270588556
 20
33.36546974018519
 30
0.0
  0
VERTEX
  5
80B
  8
LAYER_1
 10
145.5408678551614
 20
33.36791054696955
 30
0.0
 42
0.4142135623730951
  0
VERTEX
  5
80C
  8
LAYER_1
 10
145.7908678551614
 20
33.61791054696955
 30
0.0
 42
0.4142135623730951
  0
VERTEX
  5
80D
  8
LAYER_1
 10
145.5408678551614
 20
33.86791054696955
 30
0.0
  0
VERTEX
  5
80E
  8
LAYER_1
 10
145.5336270588556
 20
33.87321999928555
 30
0.0
  0
VERTEX
  5
80F
  8
LAYER_1
 10
145.5336270588556
 20
41.98785153150216
 30
0.0
  0
VERTEX
  5
810
  8
LAYER_1
 10
145.5336270588556
 20
41.99477437902536
 30
0.0
  0
VERTEX
  5
811
  8
LAYER_1
 10
145.5336270588556
 20
43.99477437902536
 30
0.0
  0
VERTEX
  5
812
  8
LAYER_1
 10
144.2836270588556
 20
43.99477437902536
 30
0.0
  0
VERTEX
  5
813
  8
LAYER_1
 10
144.2836270588556
 20
43.82109531656612
 30
0.0
  0
VERTEX
  5
814
  8
LAYER_1
 10
144.2850608712317
 20
43.80727437902536
 30
0.0
  0
VERTEX
  5
815
  8
LAYER_1
 10
128.663656331444
 20
43.80727437902536
 30
0.0
  0
VERTEX
  5
816
  8
LAYER_1
 10
128.6586270588556
 20
43.80622138691295
 30
0.0
  0
VERTEX
  5
817
  8
LAYER_1
 10
128.6586270588556
 20
43.99477437902536
 30
0.0
  0
VERTEX
  5
818
  8
LAYER_1
 10
127.5412987671897
 20
43.99477437902536
 30
0.0
  0
VERTEX
  5
819
  8
LAYER_1
 10
127.5336270588556
 20
44.00344076721322
 30
0.0
  0
VERTEX
  5
81A
  8
LAYER_1
 10
127.5336270588556
 20
45.18227437902536
 30
0.0
  0
VERTEX
  5
81B
  8
LAYER_1
 10
126.9086270588556
 20
45.18227437902536
 30
0.0
  0
VERTEX
  5
81C
  8
LAYER_1
 10
126.9086270588556
 20
43.18227437902536
 30
0.0
  0
VERTEX
  5
81D
  8
LAYER_1
 10
126.9086270588556
 20
41.98821728123583
 30
0.0
  0
VERTEX
  5
81E
  8
LAYER_1
 10
126.9086270588556
 20
33.89289050309561
 30
0.0
  0
VERTEX
  5
81F
  8
LAYER_1
 10
126.9042104780645
 20
33.88832022033262
 30
0.0
 42
0.4142135623730951
  0
VERTEX
  5
820
  8
LAYER_1
 10
126.6542104780645
 20
33.63832022033262
 30
0.0
 42
0.4142135623730951
  0
VERTEX
  5
821
  8
LAYER_1
 10
126.9042104780645
 20
33.38832022033262
 30
0.0
  0
VERTEX
  5
822
  8
LAYER_1
 10
126.9086270588556
 20
33.38764170289886
 30
0.0
  0
VERTEX
  5
823
  8
LAYER_1
 10
126.9086270588556
 20
30.95343969754616
 30
0.0
  0
VERTEX
  5
824
  8
LAYER_1
 10
126.8989405424066
 20
30.93227437902536
 30
0.0
  0
VERTEX
  5
825
  8
LAYER_1
 10
126.5961270588556
 20
30.93227437902536
 30
0.0
  0
VERTEX
  5
826
  8
LAYER_1
 10
126.5961270588556
 20
29.89450609309297
 30
0.0
  0
SEQEND
  5
8C5
  8
LAYER_1
  0
ENDSEC
  0
EOF
