  0
SECTION
  2
HEADER
  9
$ACADVER
  1
AC1009
  9
$DWGCODEPAGE
  3
ansi_1252
  9
$INSBASE
 10
0.0
 20
0.0
 30
0.0
  9
$EXTMIN
 10
0.0
 20
-36.06625225265466
 30
0.0
  9
$EXTMAX
 10
124.9481152891584
 20
49.0
 30
0.0
  9
$LIMMIN
 10
0.0
 20
0.0
  9
$LIMMAX
 10
12.0
 20
9.0
  9
$ORTHOMODE
 70
     0
  9
$REGENMODE
 70
     1
  9
$FILLMODE
 70
     1
  9
$QTEXTMODE
 70
     0
  9
$MIRRTEXT
 70
     1
  9
$DRAGMODE
 70
     2
  9
$LTSCALE
 40
1.0
  9
$OSMODE
 70
    37
  9
$ATTMODE
 70
     1
  9
$TEXTSIZE
 40
0.2
  9
$TRACEWID
 40
0.05
  9
$TEXTSTYLE
  7
STANDARD
  9
$CLAYER
  8
0
  9
$CELTYPE
  6
BYLAYER
  9
$CECOLOR
 62
   256
  9
$DIMSCALE
 40
1.0
  9
$DIMASZ
 40
0.18
  9
$DIMEXO
 40
0.0625
  9
$DIMDLI
 40
0.38
  9
$DIMRND
 40
0.0
  9
$DIMDLE
 40
0.0
  9
$DIMEXE
 40
0.18
  9
$DIMTP
 40
0.0
  9
$DIMTM
 40
0.0
  9
$DIMTXT
 40
0.18
  9
$DIMCEN
 40
0.09
  9
$DIMTSZ
 40
0.0
  9
$DIMTOL
 70
     0
  9
$DIMLIM
 70
     0
  9
$DIMTIH
 70
     1
  9
$DIMTOH
 70
     1
  9
$DIMSE1
 70
     0
  9
$DIMSE2
 70
     0
  9
$DIMTAD
 70
     0
  9
$DIMZIN
 70
     0
  9
$DIMBLK
  1

  9
$DIMASO
 70
     1
  9
$DIMSHO
 70
     1
  9
$DIMPOST
  1

  9
$DIMAPOST
  1

  9
$DIMALT
 70
     0
  9
$DIMALTD
 70
     2
  9
$DIMALTF
 40
25.4
  9
$DIMLFAC
 40
1.0
  9
$DIMTOFL
 70
     0
  9
$DIMTVP
 40
0.0
  9
$DIMTIX
 70
     0
  9
$DIMSOXD
 70
     0
  9
$DIMSAH
 70
     0
  9
$DIMBLK1
  1

  9
$DIMBLK2
  1

  9
$DIMSTYLE
  2
STANDARD
  9
$DIMCLRD
 70
     0
  9
$DIMCLRE
 70
     0
  9
$DIMCLRT
 70
     0
  9
$DIMTFAC
 40
1.0
  9
$DIMGAP
 40
0.09
  9
$LUNITS
 70
     2
  9
$LUPREC
 70
     4
  9
$SKETCHINC
 40
0.1
  9
$FILLETRAD
 40
0.5
  9
$AUNITS
 70
     0
  9
$AUPREC
 70
     0
  9
$MENU
  1
.
  9
$ELEVATION
 40
0.0
  9
$PELEVATION
 40
0.0
  9
$THICKNESS
 40
0.0
  9
$LIMCHECK
 70
     0
  9
$CHAMFERA
 40
0.0
  9
$CHAMFERB
 40
0.0
  9
$SKPOLY
 70
     0
  9
$TDCREATE
 40
2454910.5
  9
$TDUPDATE
 40
2457519.661729989
  9
$TDINDWG
 40
0.0000000116
  9
$TDUSRTIMER
 40
0.0000000116
  9
$USRTIMER
 70
     1
  9
$ANGBASE
 50
0.0
  9
$ANGDIR
 70
     0
  9
$PDMODE
 70
     0
  9
$PDSIZE
 40
0.0
  9
$PLINEWID
 40
0.0
  9
$COORDS
 70
     1
  9
$SPLFRAME
 70
     0
  9
$SPLINETYPE
 70
     6
  9
$SPLINESEGS
 70
     8
  9
$ATTDIA
 70
     0
  9
$ATTREQ
 70
     1
  9
$HANDLING
 70
     1
  9
$HANDSEED
  5
720
  9
$SURFTAB1
 70
     6
  9
$SURFTAB2
 70
     6
  9
$SURFTYPE
 70
     6
  9
$SURFU
 70
     6
  9
$SURFV
 70
     6
  9
$UCSNAME
  2

  9
$UCSORG
 10
0.0
 20
0.0
 30
0.0
  9
$UCSXDIR
 10
1.0
 20
0.0
 30
0.0
  9
$UCSYDIR
 10
0.0
 20
1.0
 30
0.0
  9
$PUCSNAME
  2

  9
$PUCSORG
 10
0.0
 20
0.0
 30
0.0
  9
$PUCSXDIR
 10
1.0
 20
0.0
 30
0.0
  9
$PUCSYDIR
 10
0.0
 20
1.0
 30
0.0
  9
$USERI1
 70
     0
  9
$USERI2
 70
     0
  9
$USERI3
 70
     0
  9
$USERI4
 70
     0
  9
$USERI5
 70
     0
  9
$USERR1
 40
0.0
  9
$USERR2
 40
0.0
  9
$USERR3
 40
0.0
  9
$USERR4
 40
0.0
  9
$USERR5
 40
0.0
  9
$WORLDVIEW
 70
     1
  9
$SHADEDGE
 70
     3
  9
$SHADEDIF
 70
    70
  9
$TILEMODE
 70
     1
  9
$MAXACTVP
 70
    64
  9
$PLIMCHECK
 70
     0
  9
$PEXTMIN
 10
1.000000000000000E+20
 20
1.000000000000000E+20
 30
1.000000000000000E+20
  9
$PEXTMAX
 10
-1.000000000000000E+20
 20
-1.000000000000000E+20
 30
-1.000000000000000E+20
  9
$PLIMMIN
 10
0.0
 20
0.0
  9
$PLIMMAX
 10
12.0
 20
9.0
  9
$UNITMODE
 70
     0
  9
$VISRETAIN
 70
     1
  9
$PLINEGEN
 70
     0
  9
$PSLTSCALE
 70
     1
  0
ENDSEC
  0
SECTION
  2
TABLES
  0
TABLE
  2
VPORT
 70
     1
  0
VPORT
  2
*ACTIVE
 70
     0
 10
0.0
 20
0.0
 11
1.0
 21
1.0
 12
10.42990654205607
 22
4.5
 13
0.0
 23
0.0
 14
0.5
 24
0.5
 15
0.5
 25
0.5
 16
0.0
 26
0.0
 36
1.0
 17
0.0
 27
0.0
 37
0.0
 40
9.0
 41
1.972972972850329
 42
50.0
 43
0.0
 44
0.0
 50
0.0
 51
0.0
 71
     0
 72
   100
 73
     1
 74
     3
 75
     0
 76
     0
 77
     0
 78
     0
  0
ENDTAB
  0
TABLE
  2
LTYPE
 70
     2
  0
LTYPE
  2
CONTINUOUS
 70
     0
  3
Solid line
 72
    65
 73
     0
 40
0.0
  0
LTYPE
  2
CONTINUOUS2
 70
     0
  3
Solid Line
 72
    65
 73
     0
 40
0.0
  0
ENDTAB
  0
TABLE
  2
LAYER
 70
     2
  0
LAYER
  2
0
 70
     0
 62
     7
  6
CONTINUOUS
  0
LAYER
  2
LAYER_1
 70
     0
 62
    18
  6
CONTINUOUS
  0
ENDTAB
  0
TABLE
  2
STYLE
 70
     1
  0
STYLE
  2
STANDARD
 70
     0
 40
0.0
 41
1.0
 50
0.0
 71
     0
 42
0.2
  3
txt
  4

  0
ENDTAB
  0
TABLE
  2
VIEW
 70
     0
  0
ENDTAB
  0
TABLE
  2
UCS
 70
     0
  0
ENDTAB
  0
TABLE
  2
APPID
 70
     1
  0
APPID
  2
ACAD
 70
     0
  0
ENDTAB
  0
TABLE
  2
DIMSTYLE
 70
     1
  0
DIMSTYLE
  2
STANDARD
 70
     0
  3

  4

  5

  6

  7

 40
1.0
 41
0.18
 42
0.0625
 43
0.38
 44
0.18
 45
0.0
 46
0.0
 47
0.0
 48
0.0
140
0.18
141
0.09
142
0.0
143
25.4
144
1.0
145
0.0
146
1.0
147
0.09
 71
     0
 72
     0
 73
     1
 74
     1
 75
     0
 76
     0
 77
     0
 78
     0
170
     0
171
     2
172
     0
173
     0
174
     0
175
     0
176
     0
177
     0
178
     0
  0
ENDTAB
  0
ENDSEC
  0
SECTION
  2
BLOCKS
  0
BLOCK
  8
0
  2
$MODEL_SPACE
 70
     0
 10
0.0
 20
0.0
 30
0.0
  3
$MODEL_SPACE
  1

  0
ENDBLK
  5
21
  8
0
  0
BLOCK
 67
     1
  8
0
  2
$PAPER_SPACE
 70
     0
 10
0.0
 20
0.0
 30
0.0
  3
$PAPER_SPACE
  1

  0
ENDBLK
  5
1D
 67
     1
  8
0
  0
ENDSEC
  0
SECTION
  2
ENTITIES
  0
POLYLINE
  5
70
  8
LAYER_1
 66
     1
 10
0.0
 20
0.0
 30
0.0
 70
     1
  0
VERTEX
  5
E3
  8
LAYER_1
 10
32.2688835604344
 20
-5.529043268272783
 30
0.0
 42
-0.4142135623730951
  0
VERTEX
  5
E4
  8
LAYER_1
 10
32.39438356043441
 20
-5.654543268272782
 30
0.0
 42
-0.4142135623730951
  0
VERTEX
  5
E5
  8
LAYER_1
 10
32.2688835604344
 20
-5.780043268272781
 30
0.0
 42
-0.4142135623730951
  0
VERTEX
  5
E6
  8
LAYER_1
 10
32.1433835604344
 20
-5.654543268272782
 30
0.0
 42
-0.4142135623730951
  0
SEQEND
  5
6B4
  8
LAYER_1
  0
POLYLINE
  5
71
  8
LAYER_1
 66
     1
 10
0.0
 20
0.0
 30
0.0
 70
     1
  0
VERTEX
  5
E7
  8
LAYER_1
 10
32.8625835604344
 20
-2.154043268272783
 30
0.0
 42
-0.4142135623730951
  0
VERTEX
  5
E8
  8
LAYER_1
 10
32.9880835604344
 20
-2.279543268272782
 30
0.0
 42
-0.4142135623730951
  0
VERTEX
  5
E9
  8
LAYER_1
 10
32.8625835604344
 20
-2.405043268272781
 30
0.0
 42
-0.4142135623730951
  0
VERTEX
  5
EA
  8
LAYER_1
 10
32.7370835604344
 20
-2.279543268272782
 30
0.0
 42
-0.4142135623730951
  0
SEQEND
  5
6B5
  8
LAYER_1
  0
POLYLINE
  5
72
  8
LAYER_1
 66
     1
 10
0.0
 20
0.0
 30
0.0
 70
     1
  0
VERTEX
  5
EB
  8
LAYER_1
 10
46.76228987929701
 20
-16.43896920062228
 30
0.0
  0
VERTEX
  5
EC
  8
LAYER_1
 10
31.84749912588005
 20
-7.871855739276405
 30
0.0
  0
VERTEX
  5
ED
  8
LAYER_1
 10
31.84299075922044
 20
-7.86636949715723
 30
0.0
 42
-0.2344940734898681
  0
VERTEX
  5
EE
  8
LAYER_1
 10
31.7688835604344
 20
-7.717043268272782
 30
0.0
 42
-0.4142135623730951
  0
VERTEX
  5
EF
  8
LAYER_1
 10
31.9563835604344
 20
-7.529543268272782
 30
0.0
 42
-0.1242345215880506
  0
VERTEX
  5
F0
  8
LAYER_1
 10
32.0453537892006
 20
-7.551996158654685
 30
0.0
  0
VERTEX
  5
F1
  8
LAYER_1
 10
32.05117314155096
 20
-7.556418364825788
 30
0.0
  0
VERTEX
  5
F2
  8
LAYER_1
 10
46.96975270347252
 20
-16.12568936100853
 30
0.0
 42
-0.2453474026574246
  0
VERTEX
  5
F3
  8
LAYER_1
 10
47.0500835604344
 20
-16.27954326827278
 30
0.0
 42
-0.4142135623730951
  0
VERTEX
  5
F4
  8
LAYER_1
 10
46.8625835604344
 20
-16.46704326827278
 30
0.0
 42
-0.1322587082903171
  0
VERTEX
  5
F5
  8
LAYER_1
 10
46.76844682034563
 20
-16.44169913207505
 30
0.0
  0
SEQEND
  5
6B6
  8
LAYER_1
  0
POLYLINE
  5
73
  8
LAYER_1
 66
     1
 10
0.0
 20
0.0
 30
0.0
 70
     1
  0
VERTEX
  5
F6
  8
LAYER_1
 10
14.44619423214448
 20
-25.53019270769491
 30
0.0
  0
VERTEX
  5
F7
  8
LAYER_1
 10
21.6856030606737
 20
-25.52954326827278
 30
0.0
  0
VERTEX
  5
F8
  8
LAYER_1
 10
21.68575376357791
 20
-25.52969366567722
 30
0.0
 42
0.084950032554286
  0
VERTEX
  5
F9
  8
LAYER_1
 10
21.6750835604344
 20
-25.59204326827278
 30
0.0
 42
0.4142135623730951
  0
VERTEX
  5
FA
  8
LAYER_1
 10
21.8625835604344
 20
-25.77954326827278
 30
0.0
 42
0.2383184053557163
  0
VERTEX
  5
FB
  8
LAYER_1
 10
22.01353685395075
 20
-25.70326086209933
 30
0.0
  0
VERTEX
  5
FC
  8
LAYER_1
 10
22.02129983023751
 20
-25.6919095219395
 30
0.0
  0
VERTEX
  5
FD
  8
LAYER_1
 10
23.02872754919497
 20
-23.928970969024
 30
0.0
  0
VERTEX
  5
FE
  8
LAYER_1
 10
23.03035033740545
 20
-23.92577234652368
 30
0.0
 42
0.1162473049337183
  0
VERTEX
  5
FF
  8
LAYER_1
 10
23.0500835604344
 20
-23.84204326827278
 30
0.0
 42
0.4142135623730951
  0
VERTEX
  5
100
  8
LAYER_1
 10
22.8625835604344
 20
-23.65454326827278
 30
0.0
 42
0.2653563729467726
  0
VERTEX
  5
101
  8
LAYER_1
 10
22.70111915676419
 20
-23.74672539824084
 30
0.0
  0
VERTEX
  5
102
  8
LAYER_1
 10
22.70074842469036
 20
-23.74739225410877
 30
0.0
  0
VERTEX
  5
103
  8
LAYER_1
 10
21.89669342985731
 20
-25.15454957998747
 30
0.0
  0
VERTEX
  5
104
  8
LAYER_1
 10
14.4250835604344
 20
-25.15454326827278
 30
0.0
 42
0.4142135623730951
  0
VERTEX
  5
105
  8
LAYER_1
 10
14.2375835604344
 20
-25.34204326827278
 30
0.0
 42
0.4142135623730951
  0
VERTEX
  5
106
  8
LAYER_1
 10
14.4250835604344
 20
-25.52954326827278
 30
0.0
  0
SEQEND
  5
6B7
  8
LAYER_1
  0
POLYLINE
  5
74
  8
LAYER_1
 66
     1
 10
0.0
 20
0.0
 30
0.0
 70
     1
  0
VERTEX
  5
107
  8
LAYER_1
 10
45.86377579801321
 20
-29.4669812200497
 30
0.0
  0
VERTEX
  5
108
  8
LAYER_1
 10
45.86376831998585
 20
-29.46704326827278
 30
0.0
  0
VERTEX
  5
109
  8
LAYER_1
 10
66.5500835604344
 20
-29.46704326827278
 30
0.0
  0
VERTEX
  5
10A
  8
LAYER_1
 10
67.67363013265715
 20
-29.46704326827278
 30
0.0
  0
VERTEX
  5
10B
  8
LAYER_1
 10
67.6750835604344
 20
-29.46481100090205
 30
0.0
  0
VERTEX
  5
10C
  8
LAYER_1
 10
67.6750835604344
 20
-29.396722446372
 30
0.0
  0
VERTEX
  5
10D
  8
LAYER_1
 10
67.6750835604344
 20
-29.35648838137742
 30
0.0
  0
VERTEX
  5
10E
  8
LAYER_1
 10
67.6750835604344
 20
-5.217043268272782
 30
0.0
  0
VERTEX
  5
10F
  8
LAYER_1
 10
67.6750835604344
 20
-4.46862895902202
 30
0.0
  0
VERTEX
  5
110
  8
LAYER_1
 10
67.67478262601803
 20
-4.467043268272782
 30
0.0
  0
VERTEX
  5
111
  8
LAYER_1
 10
42.1125835604344
 20
-4.467043268272782
 30
0.0
  0
VERTEX
  5
112
  8
LAYER_1
 10
41.62680715438471
 20
-4.467043268272782
 30
0.0
  0
VERTEX
  5
113
  8
LAYER_1
 10
41.62729489759198
 20
-4.466995308394814
 30
0.0
 42
-0.1845718162898516
  0
VERTEX
  5
114
  8
LAYER_1
 10
41.6750835604344
 20
-4.592043268272782
 30
0.0
 42
-0.4142135623730951
  0
VERTEX
  5
115
  8
LAYER_1
 10
41.4875835604344
 20
-4.779543268272782
 30
0.0
 42
-0.1946565993501367
  0
VERTEX
  5
116
  8
LAYER_1
 10
41.35719156435871
 20
-4.726780706868734
 30
0.0
  0
VERTEX
  5
117
  8
LAYER_1
 10
41.35500103896193
 20
-4.724625789745261
 30
0.0
  0
VERTEX
  5
118
  8
LAYER_1
 10
37.97599620044139
 20
-1.468493854443651
 30
0.0
  0
VERTEX
  5
119
  8
LAYER_1
 10
37.97195544808265
 20
-1.467043268272782
 30
0.0
  0
VERTEX
  5
11A
  8
LAYER_1
 10
33.3000835604344
 20
-1.467043268272782
 30
0.0
 42
-0.4142135623730951
  0
VERTEX
  5
11B
  8
LAYER_1
 10
33.1125835604344
 20
-1.279543268272782
 30
0.0
 42
-0.4142135623730951
  0
VERTEX
  5
11C
  8
LAYER_1
 10
33.3000835604344
 20
-1.092043268272782
 30
0.0
  0
VERTEX
  5
11D
  8
LAYER_1
 10
38.0500835604344
 20
-1.092043268272782
 30
0.0
 42
-0.1899908004198604
  0
VERTEX
  5
11E
  8
LAYER_1
 10
38.17802963741185
 20
-1.142481051064379
 30
0.0
  0
VERTEX
  5
11F
  8
LAYER_1
 10
38.18266608190687
 20
-1.146960746800303
 30
0.0
  0
VERTEX
  5
120
  8
LAYER_1
 10
41.23875898108197
 20
-4.091922995096304
 30
0.0
  0
VERTEX
  5
121
  8
LAYER_1
 10
41.23904306272016
 20
-4.092043268272782
 30
0.0
  0
VERTEX
  5
122
  8
LAYER_1
 10
42.1125835604344
 20
-4.092043268272782
 30
0.0
  0
VERTEX
  5
123
  8
LAYER_1
 10
69.69036318827632
 20
-4.092043268272782
 30
0.0
  0
VERTEX
  5
124
  8
LAYER_1
 10
69.69036318827632
 20
-4.466260337931683
 30
0.0
  0
VERTEX
  5
125
  8
LAYER_1
 10
69.68984713659198
 20
-4.467043268272782
 30
0.0
  0
VERTEX
  5
126
  8
LAYER_1
 10
68.05077809408111
 20
-4.467043268272782
 30
0.0
  0
VERTEX
  5
127
  8
LAYER_1
 10
68.0500835604344
 20
-4.46862895902202
 30
0.0
  0
VERTEX
  5
128
  8
LAYER_1
 10
68.0500835604344
 20
-5.217043268272782
 30
0.0
  0
VERTEX
  5
129
  8
LAYER_1
 10
68.0500835604344
 20
-29.36495871084995
 30
0.0
  0
VERTEX
  5
12A
  8
LAYER_1
 10
68.0500835604344
 20
-29.46664921403987
 30
0.0
  0
VERTEX
  5
12B
  8
LAYER_1
 10
68.05138293248002
 20
-29.46704326827278
 30
0.0
  0
VERTEX
  5
12C
  8
LAYER_1
 10
69.72680116420092
 20
-29.46672989815588
 30
0.0
  0
VERTEX
  5
12D
  8
LAYER_1
 10
69.72680116420092
 20
-29.82672989815588
 30
0.0
  0
VERTEX
  5
12E
  8
LAYER_1
 10
69.72823726821484
 20
-29.84155304579033
 30
0.0
  0
VERTEX
  5
12F
  8
LAYER_1
 10
66.5500835604344
 20
-29.84204326827278
 30
0.0
  0
VERTEX
  5
130
  8
LAYER_1
 10
63.84008356043439
 20
-29.84204326827278
 30
0.0
  0
VERTEX
  5
131
  8
LAYER_1
 10
51.17503726821425
 20
-29.84204326827277
 30
0.0
  0
VERTEX
  5
132
  8
LAYER_1
 10
51.17503726821484
 20
-30.34204326827278
 30
0.0
  0
VERTEX
  5
133
  8
LAYER_1
 10
14.92503726821484
 20
-30.34204326827278
 30
0.0
  0
VERTEX
  5
134
  8
LAYER_1
 10
14.92503726821057
 20
-29.84204326827278
 30
0.0
  0
VERTEX
  5
135
  8
LAYER_1
 10
12.02091154476413
 20
-29.84204326827278
 30
0.0
  0
VERTEX
  5
136
  8
LAYER_1
 10
12.02016029726434
 20
-29.84042112269089
 30
0.0
  0
VERTEX
  5
137
  8
LAYER_1
 10
3.495923956006791
 20
-15.32876745884948
 30
0.0
  0
VERTEX
  5
138
  8
LAYER_1
 10
3.49487647784926
 20
-15.32856969924921
 30
0.0
 42
-0.0956423699519571
  0
VERTEX
  5
139
  8
LAYER_1
 10
3.425083560434402
 20
-15.34204326827278
 30
0.0
 42
-0.4142135623730951
  0
VERTEX
  5
13A
  8
LAYER_1
 10
3.237583560434402
 20
-15.15454326827278
 30
0.0
  0
VERTEX
  5
13B
  8
LAYER_1
 10
3.238038039036919
 20
-15.14327595767758
 30
0.0
  0
VERTEX
  5
13C
  8
LAYER_1
 10
3.239270206963745
 20
-15.1320452683953
 30
0.0
  0
VERTEX
  5
13D
  8
LAYER_1
 10
3.241083162393792
 20
-15.12087504735937
 30
0.0
  0
VERTEX
  5
13E
  8
LAYER_1
 10
3.243280003505973
 20
-15.10978914150325
 30
0.0
  0
VERTEX
  5
13F
  8
LAYER_1
 10
4.489727123660899
 20
-9.188716388829455
 30
0.0
  0
VERTEX
  5
140
  8
LAYER_1
 10
4.495092816997044
 20
-9.164511541888917
 30
0.0
 42
-0.3332843723158944
  0
VERTEX
  5
141
  8
LAYER_1
 10
4.675083560434402
 20
-9.029543268272782
 30
0.0
 42
-0.4142135623730951
  0
VERTEX
  5
142
  8
LAYER_1
 10
4.862583560434402
 20
-9.217043268272782
 30
0.0
  0
VERTEX
  5
143
  8
LAYER_1
 10
4.862213429619205
 20
-9.227980798993316
 30
0.0
  0
VERTEX
  5
144
  8
LAYER_1
 10
4.861173775874228
 20
-9.238893157955127
 30
0.0
  0
VERTEX
  5
145
  8
LAYER_1
 10
4.859570707250393
 20
-9.249746849840527
 30
0.0
  0
VERTEX
  5
146
  8
LAYER_1
 10
4.857510331798622
 20
-9.260508379331831
 30
0.0
  0
VERTEX
  5
147
  8
LAYER_1
 10
3.672314272746874
 20
-14.88987437847718
 30
0.0
  0
VERTEX
  5
148
  8
LAYER_1
 10
3.672333506731178
 20
-14.88991037874563
 30
0.0
  0
VERTEX
  5
149
  8
LAYER_1
 10
12.23521794165039
 20
-29.46697045042315
 30
0.0
  0
VERTEX
  5
14A
  8
LAYER_1
 10
12.23524765005196
 20
-29.46704326827278
 30
0.0
  0
VERTEX
  5
14B
  8
LAYER_1
 10
19.2372971581713
 20
-29.46680199103865
 30
0.0
  0
VERTEX
  5
14C
  8
LAYER_1
 10
22.5500835604344
 20
-29.46584326827278
 30
0.0
  0
VERTEX
  5
14D
  8
LAYER_1
 10
22.55053085245284
 20
-29.46704326827278
 30
0.0
  0
VERTEX
  5
14E
  8
LAYER_1
 10
42.54982891641434
 20
-29.46704326827278
 30
0.0
  0
VERTEX
  5
14F
  8
LAYER_1
 10
42.5500835604344
 20
-29.46584326827278
 30
0.0
  0
SEQEND
  5
6B8
  8
LAYER_1
  0
POLYLINE
  5
75
  8
LAYER_1
 66
     1
 10
0.0
 20
0.0
 30
0.0
 70
     1
  0
VERTEX
  5
150
  8
LAYER_1
 10
2.464147046840381
 20
-15.50974060773213
 30
0.0
  0
VERTEX
  5
151
  8
LAYER_1
 10
2.452944883989272
 20
-15.48770037360181
 30
0.0
  0
VERTEX
  5
152
  8
LAYER_1
 10
2.442083237901
 20
-15.46541874492962
 30
0.0
  0
VERTEX
  5
153
  8
LAYER_1
 10
2.431573552752587
 20
-15.44290873015215
 30
0.0
  0
VERTEX
  5
154
  8
LAYER_1
 10
2.421427272721057
 20
-15.42018333770596
 30
0.0
  0
VERTEX
  5
155
  8
LAYER_1
 10
2.411655841983432
 20
-15.39725557602764
 30
0.0
  0
VERTEX
  5
156
  8
LAYER_1
 10
2.402270704716734
 20
-15.37413845355377
 30
0.0
  0
VERTEX
  5
157
  8
LAYER_1
 10
2.393283305097986
 20
-15.35084497872092
 30
0.0
  0
VERTEX
  5
158
  8
LAYER_1
 10
2.384705087304211
 20
-15.32738815996568
 30
0.0
  0
VERTEX
  5
159
  8
LAYER_1
 10
2.37654749551243
 20
-15.30378100572462
 30
0.0
  0
VERTEX
  5
15A
  8
LAYER_1
 10
2.368821973899667
 20
-15.28003652443432
 30
0.0
  0
VERTEX
  5
15B
  8
LAYER_1
 10
2.361539966642945
 20
-15.25616772453136
 30
0.0
  0
VERTEX
  5
15C
  8
LAYER_1
 10
2.354712917919285
 20
-15.23218761445232
 30
0.0
  0
VERTEX
  5
15D
  8
LAYER_1
 10
2.34835227190571
 20
-15.20810920263378
 30
0.0
  0
VERTEX
  5
15E
  8
LAYER_1
 10
2.342469472779244
 20
-15.18394549751231
 30
0.0
  0
VERTEX
  5
15F
  8
LAYER_1
 10
2.337075964716907
 20
-15.1597095075245
 30
0.0
  0
VERTEX
  5
160
  8
LAYER_1
 10
2.332183191895723
 20
-15.13541424110692
 30
0.0
  0
VERTEX
  5
161
  8
LAYER_1
 10
2.327802598492715
 20
-15.11107270669615
 30
0.0
  0
VERTEX
  5
162
  8
LAYER_1
 10
2.323945628684905
 20
-15.08669791272878
 30
0.0
  0
VERTEX
  5
163
  8
LAYER_1
 10
2.320623726649315
 20
-15.06230286764137
 30
0.0
  0
VERTEX
  5
164
  8
LAYER_1
 10
2.317848336562968
 20
-15.03790057987052
 30
0.0
  0
VERTEX
  5
165
  8
LAYER_1
 10
2.315630902602887
 20
-15.01350405785279
 30
0.0
  0
VERTEX
  5
166
  8
LAYER_1
 10
2.313982868946094
 20
-14.98912631002477
 30
0.0
  0
VERTEX
  5
167
  8
LAYER_1
 10
2.312915679769612
 20
-14.96478034482303
 30
0.0
  0
VERTEX
  5
168
  8
LAYER_1
 10
2.312440779250463
 20
-14.94047917068415
 30
0.0
  0
VERTEX
  5
169
  8
LAYER_1
 10
2.31256961156567
 20
-14.91623579604472
 30
0.0
  0
VERTEX
  5
16A
  8
LAYER_1
 10
2.313313620892256
 20
-14.89206322934131
 30
0.0
  0
VERTEX
  5
16B
  8
LAYER_1
 10
2.314684251407242
 20
-14.86797447901049
 30
0.0
  0
VERTEX
  5
16C
  8
LAYER_1
 10
2.316692947287652
 20
-14.84398255348886
 30
0.0
  0
VERTEX
  5
16D
  8
LAYER_1
 10
2.319351152710508
 20
-14.82010046121298
 30
0.0
  0
VERTEX
  5
16E
  8
LAYER_1
 10
2.322670311852832
 20
-14.79634121061944
 30
0.0
  0
VERTEX
  5
16F
  8
LAYER_1
 10
2.326661868891648
 20
-14.77271781014481
 30
0.0
  0
VERTEX
  5
170
  8
LAYER_1
 10
2.331337268003978
 20
-14.74924326822568
 30
0.0
  0
VERTEX
  5
171
  8
LAYER_1
 10
3.612537268621764
 20
-8.779543268406329
 30
0.0
  0
VERTEX
  5
172
  8
LAYER_1
 10
3.61914952435935
 20
-8.750703256661549
 30
0.0
  0
VERTEX
  5
173
  8
LAYER_1
 10
3.626809446403151
 20
-8.721153207166818
 30
0.0
  0
VERTEX
  5
174
  8
LAYER_1
 10
3.635550041808871
 20
-8.691088021203978
 30
0.0
  0
VERTEX
  5
175
  8
LAYER_1
 10
3.645404317632216
 20
-8.660702600054861
 30
0.0
  0
VERTEX
  5
176
  8
LAYER_1
 10
3.656405280928889
 20
-8.630191845001306
 30
0.0
  0
VERTEX
  5
177
  8
LAYER_1
 10
3.668585938754596
 20
-8.599750657325146
 30
0.0
  0
VERTEX
  5
178
  8
LAYER_1
 10
3.675128967820744
 20
-8.584617057904165
 30
0.0
  0
VERTEX
  5
179
  8
LAYER_1
 10
3.68197929816504
 20
-8.569573938308222
 30
0.0
  0
VERTEX
  5
17A
  8
LAYER_1
 10
3.689141055669447
 20
-8.554645661197547
 30
0.0
  0
VERTEX
  5
17B
  8
LAYER_1
 10
3.696618366215928
 20
-8.539856589232368
 30
0.0
  0
VERTEX
  5
17C
  8
LAYER_1
 10
3.704415355686445
 20
-8.525231085072917
 30
0.0
  0
VERTEX
  5
17D
  8
LAYER_1
 10
3.712536149962962
 20
-8.51079351137942
 30
0.0
  0
VERTEX
  5
17E
  8
LAYER_1
 10
3.720984874927441
 20
-8.49656823081211
 30
0.0
  0
VERTEX
  5
17F
  8
LAYER_1
 10
3.729765656461847
 20
-8.482579606031216
 30
0.0
  0
VERTEX
  5
180
  8
LAYER_1
 10
3.738882620448142
 20
-8.468851999696966
 30
0.0
  0
VERTEX
  5
181
  8
LAYER_1
 10
3.748339892768289
 20
-8.45540977446959
 30
0.0
  0
VERTEX
  5
182
  8
LAYER_1
 10
3.758141599304251
 20
-8.442277293009317
 30
0.0
  0
VERTEX
  5
183
  8
LAYER_1
 10
3.768291865937991
 20
-8.429478917976379
 30
0.0
  0
VERTEX
  5
184
  8
LAYER_1
 10
3.778794818551472
 20
-8.417039012031005
 30
0.0
  0
VERTEX
  5
185
  8
LAYER_1
 10
3.789654583026659
 20
-8.40498193783342
 30
0.0
  0
VERTEX
  5
186
  8
LAYER_1
 10
3.800875285245512
 20
-8.393332058043857
 30
0.0
  0
VERTEX
  5
187
  8
LAYER_1
 10
3.812461051089996
 20
-8.38211373532255
 30
0.0
  0
VERTEX
  5
188
  8
LAYER_1
 10
3.824416006442073
 20
-8.371351332329724
 30
0.0
  0
VERTEX
  5
189
  8
LAYER_1
 10
3.836744277183707
 20
-8.361069211725605
 30
0.0
  0
VERTEX
  5
18A
  8
LAYER_1
 10
3.84944998919686
 20
-8.351291736170428
 30
0.0
  0
VERTEX
  5
18B
  8
LAYER_1
 10
3.862537268363496
 20
-8.34204326832442
 30
0.0
  0
VERTEX
  5
18C
  8
LAYER_1
 10
3.879195000917692
 20
-8.331269545843572
 30
0.0
  0
VERTEX
  5
18D
  8
LAYER_1
 10
3.896311981946234
 20
-8.321131391376277
 30
0.0
  0
VERTEX
  5
18E
  8
LAYER_1
 10
3.913860825423879
 20
-8.311609554395243
 30
0.0
  0
VERTEX
  5
18F
  8
LAYER_1
 10
3.931814145325381
 20
-8.302684784373167
 30
0.0
  0
VERTEX
  5
190
  8
LAYER_1
 10
3.950144555625496
 20
-8.294337830782748
 30
0.0
  0
VERTEX
  5
191
  8
LAYER_1
 10
3.96882467029898
 20
-8.286549443096686
 30
0.0
  0
VERTEX
  5
192
  8
LAYER_1
 10
3.987827103320589
 20
-8.279300370787682
 30
0.0
  0
VERTEX
  5
193
  8
LAYER_1
 10
4.007124468665077
 20
-8.272571363328439
 30
0.0
  0
VERTEX
  5
194
  8
LAYER_1
 10
4.0266893803072
 20
-8.26634317019165
 30
0.0
  0
VERTEX
  5
195
  8
LAYER_1
 10
4.046494452221713
 20
-8.260596540850024
 30
0.0
  0
VERTEX
  5
196
  8
LAYER_1
 10
4.066512298383371
 20
-8.255312224776254
 30
0.0
  0
VERTEX
  5
197
  8
LAYER_1
 10
4.08671553276693
 20
-8.250470971443042
 30
0.0
  0
VERTEX
  5
198
  8
LAYER_1
 10
4.107076769347147
 20
-8.246053530323088
 30
0.0
  0
VERTEX
  5
199
  8
LAYER_1
 10
4.127568622098774
 20
-8.242040650889097
 30
0.0
  0
VERTEX
  5
19A
  8
LAYER_1
 10
4.14816370499657
 20
-8.238413082613762
 30
0.0
  0
VERTEX
  5
19B
  8
LAYER_1
 10
4.168834632015288
 20
-8.235151574969787
 30
0.0
  0
VERTEX
  5
19C
  8
LAYER_1
 10
4.189554017129685
 20
-8.232236877429871
 30
0.0
  0
VERTEX
  5
19D
  8
LAYER_1
 10
4.210294474314516
 20
-8.229649739466716
 30
0.0
  0
VERTEX
  5
19E
  8
LAYER_1
 10
4.251729060794499
 20
-8.225381140161481
 30
0.0
  0
VERTEX
  5
19F
  8
LAYER_1
 10
4.292919303253282
 20
-8.222191772835686
 30
0.0
  0
VERTEX
  5
1A0
  8
LAYER_1
 10
4.333646113488907
 20
-8.219927633270931
 30
0.0
  0
VERTEX
  5
1A1
  8
LAYER_1
 10
4.373690403299419
 20
-8.218434717248817
 30
0.0
  0
VERTEX
  5
1A2
  8
LAYER_1
 10
4.412833084482862
 20
-8.217559020550945
 30
0.0
  0
VERTEX
  5
1A3
  8
LAYER_1
 10
4.487537268160708
 20
-8.217043268254333
 30
0.0
  0
VERTEX
  5
1A4
  8
LAYER_1
 10
11.76883726799281
 20
-8.217043268187705
 30
0.0
  0
VERTEX
  5
1A5
  8
LAYER_1
 10
11.79303879025016
 20
-8.217540022020968
 30
0.0
  0
VERTEX
  5
1A6
  8
LAYER_1
 10
11.81728563599291
 20
-8.21902802416556
 30
0.0
  0
VERTEX
  5
1A7
  8
LAYER_1
 10
11.84154626383802
 20
-8.22150388558801
 30
0.0
  0
VERTEX
  5
1A8
  8
LAYER_1
 10
11.86578913240245
 20
-8.22496421725486
 30
0.0
  0
VERTEX
  5
1A9
  8
LAYER_1
 10
11.88998270030317
 20
-8.22940563013264
 30
0.0
  0
VERTEX
  5
1AA
  8
LAYER_1
 10
11.91409542615715
 20
-8.234824735187882
 30
0.0
  0
VERTEX
  5
1AB
  8
LAYER_1
 10
11.93809576858136
 20
-8.241218143387126
 30
0.0
  0
VERTEX
  5
1AC
  8
LAYER_1
 10
11.96195218619278
 20
-8.248582465696906
 30
0.0
  0
VERTEX
  5
1AD
  8
LAYER_1
 10
11.98563313760835
 20
-8.256914313083755
 30
0.0
  0
VERTEX
  5
1AE
  8
LAYER_1
 10
12.00910708144507
 20
-8.266210296514208
 30
0.0
  0
VERTEX
  5
1AF
  8
LAYER_1
 10
12.03234247631989
 20
-8.2764670269548
 30
0.0
  0
VERTEX
  5
1B0
  8
LAYER_1
 10
12.05530778084978
 20
-8.287681115372067
 30
0.0
  0
VERTEX
  5
1B1
  8
LAYER_1
 10
12.07797145365171
 20
-8.29984917273254
 30
0.0
  0
VERTEX
  5
1B2
  8
LAYER_1
 10
12.10030195334264
 20
-8.312967810002759
 30
0.0
  0
VERTEX
  5
1B3
  8
LAYER_1
 10
12.12226773853956
 20
-8.327033638149254
 30
0.0
  0
VERTEX
  5
1B4
  8
LAYER_1
 10
12.14383726785942
 20
-8.342043268138564
 30
0.0
  0
VERTEX
  5
1B5
  8
LAYER_1
 10
12.1557797525192
 20
-8.350887585039136
 30
0.0
  0
VERTEX
  5
1B6
  8
LAYER_1
 10
12.16757949648839
 20
-8.360004159174373
 30
0.0
  0
VERTEX
  5
1B7
  8
LAYER_1
 10
12.1907256241259
 20
-8.37901601088337
 30
0.0
  0
VERTEX
  5
1B8
  8
LAYER_1
 10
12.21322537431378
 20
-8.399002686734606
 30
0.0
  0
VERTEX
  5
1B9
  8
LAYER_1
 10
12.23502847059387
 20
-8.419888050197121
 30
0.0
  0
VERTEX
  5
1BA
  8
LAYER_1
 10
12.25608463650799
 20
-8.44159596473996
 30
0.0
  0
VERTEX
  5
1BB
  8
LAYER_1
 10
12.27634359559796
 20
-8.46405029383217
 30
0.0
  0
VERTEX
  5
1BC
  8
LAYER_1
 10
12.29575507140562
 20
-8.487174900942792
 30
0.0
  0
VERTEX
  5
1BD
  8
LAYER_1
 10
12.31426878747279
 20
-8.51089364954087
 30
0.0
  0
VERTEX
  5
1BE
  8
LAYER_1
 10
12.33183446734129
 20
-8.535130403095447
 30
0.0
  0
VERTEX
  5
1BF
  8
LAYER_1
 10
12.34840183455296
 20
-8.559809025075573
 30
0.0
  0
VERTEX
  5
1C0
  8
LAYER_1
 10
12.36392061264961
 20
-8.584853378950287
 30
0.0
  0
VERTEX
  5
1C1
  8
LAYER_1
 10
12.37834052517309
 20
-8.610187328188633
 30
0.0
  0
VERTEX
  5
1C2
  8
LAYER_1
 10
12.3916112956652
 20
-8.635734736259657
 30
0.0
  0
VERTEX
  5
1C3
  8
LAYER_1
 10
12.40368264766779
 20
-8.661419466632404
 30
0.0
  0
VERTEX
  5
1C4
  8
LAYER_1
 10
12.41450430472267
 20
-8.687165382775916
 30
0.0
  0
VERTEX
  5
1C5
  8
LAYER_1
 10
12.41943078625154
 20
-8.700037492845784
 30
0.0
  0
VERTEX
  5
1C6
  8
LAYER_1
 10
12.42402599037167
 20
-8.712896348159237
 30
0.0
  0
VERTEX
  5
1C7
  8
LAYER_1
 10
12.43379932203813
 20
-8.741259739848832
 30
0.0
  0
VERTEX
  5
1C8
  8
LAYER_1
 10
12.44194312656156
 20
-8.765717294245512
 30
0.0
  0
VERTEX
  5
1C9
  8
LAYER_1
 10
12.45008021866371
 20
-8.791383412937364
 30
0.0
  0
VERTEX
  5
1CA
  8
LAYER_1
 10
12.46687651356397
 20
-8.845404306730403
 30
0.0
  0
VERTEX
  5
1CB
  8
LAYER_1
 10
12.47580684034201
 20
-8.873290563593498
 30
0.0
  0
VERTEX
  5
1CC
  8
LAYER_1
 10
12.4852727026586
 20
-8.901448348275583
 30
0.0
  0
VERTEX
  5
1CD
  8
LAYER_1
 10
12.4954096625037
 20
-8.929643401657614
 30
0.0
  0
VERTEX
  5
1CE
  8
LAYER_1
 10
12.50635328186728
 20
-8.957641464620544
 30
0.0
  0
VERTEX
  5
1CF
  8
LAYER_1
 10
12.5182391227393
 20
-8.985208278045326
 30
0.0
  0
VERTEX
  5
1D0
  8
LAYER_1
 10
12.52457773936283
 20
-8.99875676020621
 30
0.0
  0
VERTEX
  5
1D1
  8
LAYER_1
 10
12.53120274710971
 20
-9.012109582812915
 30
0.0
  0
VERTEX
  5
1D2
  8
LAYER_1
 10
12.53813109122868
 20
-9.025237463475563
 30
0.0
  0
VERTEX
  5
1D3
  8
LAYER_1
 10
12.54537971696848
 20
-9.038111119804267
 30
0.0
  0
VERTEX
  5
1D4
  8
LAYER_1
 10
12.55296556957787
 20
-9.05070126940915
 30
0.0
  0
VERTEX
  5
1D5
  8
LAYER_1
 10
12.56090559430558
 20
-9.062978629900332
 30
0.0
  0
VERTEX
  5
1D6
  8
LAYER_1
 10
12.56921673640035
 20
-9.074913918887933
 30
0.0
  0
VERTEX
  5
1D7
  8
LAYER_1
 10
12.57791594111095
 20
-9.08647785398207
 30
0.0
  0
VERTEX
  5
1D8
  8
LAYER_1
 10
12.5870201536861
 20
-9.09764115279286
 30
0.0
  0
VERTEX
  5
1D9
  8
LAYER_1
 10
12.59654631937457
 20
-9.10837453293043
 30
0.0
  0
VERTEX
  5
1DA
  8
LAYER_1
 10
12.60651138342508
 20
-9.118648712004891
 30
0.0
  0
VERTEX
  5
1DB
  8
LAYER_1
 10
12.61693229108639
 20
-9.128434407626369
 30
0.0
  0
VERTEX
  5
1DC
  8
LAYER_1
 10
12.62782598760724
 20
-9.137702337404978
 30
0.0
  0
VERTEX
  5
1DD
  8
LAYER_1
 10
12.63920941823638
 20
-9.14642321895084
 30
0.0
  0
VERTEX
  5
1DE
  8
LAYER_1
 10
12.65647547352365
 20
-9.158326756226945
 30
0.0
  0
VERTEX
  5
1DF
  8
LAYER_1
 10
12.67436708938651
 20
-9.16947476752811
 30
0.0
  0
VERTEX
  5
1E0
  8
LAYER_1
 10
12.69284354728362
 20
-9.179880246350283
 30
0.0
  0
VERTEX
  5
1E1
  8
LAYER_1
 10
12.71186412867364
 20
-9.18955618618942
 30
0.0
  0
VERTEX
  5
1E2
  8
LAYER_1
 10
12.73138811501523
 20
-9.198515580541475
 30
0.0
  0
VERTEX
  5
1E3
  8
LAYER_1
 10
12.75137478776703
 20
-9.206771422902403
 30
0.0
  0
VERTEX
  5
1E4
  8
LAYER_1
 10
12.77178342838772
 20
-9.214336706768155
 30
0.0
  0
VERTEX
  5
1E5
  8
LAYER_1
 10
12.79257331833595
 20
-9.221224425634684
 30
0.0
  0
VERTEX
  5
1E6
  8
LAYER_1
 10
12.81370373907037
 20
-9.227447572997946
 30
0.0
  0
VERTEX
  5
1E7
  8
LAYER_1
 10
12.83513397204965
 20
-9.23301914235389
 30
0.0
  0
VERTEX
  5
1E8
  8
LAYER_1
 10
12.85682329873244
 20
-9.237952127198472
 30
0.0
  0
VERTEX
  5
1E9
  8
LAYER_1
 10
12.8787310005774
 20
-9.242259521027645
 30
0.0
  0
VERTEX
  5
1EA
  8
LAYER_1
 10
12.90081635904318
 20
-9.245954317337361
 30
0.0
  0
VERTEX
  5
1EB
  8
LAYER_1
 10
12.92303865558845
 20
-9.249049509623578
 30
0.0
  0
VERTEX
  5
1EC
  8
LAYER_1
 10
12.94535717167186
 20
-9.251558091382243
 30
0.0
  0
VERTEX
  5
1ED
  8
LAYER_1
 10
12.96773118875208
 20
-9.253493056109315
 30
0.0
  0
VERTEX
  5
1EE
  8
LAYER_1
 10
12.99011998828775
 20
-9.254867397300742
 30
0.0
  0
VERTEX
  5
1EF
  8
LAYER_1
 10
13.01248285173753
 20
-9.255694108452483
 30
0.0
  0
VERTEX
  5
1F0
  8
LAYER_1
 10
13.03477906056009
 20
-9.255986183060486
 30
0.0
  0
VERTEX
  5
1F1
  8
LAYER_1
 10
13.05696789621408
 20
-9.255756614620708
 30
0.0
  0
VERTEX
  5
1F2
  8
LAYER_1
 10
13.07900864015816
 20
-9.2550183966291
 30
0.0
  0
VERTEX
  5
1F3
  8
LAYER_1
 10
13.10086057385099
 20
-9.253784522581618
 30
0.0
  0
VERTEX
  5
1F4
  8
LAYER_1
 10
13.12248297875122
 20
-9.252067985974213
 30
0.0
  0
VERTEX
  5
1F5
  8
LAYER_1
 10
13.14383513631752
 20
-9.249881780302841
 30
0.0
  0
VERTEX
  5
1F6
  8
LAYER_1
 10
13.16487632800853
 20
-9.247238899063454
 30
0.0
  0
VERTEX
  5
1F7
  8
LAYER_1
 10
13.18556583528292
 20
-9.244152335752002
 30
0.0
  0
VERTEX
  5
1F8
  8
LAYER_1
 10
13.20586293959935
 20
-9.24063508386444
 30
0.0
  0
VERTEX
  5
1F9
  8
LAYER_1
 10
13.22572692241647
 20
-9.236700136896726
 30
0.0
  0
VERTEX
  5
1FA
  8
LAYER_1
 10
13.24511706519294
 20
-9.232360488344806
 30
0.0
  0
VERTEX
  5
1FB
  8
LAYER_1
 10
13.26399264938742
 20
-9.22762913170464
 30
0.0
  0
VERTEX
  5
1FC
  8
LAYER_1
 10
13.28231295645857
 20
-9.222519060472179
 30
0.0
  0
VERTEX
  5
1FD
  8
LAYER_1
 10
13.30003726786504
 20
-9.217043268143374
 30
0.0
  0
VERTEX
  5
1FE
  8
LAYER_1
 10
30.23753726839728
 20
-3.717043268395482
 30
0.0
  0
VERTEX
  5
1FF
  8
LAYER_1
 10
30.27297803218094
 20
-3.705115640296634
 30
0.0
  0
VERTEX
  5
200
  8
LAYER_1
 10
30.30847082533787
 20
-3.692298717360403
 30
0.0
  0
VERTEX
  5
201
  8
LAYER_1
 10
30.34394065546567
 20
-3.6785658164262
 30
0.0
  0
VERTEX
  5
202
  8
LAYER_1
 10
30.37931253016197
 20
-3.663890254333437
 30
0.0
  0
VERTEX
  5
203
  8
LAYER_1
 10
30.4145114570244
 20
-3.648245347921523
 30
0.0
  0
VERTEX
  5
204
  8
LAYER_1
 10
30.44946244365057
 20
-3.631604414029867
 30
0.0
  0
VERTEX
  5
205
  8
LAYER_1
 10
30.4840904976381
 20
-3.613940769497881
 30
0.0
  0
VERTEX
  5
206
  8
LAYER_1
 10
30.51832062658463
 20
-3.595227731164974
 30
0.0
  0
VERTEX
  5
207
  8
LAYER_1
 10
30.53526303404178
 20
-3.585469350835491
 30
0.0
  0
VERTEX
  5
208
  8
LAYER_1
 10
30.55207783808778
 20
-3.575438615870556
 30
0.0
  0
VERTEX
  5
209
  8
LAYER_1
 10
30.56875566467234
 20
-3.565132190875097
 30
0.0
  0
VERTEX
  5
20A
  8
LAYER_1
 10
30.58528713974516
 20
-3.554546740454039
 30
0.0
  0
VERTEX
  5
20B
  8
LAYER_1
 10
30.60166288925594
 20
-3.543678929212309
 30
0.0
  0
VERTEX
  5
20C
  8
LAYER_1
 10
30.61787353915439
 20
-3.532525421754832
 30
0.0
  0
VERTEX
  5
20D
  8
LAYER_1
 10
30.63390971539021
 20
-3.521082882686535
 30
0.0
  0
VERTEX
  5
20E
  8
LAYER_1
 10
30.64976204391311
 20
-3.509347976612345
 30
0.0
  0
VERTEX
  5
20F
  8
LAYER_1
 10
30.66542115067278
 20
-3.497317368137188
 30
0.0
  0
VERTEX
  5
210
  8
LAYER_1
 10
30.68087766161893
 20
-3.484987721865989
 30
0.0
  0
VERTEX
  5
211
  8
LAYER_1
 10
30.69612220270126
 20
-3.472355702403676
 30
0.0
  0
VERTEX
  5
212
  8
LAYER_1
 10
30.71114539986948
 20
-3.459417974355174
 30
0.0
  0
VERTEX
  5
213
  8
LAYER_1
 10
30.72593787907329
 20
-3.446171202325409
 30
0.0
  0
VERTEX
  5
214
  8
LAYER_1
 10
30.74049026626238
 20
-3.432612050919309
 30
0.0
  0
VERTEX
  5
215
  8
LAYER_1
 10
30.75479318738648
 20
-3.418737184741799
 30
0.0
  0
VERTEX
  5
216
  8
LAYER_1
 10
30.76883726839526
 20
-3.404543268397806
 30
0.0
  0
VERTEX
  5
217
  8
LAYER_1
 10
30.78423551676568
 20
-3.388305572445589
 30
0.0
  0
VERTEX
  5
218
  8
LAYER_1
 10
30.79930969464958
 20
-3.371711015221709
 30
0.0
  0
VERTEX
  5
219
  8
LAYER_1
 10
30.81405586958994
 20
-3.354774034117517
 30
0.0
  0
VERTEX
  5
21A
  8
LAYER_1
 10
30.82847010912978
 20
-3.337509066524366
 30
0.0
  0
VERTEX
  5
21B
  8
LAYER_1
 10
30.84254848081211
 20
-3.31993054983361
 30
0.0
  0
VERTEX
  5
21C
  8
LAYER_1
 10
30.85628705217993
 20
-3.302052921436602
 30
0.0
  0
VERTEX
  5
21D
  8
LAYER_1
 10
30.86968189077626
 20
-3.283890618724695
 30
0.0
  0
VERTEX
  5
21E
  8
LAYER_1
 10
30.8827290641441
 20
-3.265458079089243
 30
0.0
  0
VERTEX
  5
21F
  8
LAYER_1
 10
30.89542463982646
 20
-3.246769739921598
 30
0.0
  0
VERTEX
  5
220
  8
LAYER_1
 10
30.90776468536633
 20
-3.227840038613114
 30
0.0
  0
VERTEX
  5
221
  8
LAYER_1
 10
30.91974526830674
 20
-3.208683412555143
 30
0.0
  0
VERTEX
  5
222
  8
LAYER_1
 10
30.9313624561907
 20
-3.189314299139039
 30
0.0
  0
VERTEX
  5
223
  8
LAYER_1
 10
30.9426123165612
 20
-3.169747135756156
 30
0.0
  0
VERTEX
  5
224
  8
LAYER_1
 10
30.95349091696125
 20
-3.149996359797846
 30
0.0
  0
VERTEX
  5
225
  8
LAYER_1
 10
30.96399432493387
 20
-3.130076408655462
 30
0.0
  0
VERTEX
  5
226
  8
LAYER_1
 10
30.97411860802206
 20
-3.110001719720358
 30
0.0
  0
VERTEX
  5
227
  8
LAYER_1
 10
30.98385983376883
 20
-3.089786730383887
 30
0.0
  0
VERTEX
  5
228
  8
LAYER_1
 10
30.99321406971718
 20
-3.069445878037402
 30
0.0
  0
VERTEX
  5
229
  8
LAYER_1
 10
31.00217738341014
 20
-3.048993600072256
 30
0.0
  0
VERTEX
  5
22A
  8
LAYER_1
 10
31.01074584239068
 20
-3.028444333879802
 30
0.0
  0
VERTEX
  5
22B
  8
LAYER_1
 10
31.01891551420184
 20
-3.007812516851394
 30
0.0
  0
VERTEX
  5
22C
  8
LAYER_1
 10
31.02668246638661
 20
-2.987112586378385
 30
0.0
  0
VERTEX
  5
22D
  8
LAYER_1
 10
31.03404276648801
 20
-2.966358979852127
 30
0.0
  0
VERTEX
  5
22E
  8
LAYER_1
 10
31.04099248204904
 20
-2.945566134663975
 30
0.0
  0
VERTEX
  5
22F
  8
LAYER_1
 10
31.0475276806127
 20
-2.92474848820528
 30
0.0
  0
VERTEX
  5
230
  8
LAYER_1
 10
31.05364442972202
 20
-2.903920477867397
 30
0.0
  0
VERTEX
  5
231
  8
LAYER_1
 10
31.05933879691998
 20
-2.883096541041679
 30
0.0
  0
VERTEX
  5
232
  8
LAYER_1
 10
31.06460684974961
 20
-2.862291115119477
 30
0.0
  0
VERTEX
  5
233
  8
LAYER_1
 10
31.06944465575391
 20
-2.841518637492148
 30
0.0
  0
VERTEX
  5
234
  8
LAYER_1
 10
31.07384828247589
 20
-2.820793545551042
 30
0.0
  0
VERTEX
  5
235
  8
LAYER_1
 10
31.07781379745854
 20
-2.800130276687514
 30
0.0
  0
VERTEX
  5
236
  8
LAYER_1
 10
31.08133726824489
 20
-2.779543268292915
 30
0.0
  0
VERTEX
  5
237
  8
LAYER_1
 10
31.36253726812669
 20
-1.029543268205387
 30
0.0
  0
VERTEX
  5
238
  8
LAYER_1
 10
31.36658630469925
 20
-1.006861044302578
 30
0.0
  0
VERTEX
  5
239
  8
LAYER_1
 10
31.37141091834526
 20
-0.9843259012723715
 30
0.0
  0
VERTEX
  5
23A
  8
LAYER_1
 10
31.37699586324767
 20
-0.9619445630800756
 30
0.0
  0
VERTEX
  5
23B
  8
LAYER_1
 10
31.38332589358947
 20
-0.9397237536909979
 30
0.0
  0
VERTEX
  5
23C
  8
LAYER_1
 10
31.39038576355362
 20
-0.9176701970704466
 30
0.0
  0
VERTEX
  5
23D
  8
LAYER_1
 10
31.39816022732309
 20
-0.8957906171837292
 30
0.0
  0
VERTEX
  5
23E
  8
LAYER_1
 10
31.40663403908085
 20
-0.8740917379961538
 30
0.0
  0
VERTEX
  5
23F
  8
LAYER_1
 10
31.41579195300987
 20
-0.8525802834730282
 30
0.0
  0
VERTEX
  5
240
  8
LAYER_1
 10
31.42561872329312
 20
-0.8312629775796601
 30
0.0
  0
VERTEX
  5
241
  8
LAYER_1
 10
31.43609910411357
 20
-0.8101465442813576
 30
0.0
  0
VERTEX
  5
242
  8
LAYER_1
 10
31.44721784965419
 20
-0.7892377075434283
 30
0.0
  0
VERTEX
  5
243
  8
LAYER_1
 10
31.45895971409796
 20
-0.7685431913311803
 30
0.0
  0
VERTEX
  5
244
  8
LAYER_1
 10
31.47130945162785
 20
-0.7480697196099213
 30
0.0
  0
VERTEX
  5
245
  8
LAYER_1
 10
31.48425181642682
 20
-0.7278240163449591
 30
0.0
  0
VERTEX
  5
246
  8
LAYER_1
 10
31.49777156267784
 20
-0.7078128055016017
 30
0.0
  0
VERTEX
  5
247
  8
LAYER_1
 10
31.51185344456388
 20
-0.6880428110451569
 30
0.0
  0
VERTEX
  5
248
  8
LAYER_1
 10
31.52648221626793
 20
-0.6685207569409324
 30
0.0
  0
VERTEX
  5
249
  8
LAYER_1
 10
31.54164263197293
 20
-0.6492533671542362
 30
0.0
  0
VERTEX
  5
24A
  8
LAYER_1
 10
31.55731944586187
 20
-0.6302473656503763
 30
0.0
  0
VERTEX
  5
24B
  8
LAYER_1
 10
31.57349741211772
 20
-0.6115094763946602
 30
0.0
  0
VERTEX
  5
24C
  8
LAYER_1
 10
31.59016128492344
 20
-0.5930464233523962
 30
0.0
  0
VERTEX
  5
24D
  8
LAYER_1
 10
31.60729581846201
 20
-0.5748649304888916
 30
0.0
  0
VERTEX
  5
24E
  8
LAYER_1
 10
31.62488576691639
 20
-0.5569717217694546
 30
0.0
  0
VERTEX
  5
24F
  8
LAYER_1
 10
31.64291588446957
 20
-0.5393735211593931
 30
0.0
  0
VERTEX
  5
250
  8
LAYER_1
 10
31.6613709253045
 20
-0.5220770526240147
 30
0.0
  0
VERTEX
  5
251
  8
LAYER_1
 10
31.68023564360416
 20
-0.5050890401286275
 30
0.0
  0
VERTEX
  5
252
  8
LAYER_1
 10
31.69949479355152
 20
-0.4884162076385392
 30
0.0
  0
VERTEX
  5
253
  8
LAYER_1
 10
31.71913312932954
 20
-0.4720652791190577
 30
0.0
  0
VERTEX
  5
254
  8
LAYER_1
 10
31.73913540512121
 20
-0.4560429785354908
 30
0.0
  0
VERTEX
  5
255
  8
LAYER_1
 10
31.75948637510948
 20
-0.4403560298531465
 30
0.0
  0
VERTEX
  5
256
  8
LAYER_1
 10
31.78017079347734
 20
-0.4250111570373325
 30
0.0
  0
VERTEX
  5
257
  8
LAYER_1
 10
31.80117341440774
 20
-0.4100150840533567
 30
0.0
  0
VERTEX
  5
258
  8
LAYER_1
 10
31.82247899208367
 20
-0.395374534866527
 30
0.0
  0
VERTEX
  5
259
  8
LAYER_1
 10
31.84407228068809
 20
-0.3810962334421512
 30
0.0
  0
VERTEX
  5
25A
  8
LAYER_1
 10
31.86593803440397
 20
-0.3671869037455371
 30
0.0
  0
VERTEX
  5
25B
  8
LAYER_1
 10
31.88806100741427
 20
-0.3536532697419926
 30
0.0
  0
VERTEX
  5
25C
  8
LAYER_1
 10
31.91042595390199
 20
-0.3405020553968255
 30
0.0
  0
VERTEX
  5
25D
  8
LAYER_1
 10
31.93301762805007
 20
-0.3277399846753438
 30
0.0
  0
VERTEX
  5
25E
  8
LAYER_1
 10
31.9558207840415
 20
-0.3153737815428553
 30
0.0
  0
VERTEX
  5
25F
  8
LAYER_1
 10
31.97882017605924
 20
-0.3034101699646677
 30
0.0
  0
VERTEX
  5
260
  8
LAYER_1
 10
32.00200055828626
 20
-0.291855873906089
 30
0.0
  0
VERTEX
  5
261
  8
LAYER_1
 10
32.02534668490554
 20
-0.2807176173324271
 30
0.0
  0
VERTEX
  5
262
  8
LAYER_1
 10
32.04884331010004
 20
-0.2700021242089897
 30
0.0
  0
VERTEX
  5
263
  8
LAYER_1
 10
32.07247518805274
 20
-0.2597161185010847
 30
0.0
  0
VERTEX
  5
264
  8
LAYER_1
 10
32.0962270729466
 20
-0.24986632417402
 30
0.0
  0
VERTEX
  5
265
  8
LAYER_1
 10
32.12008371896459
 20
-0.2404594651931034
 30
0.0
  0
VERTEX
  5
266
  8
LAYER_1
 10
32.14402988028969
 20
-0.2315022655236428
 30
0.0
  0
VERTEX
  5
267
  8
LAYER_1
 10
32.16805031110488
 20
-0.223001449130946
 30
0.0
  0
VERTEX
  5
268
  8
LAYER_1
 10
32.19212976559311
 20
-0.2149637399803209
 30
0.0
  0
VERTEX
  5
269
  8
LAYER_1
 10
32.21625299793735
 20
-0.2073958620370753
 30
0.0
  0
VERTEX
  5
26A
  8
LAYER_1
 10
32.24040476232058
 20
-0.2003045392665171
 30
0.0
  0
VERTEX
  5
26B
  8
LAYER_1
 10
32.26456981292576
 20
-0.1936964956339541
 30
0.0
  0
VERTEX
  5
26C
  8
LAYER_1
 10
32.28873290393588
 20
-0.1875784551046941
 30
0.0
  0
VERTEX
  5
26D
  8
LAYER_1
 10
32.31287878953388
 20
-0.1819571416440452
 30
0.0
  0
VERTEX
  5
26E
  8
LAYER_1
 10
32.33699222390277
 20
-0.176839279217315
 30
0.0
  0
VERTEX
  5
26F
  8
LAYER_1
 10
32.36105796122548
 20
-0.1722315917898114
 30
0.0
  0
VERTEX
  5
270
  8
LAYER_1
 10
32.38506075568502
 20
-0.1681408033268423
 30
0.0
  0
VERTEX
  5
271
  8
LAYER_1
 10
32.40898536146432
 20
-0.1645736377937156
 30
0.0
  0
VERTEX
  5
272
  8
LAYER_1
 10
32.43281653274638
 20
-0.161536819155739
 30
0.0
  0
VERTEX
  5
273
  8
LAYER_1
 10
32.45653902371416
 20
-0.1590370713782205
 30
0.0
  0
VERTEX
  5
274
  8
LAYER_1
 10
32.48013758855063
 20
-0.1570811184264679
 30
0.0
  0
VERTEX
  5
275
  8
LAYER_1
 10
32.50359698143876
 20
-0.155675684265789
 30
0.0
  0
VERTEX
  5
276
  8
LAYER_1
 10
32.52690195656152
 20
-0.1548274928614917
 30
0.0
  0
VERTEX
  5
277
  8
LAYER_1
 10
32.55003726810189
 20
-0.1545432681788839
 30
0.0
  0
VERTEX
  5
278
  8
LAYER_1
 10
37.98753726811678
 20
-0.154543268180344
 30
0.0
  0
VERTEX
  5
279
  8
LAYER_1
 10
38.01585713628829
 20
-0.1550951981580547
 30
0.0
  0
VERTEX
  5
27A
  8
LAYER_1
 10
38.04397504042439
 20
-0.1567169410417146
 30
0.0
  0
VERTEX
  5
27B
  8
LAYER_1
 10
38.07190862571028
 20
-0.1593574262571371
 30
0.0
  0
VERTEX
  5
27C
  8
LAYER_1
 10
38.09967553733112
 20
-0.1629655832301359
 30
0.0
  0
VERTEX
  5
27D
  8
LAYER_1
 10
38.12729342047214
 20
-0.1674903413865245
 30
0.0
  0
VERTEX
  5
27E
  8
LAYER_1
 10
38.1547799203185
 20
-0.1728806301521165
 30
0.0
  0
VERTEX
  5
27F
  8
LAYER_1
 10
38.18215268205542
 20
-0.1790853789527255
 30
0.0
  0
VERTEX
  5
280
  8
LAYER_1
 10
38.20942935086808
 20
-0.1860535172141651
 30
0.0
  0
VERTEX
  5
281
  8
LAYER_1
 10
38.23662757194168
 20
-0.1937339743622487
 30
0.0
  0
VERTEX
  5
282
  8
LAYER_1
 10
38.2637649904614
 20
-0.2020756798227901
 30
0.0
  0
VERTEX
  5
283
  8
LAYER_1
 10
38.29085925161242
 20
-0.2110275630216026
 30
0.0
  0
VERTEX
  5
284
  8
LAYER_1
 10
38.31792800057997
 20
-0.2205385533845
 30
0.0
  0
VERTEX
  5
285
  8
LAYER_1
 10
38.34498888254921
 20
-0.2305575803372958
 30
0.0
  0
VERTEX
  5
286
  8
LAYER_1
 10
38.37205954270534
 20
-0.2410335733058035
 30
0.0
  0
VERTEX
  5
287
  8
LAYER_1
 10
38.42630077831905
 20
-0.2631521749932091
 30
0.0
  0
VERTEX
  5
288
  8
LAYER_1
 10
38.45599388924315
 20
-0.2758208842758304
 30
0.0
  0
VERTEX
  5
289
  8
LAYER_1
 10
38.48564520533527
 20
-0.2889297917159202
 30
0.0
  0
VERTEX
  5
28A
  8
LAYER_1
 10
38.51519430176494
 20
-0.3024983043953569
 30
0.0
  0
VERTEX
  5
28B
  8
LAYER_1
 10
38.54458075370169
 20
-0.316545829396019
 30
0.0
  0
VERTEX
  5
28C
  8
LAYER_1
 10
38.57374413631506
 20
-0.331091773799785
 30
0.0
  0
VERTEX
  5
28D
  8
LAYER_1
 10
38.60262402477454
 20
-0.3461555446885334
 30
0.0
  0
VERTEX
  5
28E
  8
LAYER_1
 10
38.6311599942497
 20
-0.3617565491441426
 30
0.0
  0
VERTEX
  5
28F
  8
LAYER_1
 10
38.65929161991005
 20
-0.3779141942484912
 30
0.0
  0
VERTEX
  5
290
  8
LAYER_1
 10
38.68695847692511
 20
-0.3946478870834575
 30
0.0
  0
VERTEX
  5
291
  8
LAYER_1
 10
38.71410014046442
 20
-0.4119770347309203
 30
0.0
  0
VERTEX
  5
292
  8
LAYER_1
 10
38.74065618569751
 20
-0.4299210442727578
 30
0.0
  0
VERTEX
  5
293
  8
LAYER_1
 10
38.76656618779391
 20
-0.4484993227908485
 30
0.0
  0
VERTEX
  5
294
  8
LAYER_1
 10
38.79176972192313
 20
-0.4677312773670711
 30
0.0
  0
VERTEX
  5
295
  8
LAYER_1
 10
38.81620636325471
 20
-0.4876363150833039
 30
0.0
  0
VERTEX
  5
296
  8
LAYER_1
 10
38.83981568695818
 20
-0.5082338430214254
 30
0.0
  0
VERTEX
  5
297
  8
LAYER_1
 10
38.86253726820307
 20
-0.5295432682633141
 30
0.0
  0
VERTEX
  5
298
  8
LAYER_1
 10
41.23753726823601
 20
-2.842043268293793
 30
0.0
  0
VERTEX
  5
299
  8
LAYER_1
 10
41.25730473753403
 20
-2.860906624387066
 30
0.0
  0
VERTEX
  5
29A
  8
LAYER_1
 10
41.27768575506839
 20
-2.879581998465695
 30
0.0
  0
VERTEX
  5
29B
  8
LAYER_1
 10
41.29865370423703
 20
-2.898017147930098
 30
0.0
  0
VERTEX
  5
29C
  8
LAYER_1
 10
41.32018196843788
 20
-2.916159830180692
 30
0.0
  0
VERTEX
  5
29D
  8
LAYER_1
 10
41.34224393106885
 20
-2.933957802617894
 30
0.0
  0
VERTEX
  5
29E
  8
LAYER_1
 10
41.36481297552785
 20
-2.951358822642121
 30
0.0
  0
VERTEX
  5
29F
  8
LAYER_1
 10
41.38786248521284
 20
-2.968310647653792
 30
0.0
  0
VERTEX
  5
2A0
  8
LAYER_1
 10
41.41136584352171
 20
-2.984761035053321
 30
0.0
  0
VERTEX
  5
2A1
  8
LAYER_1
 10
41.43529643385239
 20
-3.000657742241128
 30
0.0
  0
VERTEX
  5
2A2
  8
LAYER_1
 10
41.45962763960281
 20
-3.01594852661763
 30
0.0
  0
VERTEX
  5
2A3
  8
LAYER_1
 10
41.48433284417089
 20
-3.030581145583244
 30
0.0
  0
VERTEX
  5
2A4
  8
LAYER_1
 10
41.50938543095455
 20
-3.044503356538386
 30
0.0
  0
VERTEX
  5
2A5
  8
LAYER_1
 10
41.53475878335173
 20
-3.057662916883475
 30
0.0
  0
VERTEX
  5
2A6
  8
LAYER_1
 10
41.56042628476033
 20
-3.070007584018928
 30
0.0
  0
VERTEX
  5
2A7
  8
LAYER_1
 10
41.58636131857828
 20
-3.081485115345162
 30
0.0
  0
VERTEX
  5
2A8
  8
LAYER_1
 10
41.61253726820351
 20
-3.092043268262593
 30
0.0
  0
VERTEX
  5
2A9
  8
LAYER_1
 10
41.63725723119309
 20
-3.101046811754577
 30
0.0
  0
VERTEX
  5
2AA
  8
LAYER_1
 10
41.66214575885041
 20
-3.109192115425399
 30
0.0
  0
VERTEX
  5
2AB
  8
LAYER_1
 10
41.68718598123278
 20
-3.116517450851344
 30
0.0
  0
VERTEX
  5
2AC
  8
LAYER_1
 10
41.71236102839751
 20
-3.123061089608698
 30
0.0
  0
VERTEX
  5
2AD
  8
LAYER_1
 10
41.7376540304019
 20
-3.128861303273745
 30
0.0
  0
VERTEX
  5
2AE
  8
LAYER_1
 10
41.76304811730326
 20
-3.133956363422769
 30
0.0
  0
VERTEX
  5
2AF
  8
LAYER_1
 10
41.7885264191589
 20
-3.138384541632055
 30
0.0
  0
VERTEX
  5
2B0
  8
LAYER_1
 10
41.81407206602611
 20
-3.142184109477888
 30
0.0
  0
VERTEX
  5
2B1
  8
LAYER_1
 10
41.83966818796222
 20
-3.145393338536551
 30
0.0
  0
VERTEX
  5
2B2
  8
LAYER_1
 10
41.86529791502451
 20
-3.148050500384332
 30
0.0
  0
VERTEX
  5
2B3
  8
LAYER_1
 10
41.89094437727029
 20
-3.150193866597513
 30
0.0
  0
VERTEX
  5
2B4
  8
LAYER_1
 10
41.91659070475689
 20
-3.151861708752379
 30
0.0
  0
VERTEX
  5
2B5
  8
LAYER_1
 10
41.94222002754159
 20
-3.153092298425216
 30
0.0
  0
VERTEX
  5
2B6
  8
LAYER_1
 10
41.9678154756817
 20
-3.153923907192307
 30
0.0
  0
VERTEX
  5
2B7
  8
LAYER_1
 10
41.99336017923454
 20
-3.154394806629937
 30
0.0
  0
VERTEX
  5
2B8
  8
LAYER_1
 10
42.01883726825741
 20
-3.154543268314391
 30
0.0
  0
VERTEX
  5
2B9
  8
LAYER_1
 10
69.42503726821484
 20
-3.154543268272757
 30
0.0
  0
VERTEX
  5
2BA
  8
LAYER_1
 10
69.42503726821484
 20
-30.21704326827278
 30
0.0
  0
VERTEX
  5
2BB
  8
LAYER_1
 10
11.36253726821538
 20
-30.21704326827278
 30
0.0
  0
SEQEND
  5
6B9
  8
LAYER_1
  0
POLYLINE
  5
76
  8
LAYER_1
 66
     1
 10
0.0
 20
0.0
 30
0.0
 70
     1
  0
VERTEX
  5
2BC
  8
LAYER_1
 10
101.1047943741353
 20
-26.0408983621128
 30
0.0
  0
VERTEX
  5
2BD
  8
LAYER_1
 10
124.6047943741353
 20
-26.0408983621128
 30
0.0
  0
VERTEX
  5
2BE
  8
LAYER_1
 10
124.6047943741353
 20
2.021601637887201
 30
0.0
  0
VERTEX
  5
2BF
  8
LAYER_1
 10
101.1047943741353
 20
2.021601637887201
 30
0.0
  0
SEQEND
  5
6BA
  8
LAYER_1
  0
POLYLINE
  5
77
  8
LAYER_1
 66
     1
 10
0.0
 20
0.0
 30
0.0
 70
     1
  0
VERTEX
  5
2C0
  8
LAYER_1
 10
124.3547943741353
 20
-26.1658983621128
 30
0.0
  0
VERTEX
  5
2C1
  8
LAYER_1
 10
124.7297943741353
 20
-26.1658983621128
 30
0.0
  0
VERTEX
  5
2C2
  8
LAYER_1
 10
124.7297943741353
 20
2.146601637887201
 30
0.0
  0
VERTEX
  5
2C3
  8
LAYER_1
 10
124.3547943741353
 20
2.146601637887201
 30
0.0
  0
SEQEND
  5
6BB
  8
LAYER_1
  0
POLYLINE
  5
78
  8
LAYER_1
 66
     1
 10
0.0
 20
0.0
 30
0.0
 70
     1
  0
VERTEX
  5
2C4
  8
LAYER_1
 10
100.9797943741353
 20
-26.1658983621128
 30
0.0
  0
VERTEX
  5
2C5
  8
LAYER_1
 10
101.3547943741353
 20
-26.1658983621128
 30
0.0
  0
VERTEX
  5
2C6
  8
LAYER_1
 10
101.3547943741353
 20
2.146601637887201
 30
0.0
  0
VERTEX
  5
2C7
  8
LAYER_1
 10
100.9797943741353
 20
2.146601637887201
 30
0.0
  0
SEQEND
  5
6BC
  8
LAYER_1
  0
POLYLINE
  5
79
  8
LAYER_1
 66
     1
 10
0.0
 20
0.0
 30
0.0
 70
     1
  0
VERTEX
  5
2C8
  8
LAYER_1
 10
109.2611443741353
 20
-18.3533483621128
 30
0.0
 42
0.4142135623730951
  0
VERTEX
  5
2C9
  8
LAYER_1
 10
109.7611443741353
 20
-18.8533483621128
 30
0.0
  0
VERTEX
  5
2CA
  8
LAYER_1
 10
115.9486443741353
 20
-18.8533483621128
 30
0.0
 42
0.4142135623730951
  0
VERTEX
  5
2CB
  8
LAYER_1
 10
116.4486443741353
 20
-18.3533483621128
 30
0.0
  0
VERTEX
  5
2CC
  8
LAYER_1
 10
116.4486443741353
 20
0.4591516378872029
 30
0.0
 42
0.4142135623730951
  0
VERTEX
  5
2CD
  8
LAYER_1
 10
115.9486443741353
 20
0.9591516378872029
 30
0.0
  0
VERTEX
  5
2CE
  8
LAYER_1
 10
109.7611443741353
 20
0.9591516378872029
 30
0.0
 42
0.4142135623730951
  0
VERTEX
  5
2CF
  8
LAYER_1
 10
109.2611443741353
 20
0.4591516378872029
 30
0.0
  0
SEQEND
  5
6BD
  8
LAYER_1
  0
POLYLINE
  5
7A
  8
LAYER_1
 66
     1
 10
0.0
 20
0.0
 30
0.0
 70
     1
  0
VERTEX
  5
2D0
  8
LAYER_1
 10
73.35971556181688
 20
-7.656268387887792
 30
0.0
 42
0.4142135623730951
  0
VERTEX
  5
2D1
  8
LAYER_1
 10
73.85971556181688
 20
-8.156268387887792
 30
0.0
  0
VERTEX
  5
2D2
  8
LAYER_1
 10
81.85971556181688
 20
-8.156268387887792
 30
0.0
 42
0.4142135623730951
  0
VERTEX
  5
2D3
  8
LAYER_1
 10
82.35971556181688
 20
-7.656268387887792
 30
0.0
  0
VERTEX
  5
2D4
  8
LAYER_1
 10
82.35971556181688
 20
-6.656268387887792
 30
0.0
 42
0.4142135623730951
  0
VERTEX
  5
2D5
  8
LAYER_1
 10
81.85971556181688
 20
-6.156268387887792
 30
0.0
  0
VERTEX
  5
2D6
  8
LAYER_1
 10
73.85971556181688
 20
-6.156268387887792
 30
0.0
 42
0.4142135623730951
  0
VERTEX
  5
2D7
  8
LAYER_1
 10
73.35971556181688
 20
-6.656268387887792
 30
0.0
  0
SEQEND
  5
6BE
  8
LAYER_1
  0
POLYLINE
  5
7B
  8
LAYER_1
 66
     1
 10
0.0
 20
0.0
 30
0.0
 70
     1
  0
VERTEX
  5
2D8
  8
LAYER_1
 10
85.29721556181688
 20
-7.656268387887792
 30
0.0
 42
0.4142135623730951
  0
VERTEX
  5
2D9
  8
LAYER_1
 10
85.79721556181688
 20
-8.156268387887792
 30
0.0
  0
VERTEX
  5
2DA
  8
LAYER_1
 10
93.7972155618169
 20
-8.156268387887792
 30
0.0
 42
0.4142135623730951
  0
VERTEX
  5
2DB
  8
LAYER_1
 10
94.2972155618169
 20
-7.656268387887792
 30
0.0
  0
VERTEX
  5
2DC
  8
LAYER_1
 10
94.2972155618169
 20
-6.656268387887792
 30
0.0
 42
0.4142135623730951
  0
VERTEX
  5
2DD
  8
LAYER_1
 10
93.7972155618169
 20
-6.156268387887792
 30
0.0
  0
VERTEX
  5
2DE
  8
LAYER_1
 10
85.79721556181688
 20
-6.156268387887792
 30
0.0
 42
0.4142135623730951
  0
VERTEX
  5
2DF
  8
LAYER_1
 10
85.29721556181688
 20
-6.656268387887792
 30
0.0
  0
SEQEND
  5
6BF
  8
LAYER_1
  0
POLYLINE
  5
7C
  8
LAYER_1
 66
     1
 10
0.0
 20
0.0
 30
0.0
 70
     1
  0
VERTEX
  5
2E0
  8
LAYER_1
 10
73.48471556181688
 20
-9.03076838788779
 30
0.0
 42
0.4142135623730951
  0
VERTEX
  5
2E1
  8
LAYER_1
 10
73.35921556181688
 20
-9.156268387887792
 30
0.0
 42
0.4142135623730951
  0
VERTEX
  5
2E2
  8
LAYER_1
 10
73.48471556181688
 20
-9.281768387887794
 30
0.0
 42
0.4142135623730951
  0
VERTEX
  5
2E3
  8
LAYER_1
 10
73.61021556181689
 20
-9.156268387887792
 30
0.0
 42
0.4142135623730951
  0
SEQEND
  5
6C0
  8
LAYER_1
  0
POLYLINE
  5
7D
  8
LAYER_1
 66
     1
 10
0.0
 20
0.0
 30
0.0
 70
     1
  0
VERTEX
  5
2E4
  8
LAYER_1
 10
83.79721556181688
 20
-9.03076838788779
 30
0.0
 42
0.4142135623730951
  0
VERTEX
  5
2E5
  8
LAYER_1
 10
83.67171556181688
 20
-9.156268387887792
 30
0.0
 42
0.4142135623730951
  0
VERTEX
  5
2E6
  8
LAYER_1
 10
83.79721556181688
 20
-9.281768387887794
 30
0.0
 42
0.4142135623730951
  0
VERTEX
  5
2E7
  8
LAYER_1
 10
83.92271556181689
 20
-9.156268387887792
 30
0.0
 42
0.4142135623730951
  0
SEQEND
  5
6C1
  8
LAYER_1
  0
POLYLINE
  5
7E
  8
LAYER_1
 66
     1
 10
0.0
 20
0.0
 30
0.0
 70
     1
  0
VERTEX
  5
2E8
  8
LAYER_1
 10
94.1097155618169
 20
-9.03076838788779
 30
0.0
 42
0.4142135623730951
  0
VERTEX
  5
2E9
  8
LAYER_1
 10
93.98421556181688
 20
-9.156268387887792
 30
0.0
 42
0.4142135623730951
  0
VERTEX
  5
2EA
  8
LAYER_1
 10
94.1097155618169
 20
-9.281768387887794
 30
0.0
 42
0.4142135623730951
  0
VERTEX
  5
2EB
  8
LAYER_1
 10
94.23521556181689
 20
-9.156268387887792
 30
0.0
 42
0.4142135623730951
  0
SEQEND
  5
6C2
  8
LAYER_1
  0
POLYLINE
  5
7F
  8
LAYER_1
 66
     1
 10
0.0
 20
0.0
 30
0.0
 70
     1
  0
VERTEX
  5
2EC
  8
LAYER_1
 10
94.1097155618169
 20
-5.03076838788779
 30
0.0
 42
0.4142135623730951
  0
VERTEX
  5
2ED
  8
LAYER_1
 10
93.98421556181688
 20
-5.156268387887792
 30
0.0
 42
0.4142135623730951
  0
VERTEX
  5
2EE
  8
LAYER_1
 10
94.1097155618169
 20
-5.281768387887794
 30
0.0
 42
0.4142135623730951
  0
VERTEX
  5
2EF
  8
LAYER_1
 10
94.23521556181689
 20
-5.156268387887792
 30
0.0
 42
0.4142135623730951
  0
SEQEND
  5
6C3
  8
LAYER_1
  0
POLYLINE
  5
80
  8
LAYER_1
 66
     1
 10
0.0
 20
0.0
 30
0.0
 70
     1
  0
VERTEX
  5
2F0
  8
LAYER_1
 10
83.79721556181688
 20
-5.03076838788779
 30
0.0
 42
0.4142135623730951
  0
VERTEX
  5
2F1
  8
LAYER_1
 10
83.67171556181688
 20
-5.156268387887792
 30
0.0
 42
0.4142135623730951
  0
VERTEX
  5
2F2
  8
LAYER_1
 10
83.79721556181688
 20
-5.281768387887794
 30
0.0
 42
0.4142135623730951
  0
VERTEX
  5
2F3
  8
LAYER_1
 10
83.92271556181689
 20
-5.156268387887792
 30
0.0
 42
0.4142135623730951
  0
SEQEND
  5
6C4
  8
LAYER_1
  0
POLYLINE
  5
81
  8
LAYER_1
 66
     1
 10
0.0
 20
0.0
 30
0.0
 70
     1
  0
VERTEX
  5
2F4
  8
LAYER_1
 10
73.48471556181688
 20
-5.03076838788779
 30
0.0
 42
0.4142135623730951
  0
VERTEX
  5
2F5
  8
LAYER_1
 10
73.35921556181688
 20
-5.156268387887792
 30
0.0
 42
0.4142135623730951
  0
VERTEX
  5
2F6
  8
LAYER_1
 10
73.48471556181688
 20
-5.281768387887794
 30
0.0
 42
0.4142135623730951
  0
VERTEX
  5
2F7
  8
LAYER_1
 10
73.61021556181689
 20
-5.156268387887792
 30
0.0
 42
0.4142135623730951
  0
SEQEND
  5
6C5
  8
LAYER_1
  0
POLYLINE
  5
82
  8
LAYER_1
 66
     1
 10
0.0
 20
0.0
 30
0.0
 70
     1
  0
VERTEX
  5
2F8
  8
LAYER_1
 10
72.07821556181688
 20
-18.71926838788779
 30
0.0
  0
VERTEX
  5
2F9
  8
LAYER_1
 10
95.57821556181688
 20
-18.71926838788779
 30
0.0
  0
VERTEX
  5
2FA
  8
LAYER_1
 10
95.57821556181688
 20
-0.9067683878877943
 30
0.0
  0
VERTEX
  5
2FB
  8
LAYER_1
 10
72.07821556181688
 20
-0.9067683878877943
 30
0.0
  0
SEQEND
  5
6C6
  8
LAYER_1
  0
POLYLINE
  5
83
  8
LAYER_1
 66
     1
 10
0.0
 20
0.0
 30
0.0
 70
     1
  0
VERTEX
  5
2FC
  8
LAYER_1
 10
95.32817277847309
 20
-18.84430069847014
 30
0.0
  0
VERTEX
  5
2FD
  8
LAYER_1
 10
95.70317277847309
 20
-18.84430069847014
 30
0.0
  0
VERTEX
  5
2FE
  8
LAYER_1
 10
95.70317277847309
 20
-0.7193006984701356
 30
0.0
  0
VERTEX
  5
2FF
  8
LAYER_1
 10
95.32817277847309
 20
-0.7193006984701356
 30
0.0
  0
SEQEND
  5
6C7
  8
LAYER_1
  0
POLYLINE
  5
84
  8
LAYER_1
 66
     1
 10
0.0
 20
0.0
 30
0.0
 70
     1
  0
VERTEX
  5
300
  8
LAYER_1
 10
71.95321556181688
 20
-18.84426838788779
 30
0.0
  0
VERTEX
  5
301
  8
LAYER_1
 10
72.32821556181688
 20
-18.84426838788779
 30
0.0
  0
VERTEX
  5
302
  8
LAYER_1
 10
72.32821556181688
 20
-0.7192683878877943
 30
0.0
  0
VERTEX
  5
303
  8
LAYER_1
 10
71.95321556181688
 20
-0.7192683878877943
 30
0.0
  0
SEQEND
  5
6C8
  8
LAYER_1
  0
POLYLINE
  5
85
  8
LAYER_1
 66
     1
 10
0.0
 20
0.0
 30
0.0
 70
     1
  0
VERTEX
  5
304
  8
LAYER_1
 10
75.82821556181688
 20
-10.31301838788779
 30
0.0
 42
0.4142135623730951
  0
VERTEX
  5
305
  8
LAYER_1
 10
74.98446556181688
 20
-11.15676838788779
 30
0.0
 42
0.4142135623730951
  0
VERTEX
  5
306
  8
LAYER_1
 10
75.82821556181688
 20
-12.00051838788779
 30
0.0
 42
0.4142135623730951
  0
VERTEX
  5
307
  8
LAYER_1
 10
76.67196556181688
 20
-11.15676838788779
 30
0.0
 42
0.4142135623730951
  0
SEQEND
  5
6C9
  8
LAYER_1
  0
POLYLINE
  5
86
  8
LAYER_1
 66
     1
 10
0.0
 20
0.0
 30
0.0
 70
     1
  0
VERTEX
  5
308
  8
LAYER_1
 10
100.5318635374854
 20
-35.67666277627799
 30
0.0
  0
VERTEX
  5
309
  8
LAYER_1
 10
124.0318635374854
 20
-35.67666277627799
 30
0.0
  0
VERTEX
  5
30A
  8
LAYER_1
 10
124.0318635374854
 20
-28.36416277627799
 30
0.0
  0
VERTEX
  5
30B
  8
LAYER_1
 10
100.5318635374854
 20
-28.36416277627799
 30
0.0
  0
SEQEND
  5
6CA
  8
LAYER_1
  0
POLYLINE
  5
87
  8
LAYER_1
 66
     1
 10
0.0
 20
0.0
 30
0.0
 70
     1
  0
VERTEX
  5
30C
  8
LAYER_1
 10
100.4068635374854
 20
-35.80166277627799
 30
0.0
  0
VERTEX
  5
30D
  8
LAYER_1
 10
100.7818635374854
 20
-35.80166277627799
 30
0.0
  0
VERTEX
  5
30E
  8
LAYER_1
 10
100.7818635374854
 20
-28.23916277627799
 30
0.0
  0
VERTEX
  5
30F
  8
LAYER_1
 10
100.4068635374854
 20
-28.23916277627799
 30
0.0
  0
SEQEND
  5
6CB
  8
LAYER_1
  0
POLYLINE
  5
88
  8
LAYER_1
 66
     1
 10
0.0
 20
0.0
 30
0.0
 70
     1
  0
VERTEX
  5
310
  8
LAYER_1
 10
123.7818635374854
 20
-35.80166277627799
 30
0.0
  0
VERTEX
  5
311
  8
LAYER_1
 10
124.1568635374854
 20
-35.80166277627799
 30
0.0
  0
VERTEX
  5
312
  8
LAYER_1
 10
124.1568635374854
 20
-28.23916277627799
 30
0.0
  0
VERTEX
  5
313
  8
LAYER_1
 10
123.7818635374854
 20
-28.23916277627799
 30
0.0
  0
SEQEND
  5
6CC
  8
LAYER_1
  0
POLYLINE
  5
89
  8
LAYER_1
 66
     1
 10
0.0
 20
0.0
 30
0.0
 70
     1
  0
VERTEX
  5
314
  8
LAYER_1
 10
72.65819400606918
 20
-35.94125225265466
 30
0.0
  0
VERTEX
  5
315
  8
LAYER_1
 10
96.15819400606918
 20
-35.94125225265466
 30
0.0
  0
VERTEX
  5
316
  8
LAYER_1
 10
96.15819400606918
 20
-32.81625225265466
 30
0.0
  0
VERTEX
  5
317
  8
LAYER_1
 10
72.65819400606918
 20
-32.81625225265466
 30
0.0
  0
SEQEND
  5
6CD
  8
LAYER_1
  0
POLYLINE
  5
8A
  8
LAYER_1
 66
     1
 10
0.0
 20
0.0
 30
0.0
 70
     1
  0
VERTEX
  5
318
  8
LAYER_1
 10
95.90819400606918
 20
-36.06625225265466
 30
0.0
  0
VERTEX
  5
319
  8
LAYER_1
 10
96.28319400606918
 20
-36.06625225265466
 30
0.0
  0
VERTEX
  5
31A
  8
LAYER_1
 10
96.28319400606918
 20
-32.69125225265466
 30
0.0
  0
VERTEX
  5
31B
  8
LAYER_1
 10
95.90819400606918
 20
-32.69125225265466
 30
0.0
  0
SEQEND
  5
6CE
  8
LAYER_1
  0
POLYLINE
  5
8B
  8
LAYER_1
 66
     1
 10
0.0
 20
0.0
 30
0.0
 70
     1
  0
VERTEX
  5
31C
  8
LAYER_1
 10
72.53319400606918
 20
-36.06625225265466
 30
0.0
  0
VERTEX
  5
31D
  8
LAYER_1
 10
72.90819400606918
 20
-36.06625225265466
 30
0.0
  0
VERTEX
  5
31E
  8
LAYER_1
 10
72.90819400606918
 20
-32.69125225265466
 30
0.0
  0
VERTEX
  5
31F
  8
LAYER_1
 10
72.53319400606918
 20
-32.69125225265466
 30
0.0
  0
SEQEND
  5
6CF
  8
LAYER_1
  0
POLYLINE
  5
8C
  8
LAYER_1
 66
     1
 10
0.0
 20
0.0
 30
0.0
 70
     1
  0
VERTEX
  5
320
  8
LAYER_1
 10
73.84569400606918
 20
-34.50325225265466
 30
0.0
 42
0.4142135623730951
  0
VERTEX
  5
321
  8
LAYER_1
 10
73.72019400606918
 20
-34.62875225265466
 30
0.0
 42
0.4142135623730951
  0
VERTEX
  5
322
  8
LAYER_1
 10
73.84569400606918
 20
-34.75425225265467
 30
0.0
 42
0.4142135623730951
  0
VERTEX
  5
323
  8
LAYER_1
 10
73.97119400606918
 20
-34.62875225265466
 30
0.0
 42
0.4142135623730951
  0
SEQEND
  5
6D0
  8
LAYER_1
  0
POLYLINE
  5
8D
  8
LAYER_1
 66
     1
 10
0.0
 20
0.0
 30
0.0
 70
     1
  0
VERTEX
  5
324
  8
LAYER_1
 10
93.68939400606918
 20
-34.50325225265466
 30
0.0
 42
0.4142135623730951
  0
VERTEX
  5
325
  8
LAYER_1
 10
93.56389400606918
 20
-34.62875225265466
 30
0.0
 42
0.4142135623730951
  0
VERTEX
  5
326
  8
LAYER_1
 10
93.68939400606918
 20
-34.75425225265467
 30
0.0
 42
0.4142135623730951
  0
VERTEX
  5
327
  8
LAYER_1
 10
93.81489400606918
 20
-34.62875225265466
 30
0.0
 42
0.4142135623730951
  0
SEQEND
  5
6D1
  8
LAYER_1
  0
POLYLINE
  5
8E
  8
LAYER_1
 66
     1
 10
0.0
 20
0.0
 30
0.0
 70
     1
  0
VERTEX
  5
328
  8
LAYER_1
 10
94.87689400606918
 20
-34.50325225265466
 30
0.0
 42
0.4142135623730951
  0
VERTEX
  5
329
  8
LAYER_1
 10
94.75139400606918
 20
-34.62875225265466
 30
0.0
 42
0.4142135623730951
  0
VERTEX
  5
32A
  8
LAYER_1
 10
94.87689400606918
 20
-34.75425225265467
 30
0.0
 42
0.4142135623730951
  0
VERTEX
  5
32B
  8
LAYER_1
 10
95.00239400606918
 20
-34.62875225265466
 30
0.0
 42
0.4142135623730951
  0
SEQEND
  5
6D2
  8
LAYER_1
  0
POLYLINE
  5
8F
  8
LAYER_1
 66
     1
 10
0.0
 20
0.0
 30
0.0
 70
     1
  0
VERTEX
  5
32C
  8
LAYER_1
 10
75.03319400606918
 20
-34.50325225265466
 30
0.0
 42
0.4142135623730951
  0
VERTEX
  5
32D
  8
LAYER_1
 10
74.90769400606918
 20
-34.62875225265466
 30
0.0
 42
0.4142135623730951
  0
VERTEX
  5
32E
  8
LAYER_1
 10
75.03319400606918
 20
-34.75425225265467
 30
0.0
 42
0.4142135623730951
  0
VERTEX
  5
32F
  8
LAYER_1
 10
75.15869400606918
 20
-34.62875225265466
 30
0.0
 42
0.4142135623730951
  0
SEQEND
  5
6D3
  8
LAYER_1
  0
POLYLINE
  5
90
  8
LAYER_1
 66
     1
 10
0.0
 20
0.0
 30
0.0
 70
     1
  0
VERTEX
  5
330
  8
LAYER_1
 10
71.44202090252774
 20
-29.35376966205762
 30
0.0
  0
VERTEX
  5
331
  8
LAYER_1
 10
94.94202090252772
 20
-29.35376966205762
 30
0.0
  0
VERTEX
  5
332
  8
LAYER_1
 10
94.94202090252772
 20
-24.35376966205762
 30
0.0
  0
VERTEX
  5
333
  8
LAYER_1
 10
71.44202090252774
 20
-24.35376966205762
 30
0.0
  0
SEQEND
  5
6D4
  8
LAYER_1
  0
POLYLINE
  5
91
  8
LAYER_1
 66
     1
 10
0.0
 20
0.0
 30
0.0
 70
     1
  0
VERTEX
  5
334
  8
LAYER_1
 10
94.69202090252772
 20
-29.47876966205762
 30
0.0
  0
VERTEX
  5
335
  8
LAYER_1
 10
95.06702090252772
 20
-29.47876966205762
 30
0.0
  0
VERTEX
  5
336
  8
LAYER_1
 10
95.06702090252772
 20
-24.22876966205762
 30
0.0
  0
VERTEX
  5
337
  8
LAYER_1
 10
94.69202090252772
 20
-24.22876966205762
 30
0.0
  0
SEQEND
  5
6D5
  8
LAYER_1
  0
POLYLINE
  5
92
  8
LAYER_1
 66
     1
 10
0.0
 20
0.0
 30
0.0
 70
     1
  0
VERTEX
  5
338
  8
LAYER_1
 10
71.31702090252774
 20
-29.47876966205762
 30
0.0
  0
VERTEX
  5
339
  8
LAYER_1
 10
71.69202090252774
 20
-29.47876966205762
 30
0.0
  0
VERTEX
  5
33A
  8
LAYER_1
 10
71.69202090252774
 20
-24.22876966205762
 30
0.0
  0
VERTEX
  5
33B
  8
LAYER_1
 10
71.31702090252774
 20
-24.22876966205762
 30
0.0
  0
SEQEND
  5
6D6
  8
LAYER_1
  0
POLYLINE
  5
93
  8
LAYER_1
 66
     1
 10
0.0
 20
0.0
 30
0.0
 70
     1
  0
VERTEX
  5
33C
  8
LAYER_1
 10
6.587285918900037
 20
-7.154283822636003
 30
0.0
  0
VERTEX
  5
33D
  8
LAYER_1
 10
16.08728591890004
 20
-7.154283822636003
 30
0.0
  0
VERTEX
  5
33E
  8
LAYER_1
 10
16.08728591890004
 20
1.470716177363997
 30
0.0
  0
VERTEX
  5
33F
  8
LAYER_1
 10
6.587285918900037
 20
1.470716177363997
 30
0.0
  0
SEQEND
  5
6D7
  8
LAYER_1
  0
POLYLINE
  5
94
  8
LAYER_1
 66
     1
 10
0.0
 20
0.0
 30
0.0
 70
     1
  0
VERTEX
  5
340
  8
LAYER_1
 10
95.43973047165518
 20
-19.88719893166427
 30
0.0
  0
VERTEX
  5
341
  8
LAYER_1
 10
71.9397304716552
 20
-19.88719893166427
 30
0.0
  0
VERTEX
  5
342
  8
LAYER_1
 10
71.9397304716552
 20
-21.88719893166427
 30
0.0
  0
VERTEX
  5
343
  8
LAYER_1
 10
95.43973047165518
 20
-21.88719893166427
 30
0.0
  0
SEQEND
  5
6D8
  8
LAYER_1
  0
POLYLINE
  5
95
  8
LAYER_1
 66
     1
 10
0.0
 20
0.0
 30
0.0
 70
     1
  0
VERTEX
  5
344
  8
LAYER_1
 10
95.56473047165518
 20
-19.76219893166427
 30
0.0
  0
VERTEX
  5
345
  8
LAYER_1
 10
95.18973047165518
 20
-19.76219893166427
 30
0.0
  0
VERTEX
  5
346
  8
LAYER_1
 10
95.18973047165518
 20
-22.01219893166427
 30
0.0
  0
VERTEX
  5
347
  8
LAYER_1
 10
95.56473047165518
 20
-22.01219893166427
 30
0.0
  0
SEQEND
  5
6D9
  8
LAYER_1
  0
POLYLINE
  5
96
  8
LAYER_1
 66
     1
 10
0.0
 20
0.0
 30
0.0
 70
     1
  0
VERTEX
  5
348
  8
LAYER_1
 10
72.1897304716552
 20
-19.76219893166427
 30
0.0
  0
VERTEX
  5
349
  8
LAYER_1
 10
71.8147304716552
 20
-19.76219893166427
 30
0.0
  0
VERTEX
  5
34A
  8
LAYER_1
 10
71.8147304716552
 20
-22.01219893166427
 30
0.0
  0
VERTEX
  5
34B
  8
LAYER_1
 10
72.1897304716552
 20
-22.01219893166427
 30
0.0
  0
SEQEND
  5
6DA
  8
LAYER_1
  0
POLYLINE
  5
97
  8
LAYER_1
 66
     1
 10
0.0
 20
0.0
 30
0.0
 70
     1
  0
VERTEX
  5
34C
  8
LAYER_1
 10
25.42815370778044
 20
2.717265810895427
 30
0.0
 42
0.4142135623730951
  0
VERTEX
  5
34D
  8
LAYER_1
 10
25.30265370778044
 20
2.591765810895424
 30
0.0
 42
0.4142135623730951
  0
VERTEX
  5
34E
  8
LAYER_1
 10
25.42815370778044
 20
2.466265810895422
 30
0.0
 42
0.4142135623730951
  0
VERTEX
  5
34F
  8
LAYER_1
 10
25.55365370778044
 20
2.591765810895424
 30
0.0
 42
0.4142135623730951
  0
SEQEND
  5
6DB
  8
LAYER_1
  0
POLYLINE
  5
98
  8
LAYER_1
 66
     1
 10
0.0
 20
0.0
 30
0.0
 70
     1
  0
VERTEX
  5
350
  8
LAYER_1
 10
48.74065370778044
 20
2.717265810895427
 30
0.0
 42
0.4142135623730951
  0
VERTEX
  5
351
  8
LAYER_1
 10
48.61515370778045
 20
2.591765810895424
 30
0.0
 42
0.4142135623730951
  0
VERTEX
  5
352
  8
LAYER_1
 10
48.74065370778044
 20
2.466265810895422
 30
0.0
 42
0.4142135623730951
  0
VERTEX
  5
353
  8
LAYER_1
 10
48.86615370778043
 20
2.591765810895424
 30
0.0
 42
0.4142135623730951
  0
SEQEND
  5
6DC
  8
LAYER_1
  0
POLYLINE
  5
99
  8
LAYER_1
 66
     1
 10
0.0
 20
0.0
 30
0.0
 70
     1
  0
VERTEX
  5
354
  8
LAYER_1
 10
37.45935370778045
 20
26.71726581089542
 30
0.0
 42
0.4142135623730951
  0
VERTEX
  5
355
  8
LAYER_1
 10
37.33385370778043
 20
26.59176581089542
 30
0.0
 42
0.4142135623730951
  0
VERTEX
  5
356
  8
LAYER_1
 10
37.45935370778045
 20
26.46626581089543
 30
0.0
 42
0.4142135623730951
  0
VERTEX
  5
357
  8
LAYER_1
 10
37.58485370778044
 20
26.59176581089542
 30
0.0
 42
0.4142135623730951
  0
SEQEND
  5
6DD
  8
LAYER_1
  0
POLYLINE
  5
9A
  8
LAYER_1
 66
     1
 10
0.0
 20
0.0
 30
0.0
 70
     1
  0
VERTEX
  5
358
  8
LAYER_1
 10
36.86565370778044
 20
30.09226581089542
 30
0.0
 42
0.4142135623730951
  0
VERTEX
  5
359
  8
LAYER_1
 10
36.74015370778045
 20
29.96676581089542
 30
0.0
 42
0.4142135623730951
  0
VERTEX
  5
35A
  8
LAYER_1
 10
36.86565370778044
 20
29.84126581089543
 30
0.0
 42
0.4142135623730951
  0
VERTEX
  5
35B
  8
LAYER_1
 10
36.99115370778043
 20
29.96676581089542
 30
0.0
 42
0.4142135623730951
  0
SEQEND
  5
6DE
  8
LAYER_1
  0
POLYLINE
  5
9B
  8
LAYER_1
 66
     1
 10
0.0
 20
0.0
 30
0.0
 70
     1
  0
VERTEX
  5
35C
  8
LAYER_1
 10
67.26409022137446
 20
16.73656847143608
 30
0.0
  0
VERTEX
  5
35D
  8
LAYER_1
 10
67.27529238422558
 20
16.7586087055664
 30
0.0
  0
VERTEX
  5
35E
  8
LAYER_1
 10
67.28615403031385
 20
16.78089033423858
 30
0.0
  0
VERTEX
  5
35F
  8
LAYER_1
 10
67.29666371546226
 20
16.80340034901606
 30
0.0
  0
VERTEX
  5
360
  8
LAYER_1
 10
67.30680999549378
 20
16.82612574146225
 30
0.0
  0
VERTEX
  5
361
  8
LAYER_1
 10
67.31658142623141
 20
16.84905350314056
 30
0.0
  0
VERTEX
  5
362
  8
LAYER_1
 10
67.3259665634981
 20
16.87217062561444
 30
0.0
  0
VERTEX
  5
363
  8
LAYER_1
 10
67.33495396311687
 20
16.89546410044728
 30
0.0
  0
VERTEX
  5
364
  8
LAYER_1
 10
67.34353218091064
 20
16.91892091920253
 30
0.0
  0
VERTEX
  5
365
  8
LAYER_1
 10
67.35168977270241
 20
16.94252807344359
 30
0.0
  0
VERTEX
  5
366
  8
LAYER_1
 10
67.35941529431517
 20
16.96627255473389
 30
0.0
  0
VERTEX
  5
367
  8
LAYER_1
 10
67.36669730157189
 20
16.99014135463685
 30
0.0
  0
VERTEX
  5
368
  8
LAYER_1
 10
67.37352435029555
 20
17.01412146471589
 30
0.0
  0
VERTEX
  5
369
  8
LAYER_1
 10
67.37988499630913
 20
17.03819987653443
 30
0.0
  0
VERTEX
  5
36A
  8
LAYER_1
 10
67.3857677954356
 20
17.0623635816559
 30
0.0
  0
VERTEX
  5
36B
  8
LAYER_1
 10
67.39116130349794
 20
17.08659957164371
 30
0.0
  0
VERTEX
  5
36C
  8
LAYER_1
 10
67.39605407631912
 20
17.11089483806129
 30
0.0
  0
VERTEX
  5
36D
  8
LAYER_1
 10
67.40043466972213
 20
17.13523637247205
 30
0.0
  0
VERTEX
  5
36E
  8
LAYER_1
 10
67.40429163952993
 20
17.15961116643943
 30
0.0
  0
VERTEX
  5
36F
  8
LAYER_1
 10
67.40761354156552
 20
17.18400621152684
 30
0.0
  0
VERTEX
  5
370
  8
LAYER_1
 10
67.41038893165188
 20
17.20840849929769
 30
0.0
  0
VERTEX
  5
371
  8
LAYER_1
 10
67.41260636561195
 20
17.23280502131542
 30
0.0
  0
VERTEX
  5
372
  8
LAYER_1
 10
67.41425439926874
 20
17.25718276914344
 30
0.0
  0
VERTEX
  5
373
  8
LAYER_1
 10
67.41532158844522
 20
17.28152873434518
 30
0.0
  0
VERTEX
  5
374
  8
LAYER_1
 10
67.41579648896438
 20
17.30582990848406
 30
0.0
  0
VERTEX
  5
375
  8
LAYER_1
 10
67.41566765664916
 20
17.33007328312349
 30
0.0
  0
VERTEX
  5
376
  8
LAYER_1
 10
67.41492364732258
 20
17.3542458498269
 30
0.0
  0
VERTEX
  5
377
  8
LAYER_1
 10
67.41355301680758
 20
17.37833460015771
 30
0.0
  0
VERTEX
  5
378
  8
LAYER_1
 10
67.41154432092718
 20
17.40232652567935
 30
0.0
  0
VERTEX
  5
379
  8
LAYER_1
 10
67.40888611550432
 20
17.42620861795523
 30
0.0
  0
VERTEX
  5
37A
  8
LAYER_1
 10
67.405566956362
 20
17.44996786854877
 30
0.0
  0
VERTEX
  5
37B
  8
LAYER_1
 10
67.40157539932318
 20
17.4735912690234
 30
0.0
  0
VERTEX
  5
37C
  8
LAYER_1
 10
67.39690000021085
 20
17.49706581094253
 30
0.0
  0
VERTEX
  5
37D
  8
LAYER_1
 10
66.11569999959306
 20
23.46676581076188
 30
0.0
  0
VERTEX
  5
37E
  8
LAYER_1
 10
66.10908774385548
 20
23.49560582250665
 30
0.0
  0
VERTEX
  5
37F
  8
LAYER_1
 10
66.10142782181168
 20
23.52515587200138
 30
0.0
  0
VERTEX
  5
380
  8
LAYER_1
 10
66.09268722640597
 20
23.55522105796423
 30
0.0
  0
VERTEX
  5
381
  8
LAYER_1
 10
66.08283295058263
 20
23.58560647911334
 30
0.0
  0
VERTEX
  5
382
  8
LAYER_1
 10
66.07183198728596
 20
23.6161172341669
 30
0.0
  0
VERTEX
  5
383
  8
LAYER_1
 10
66.05965132946025
 20
23.64655842184306
 30
0.0
  0
VERTEX
  5
384
  8
LAYER_1
 10
66.05310830039409
 20
23.66169202126404
 30
0.0
  0
VERTEX
  5
385
  8
LAYER_1
 10
66.0462579700498
 20
23.67673514085998
 30
0.0
  0
VERTEX
  5
386
  8
LAYER_1
 10
66.03909621254539
 20
23.69166341797066
 30
0.0
  0
VERTEX
  5
387
  8
LAYER_1
 10
66.03161890199891
 20
23.70645248993584
 30
0.0
  0
VERTEX
  5
388
  8
LAYER_1
 10
66.0238219125284
 20
23.72107799409529
 30
0.0
  0
VERTEX
  5
389
  8
LAYER_1
 10
66.01570111825188
 20
23.73551556778879
 30
0.0
  0
VERTEX
  5
38A
  8
LAYER_1
 10
66.0072523932874
 20
23.7497408483561
 30
0.0
  0
VERTEX
  5
38B
  8
LAYER_1
 10
65.998471611753
 20
23.76372947313699
 30
0.0
  0
VERTEX
  5
38C
  8
LAYER_1
 10
65.9893546477667
 20
23.77745707947124
 30
0.0
  0
VERTEX
  5
38D
  8
LAYER_1
 10
65.97989737544657
 20
23.79089930469862
 30
0.0
  0
VERTEX
  5
38E
  8
LAYER_1
 10
65.9700956689106
 20
23.80403178615889
 30
0.0
  0
VERTEX
  5
38F
  8
LAYER_1
 10
65.95994540227687
 20
23.81683016119183
 30
0.0
  0
VERTEX
  5
390
  8
LAYER_1
 10
65.94944244966338
 20
23.8292700671372
 30
0.0
  0
VERTEX
  5
391
  8
LAYER_1
 10
65.93858268518821
 20
23.84132714133479
 30
0.0
  0
VERTEX
  5
392
  8
LAYER_1
 10
65.92736198296936
 20
23.85297702112435
 30
0.0
  0
VERTEX
  5
393
  8
LAYER_1
 10
65.91577621712486
 20
23.86419534384565
 30
0.0
  0
VERTEX
  5
394
  8
LAYER_1
 10
65.90382126177278
 20
23.87495774683848
 30
0.0
  0
VERTEX
  5
395
  8
LAYER_1
 10
65.89149299103116
 20
23.8852398674426
 30
0.0
  0
VERTEX
  5
396
  8
LAYER_1
 10
65.878787279018
 20
23.89501734299778
 30
0.0
  0
VERTEX
  5
397
  8
LAYER_1
 10
65.86569999985136
 20
23.90426581084379
 30
0.0
  0
VERTEX
  5
398
  8
LAYER_1
 10
65.84904226729716
 20
23.91503953332463
 30
0.0
  0
VERTEX
  5
399
  8
LAYER_1
 10
65.83192528626861
 20
23.92517768779193
 30
0.0
  0
VERTEX
  5
39A
  8
LAYER_1
 10
65.81437644279097
 20
23.93469952477296
 30
0.0
  0
VERTEX
  5
39B
  8
LAYER_1
 10
65.79642312288948
 20
23.94362429479504
 30
0.0
  0
VERTEX
  5
39C
  8
LAYER_1
 10
65.77809271258936
 20
23.95197124838546
 30
0.0
  0
VERTEX
  5
39D
  8
LAYER_1
 10
65.75941259791587
 20
23.95975963607152
 30
0.0
  0
VERTEX
  5
39E
  8
LAYER_1
 10
65.74041016489426
 20
23.96700870838052
 30
0.0
  0
VERTEX
  5
39F
  8
LAYER_1
 10
65.72111279954977
 20
23.97373771583977
 30
0.0
  0
VERTEX
  5
3A0
  8
LAYER_1
 10
65.70154788790765
 20
23.97996590897655
 30
0.0
  0
VERTEX
  5
3A1
  8
LAYER_1
 10
65.68174281599313
 20
23.98571253831818
 30
0.0
  0
VERTEX
  5
3A2
  8
LAYER_1
 10
65.66172496983148
 20
23.99099685439195
 30
0.0
  0
VERTEX
  5
3A3
  8
LAYER_1
 10
65.64152173544791
 20
23.99583810772516
 30
0.0
  0
VERTEX
  5
3A4
  8
LAYER_1
 10
65.62116049886768
 20
24.00025554884512
 30
0.0
  0
VERTEX
  5
3A5
  8
LAYER_1
 10
65.60066864611606
 20
24.00426842827911
 30
0.0
  0
VERTEX
  5
3A6
  8
LAYER_1
 10
65.58007356321826
 20
24.00789599655445
 30
0.0
  0
VERTEX
  5
3A7
  8
LAYER_1
 10
65.55940263619955
 20
24.01115750419842
 30
0.0
  0
VERTEX
  5
3A8
  8
LAYER_1
 10
65.53868325108513
 20
24.01407220173834
 30
0.0
  0
VERTEX
  5
3A9
  8
LAYER_1
 10
65.5179427939003
 20
24.01665933970149
 30
0.0
  0
VERTEX
  5
3AA
  8
LAYER_1
 10
65.47650820742032
 20
24.02092793900673
 30
0.0
  0
VERTEX
  5
3AB
  8
LAYER_1
 10
65.43531796496154
 20
24.02411730633252
 30
0.0
  0
VERTEX
  5
3AC
  8
LAYER_1
 10
65.39459115472593
 20
24.02638144589728
 30
0.0
  0
VERTEX
  5
3AD
  8
LAYER_1
 10
65.3545468649154
 20
24.02787436191939
 30
0.0
  0
VERTEX
  5
3AE
  8
LAYER_1
 10
65.31540418373197
 20
24.02875005861726
 30
0.0
  0
VERTEX
  5
3AF
  8
LAYER_1
 10
65.24070000005412
 20
24.02926581091387
 30
0.0
  0
VERTEX
  5
3B0
  8
LAYER_1
 10
57.95940000022205
 20
24.0292658109805
 30
0.0
  0
VERTEX
  5
3B1
  8
LAYER_1
 10
57.93519847796469
 20
24.02876905714724
 30
0.0
  0
VERTEX
  5
3B2
  8
LAYER_1
 10
57.91095163222194
 20
24.02728105500265
 30
0.0
  0
VERTEX
  5
3B3
  8
LAYER_1
 10
57.88669100437683
 20
24.0248051935802
 30
0.0
  0
VERTEX
  5
3B4
  8
LAYER_1
 10
57.8624481358124
 20
24.02134486191335
 30
0.0
  0
VERTEX
  5
3B5
  8
LAYER_1
 10
57.83825456791168
 20
24.01690344903557
 30
0.0
  0
VERTEX
  5
3B6
  8
LAYER_1
 10
57.81414184205769
 20
24.01148434398033
 30
0.0
  0
VERTEX
  5
3B7
  8
LAYER_1
 10
57.79014149963348
 20
24.00509093578108
 30
0.0
  0
VERTEX
  5
3B8
  8
LAYER_1
 10
57.76628508202207
 20
23.9977266134713
 30
0.0
  0
VERTEX
  5
3B9
  8
LAYER_1
 10
57.74260413060649
 20
23.98939476608445
 30
0.0
  0
VERTEX
  5
3BA
  8
LAYER_1
 10
57.71913018676977
 20
23.980098782654
 30
0.0
  0
VERTEX
  5
3BB
  8
LAYER_1
 10
57.69589479189496
 20
23.96984205221341
 30
0.0
  0
VERTEX
  5
3BC
  8
LAYER_1
 10
57.67292948736507
 20
23.95862796379614
 30
0.0
  0
VERTEX
  5
3BD
  8
LAYER_1
 10
57.65026581456313
 20
23.94645990643566
 30
0.0
  0
VERTEX
  5
3BE
  8
LAYER_1
 10
57.62793531487219
 20
23.93334126916545
 30
0.0
  0
VERTEX
  5
3BF
  8
LAYER_1
 10
57.60596952967527
 20
23.91927544101895
 30
0.0
  0
VERTEX
  5
3C0
  8
LAYER_1
 10
57.5844000003554
 20
23.90426581102964
 30
0.0
  0
VERTEX
  5
3C1
  8
LAYER_1
 10
57.57245751569562
 20
23.89542149412907
 30
0.0
  0
VERTEX
  5
3C2
  8
LAYER_1
 10
57.56065777172644
 20
23.88630491999384
 30
0.0
  0
VERTEX
  5
3C3
  8
LAYER_1
 10
57.53751164408894
 20
23.86729306828484
 30
0.0
  0
VERTEX
  5
3C4
  8
LAYER_1
 10
57.51501189390105
 20
23.8473063924336
 30
0.0
  0
VERTEX
  5
3C5
  8
LAYER_1
 10
57.49320879762096
 20
23.82642102897109
 30
0.0
  0
VERTEX
  5
3C6
  8
LAYER_1
 10
57.47215263170684
 20
23.80471311442825
 30
0.0
  0
VERTEX
  5
3C7
  8
LAYER_1
 10
57.45189367261686
 20
23.78225878533604
 30
0.0
  0
VERTEX
  5
3C8
  8
LAYER_1
 10
57.4324821968092
 20
23.75913417822542
 30
0.0
  0
VERTEX
  5
3C9
  8
LAYER_1
 10
57.41396848074204
 20
23.73541542962734
 30
0.0
  0
VERTEX
  5
3CA
  8
LAYER_1
 10
57.39640280087355
 20
23.71117867607276
 30
0.0
  0
VERTEX
  5
3CB
  8
LAYER_1
 10
57.37983543366188
 20
23.68650005409263
 30
0.0
  0
VERTEX
  5
3CC
  8
LAYER_1
 10
57.36431665556523
 20
23.66145570021792
 30
0.0
  0
VERTEX
  5
3CD
  8
LAYER_1
 10
57.34989674304175
 20
23.63612175097957
 30
0.0
  0
VERTEX
  5
3CE
  8
LAYER_1
 10
57.33662597254964
 20
23.61057434290855
 30
0.0
  0
VERTEX
  5
3CF
  8
LAYER_1
 10
57.32455462054705
 20
23.5848896125358
 30
0.0
  0
VERTEX
  5
3D0
  8
LAYER_1
 10
57.31373296349217
 20
23.55914369639229
 30
0.0
  0
VERTEX
  5
3D1
  8
LAYER_1
 10
57.3088064819633
 20
23.54627158632242
 30
0.0
  0
VERTEX
  5
3D2
  8
LAYER_1
 10
57.30421127784317
 20
23.53341273100897
 30
0.0
  0
VERTEX
  5
3D3
  8
LAYER_1
 10
57.29443794617671
 20
23.50504933931937
 30
0.0
  0
VERTEX
  5
3D4
  8
LAYER_1
 10
57.28629414165327
 20
23.48059178492269
 30
0.0
  0
VERTEX
  5
3D5
  8
LAYER_1
 10
57.27815704955113
 20
23.45492566623084
 30
0.0
  0
VERTEX
  5
3D6
  8
LAYER_1
 10
57.26136075465087
 20
23.4009047724378
 30
0.0
  0
VERTEX
  5
3D7
  8
LAYER_1
 10
57.25243042787283
 20
23.37301851557471
 30
0.0
  0
VERTEX
  5
3D8
  8
LAYER_1
 10
57.24296456555624
 20
23.34486073089262
 30
0.0
  0
VERTEX
  5
3D9
  8
LAYER_1
 10
57.23282760571114
 20
23.31666567751059
 30
0.0
  0
VERTEX
  5
3DA
  8
LAYER_1
 10
57.22188398634756
 20
23.28866761454766
 30
0.0
  0
VERTEX
  5
3DB
  8
LAYER_1
 10
57.20999814547555
 20
23.26110080112288
 30
0.0
  0
VERTEX
  5
3DC
  8
LAYER_1
 10
57.20365952885201
 20
23.247552318962
 30
0.0
  0
VERTEX
  5
3DD
  8
LAYER_1
 10
57.19703452110514
 20
23.23419949635529
 30
0.0
  0
VERTEX
  5
3DE
  8
LAYER_1
 10
57.19010617698617
 20
23.22107161569265
 30
0.0
  0
VERTEX
  5
3DF
  8
LAYER_1
 10
57.18285755124637
 20
23.20819795936394
 30
0.0
  0
VERTEX
  5
3E0
  8
LAYER_1
 10
57.17527169863698
 20
23.19560780975905
 30
0.0
  0
VERTEX
  5
3E1
  8
LAYER_1
 10
57.16733167390927
 20
23.18333044926787
 30
0.0
  0
VERTEX
  5
3E2
  8
LAYER_1
 10
57.15902053181449
 20
23.17139516028027
 30
0.0
  0
VERTEX
  5
3E3
  8
LAYER_1
 10
57.1503213271039
 20
23.15983122518613
 30
0.0
  0
VERTEX
  5
3E4
  8
LAYER_1
 10
57.14121711452874
 20
23.14866792637534
 30
0.0
  0
VERTEX
  5
3E5
  8
LAYER_1
 10
57.13169094884028
 20
23.13793454623777
 30
0.0
  0
VERTEX
  5
3E6
  8
LAYER_1
 10
57.12172588478977
 20
23.12766036716331
 30
0.0
  0
VERTEX
  5
3E7
  8
LAYER_1
 10
57.11130497712846
 20
23.11787467154184
 30
0.0
  0
VERTEX
  5
3E8
  8
LAYER_1
 10
57.1004112806076
 20
23.10860674176323
 30
0.0
  0
VERTEX
  5
3E9
  8
LAYER_1
 10
57.08902784997846
 20
23.09988586021737
 30
0.0
  0
VERTEX
  5
3EA
  8
LAYER_1
 10
57.0717617946912
 20
23.08798232294126
 30
0.0
  0
VERTEX
  5
3EB
  8
LAYER_1
 10
57.05387017882833
 20
23.0768343116401
 30
0.0
  0
VERTEX
  5
3EC
  8
LAYER_1
 10
57.03539372093122
 20
23.06642883281792
 30
0.0
  0
VERTEX
  5
3ED
  8
LAYER_1
 10
57.0163731395412
 20
23.05675289297878
 30
0.0
  0
VERTEX
  5
3EE
  8
LAYER_1
 10
56.99684915319961
 20
23.04779349862672
 30
0.0
  0
VERTEX
  5
3EF
  8
LAYER_1
 10
56.97686248044781
 20
23.0395376562658
 30
0.0
  0
VERTEX
  5
3F0
  8
LAYER_1
 10
56.95645383982712
 20
23.03197237240005
 30
0.0
  0
VERTEX
  5
3F1
  8
LAYER_1
 10
56.93566394987889
 20
23.02508465353352
 30
0.0
  0
VERTEX
  5
3F2
  8
LAYER_1
 10
56.91453352914447
 20
23.01886150617026
 30
0.0
  0
VERTEX
  5
3F3
  8
LAYER_1
 10
56.89310329616519
 20
23.01328993681431
 30
0.0
  0
VERTEX
  5
3F4
  8
LAYER_1
 10
56.8714139694824
 20
23.00835695196973
 30
0.0
  0
VERTEX
  5
3F5
  8
LAYER_1
 10
56.84950626763745
 20
23.00404955814056
 30
0.0
  0
VERTEX
  5
3F6
  8
LAYER_1
 10
56.82742090917166
 20
23.00035476183084
 30
0.0
  0
VERTEX
  5
3F7
  8
LAYER_1
 10
56.8051986126264
 20
22.99725956954462
 30
0.0
  0
VERTEX
  5
3F8
  8
LAYER_1
 10
56.78288009654299
 20
22.99475098778596
 30
0.0
  0
VERTEX
  5
3F9
  8
LAYER_1
 10
56.76050607946277
 20
22.99281602305889
 30
0.0
  0
VERTEX
  5
3FA
  8
LAYER_1
 10
56.7381172799271
 20
22.99144168186746
 30
0.0
  0
VERTEX
  5
3FB
  8
LAYER_1
 10
56.71575441647731
 20
22.99061497071572
 30
0.0
  0
VERTEX
  5
3FC
  8
LAYER_1
 10
56.69345820765475
 20
22.99032289610771
 30
0.0
  0
VERTEX
  5
3FD
  8
LAYER_1
 10
56.67126937200076
 20
22.99055246454749
 30
0.0
  0
VERTEX
  5
3FE
  8
LAYER_1
 10
56.64922862805668
 20
22.9912906825391
 30
0.0
  0
VERTEX
  5
3FF
  8
LAYER_1
 10
56.62737669436385
 20
22.99252455658658
 30
0.0
  0
VERTEX
  5
400
  8
LAYER_1
 10
56.60575428946362
 20
22.99424109319399
 30
0.0
  0
VERTEX
  5
401
  8
LAYER_1
 10
56.58440213189733
 20
22.99642729886536
 30
0.0
  0
VERTEX
  5
402
  8
LAYER_1
 10
56.56336094020632
 20
22.99907018010475
 30
0.0
  0
VERTEX
  5
403
  8
LAYER_1
 10
56.54267143293193
 20
23.0021567434162
 30
0.0
  0
VERTEX
  5
404
  8
LAYER_1
 10
56.52237432861551
 20
23.00567399530377
 30
0.0
  0
VERTEX
  5
405
  8
LAYER_1
 10
56.50251034579838
 20
23.00960894227148
 30
0.0
  0
VERTEX
  5
406
  8
LAYER_1
 10
56.48312020302191
 20
23.0139485908234
 30
0.0
  0
VERTEX
  5
407
  8
LAYER_1
 10
56.46424461882744
 20
23.01867994746356
 30
0.0
  0
VERTEX
  5
408
  8
LAYER_1
 10
56.44592431175629
 20
23.02379001869603
 30
0.0
  0
VERTEX
  5
409
  8
LAYER_1
 10
56.42820000034982
 20
23.02926581102483
 30
0.0
  0
VERTEX
  5
40A
  8
LAYER_1
 10
39.49069999981756
 20
28.52926581077272
 30
0.0
  0
VERTEX
  5
40B
  8
LAYER_1
 10
39.4552592360339
 20
28.54119343887157
 30
0.0
  0
VERTEX
  5
40C
  8
LAYER_1
 10
39.41976644287698
 20
28.5540103618078
 30
0.0
  0
VERTEX
  5
40D
  8
LAYER_1
 10
39.38429661274917
 20
28.56774326274201
 30
0.0
  0
VERTEX
  5
40E
  8
LAYER_1
 10
39.34892473805287
 20
28.58241882483477
 30
0.0
  0
VERTEX
  5
40F
  8
LAYER_1
 10
39.31372581119044
 20
28.59806373124668
 30
0.0
  0
VERTEX
  5
410
  8
LAYER_1
 10
39.27877482456427
 20
28.61470466513834
 30
0.0
  0
VERTEX
  5
411
  8
LAYER_1
 10
39.24414677057673
 20
28.63236830967033
 30
0.0
  0
VERTEX
  5
412
  8
LAYER_1
 10
39.20991664163021
 20
28.65108134800323
 30
0.0
  0
VERTEX
  5
413
  8
LAYER_1
 10
39.19297423417307
 20
28.66083972833271
 30
0.0
  0
VERTEX
  5
414
  8
LAYER_1
 10
39.17615943012707
 20
28.67087046329765
 30
0.0
  0
VERTEX
  5
415
  8
LAYER_1
 10
39.15948160354251
 20
28.68117688829311
 30
0.0
  0
VERTEX
  5
416
  8
LAYER_1
 10
39.14295012846969
 20
28.69176233871417
 30
0.0
  0
VERTEX
  5
417
  8
LAYER_1
 10
39.12657437895891
 20
28.7026301499559
 30
0.0
  0
VERTEX
  5
418
  8
LAYER_1
 10
39.11036372906045
 20
28.71378365741337
 30
0.0
  0
VERTEX
  5
419
  8
LAYER_1
 10
39.09432755282464
 20
28.72522619648167
 30
0.0
  0
VERTEX
  5
41A
  8
LAYER_1
 10
39.07847522430174
 20
28.73696110255586
 30
0.0
  0
VERTEX
  5
41B
  8
LAYER_1
 10
39.06281611754207
 20
28.74899171103102
 30
0.0
  0
VERTEX
  5
41C
  8
LAYER_1
 10
39.04735960659592
 20
28.76132135730222
 30
0.0
  0
VERTEX
  5
41D
  8
LAYER_1
 10
39.03211506551358
 20
28.77395337676453
 30
0.0
  0
VERTEX
  5
41E
  8
LAYER_1
 10
39.01709186834537
 20
28.78689110481303
 30
0.0
  0
VERTEX
  5
41F
  8
LAYER_1
 10
39.00229938914157
 20
28.8001378768428
 30
0.0
  0
VERTEX
  5
420
  8
LAYER_1
 10
38.98774700195247
 20
28.8136970282489
 30
0.0
  0
VERTEX
  5
421
  8
LAYER_1
 10
38.97344408082839
 20
28.82757189442641
 30
0.0
  0
VERTEX
  5
422
  8
LAYER_1
 10
38.9593999998196
 20
28.8417658107704
 30
0.0
  0
VERTEX
  5
423
  8
LAYER_1
 10
38.94400175144917
 20
28.85800350672262
 30
0.0
  0
VERTEX
  5
424
  8
LAYER_1
 10
38.92892757356528
 20
28.8745980639465
 30
0.0
  0
VERTEX
  5
425
  8
LAYER_1
 10
38.9141813986249
 20
28.89153504505069
 30
0.0
  0
VERTEX
  5
426
  8
LAYER_1
 10
38.89976715908507
 20
28.90880001264384
 30
0.0
  0
VERTEX
  5
427
  8
LAYER_1
 10
38.88568878740274
 20
28.9263785293346
 30
0.0
  0
VERTEX
  5
428
  8
LAYER_1
 10
38.87195021603491
 20
28.9442561577316
 30
0.0
  0
VERTEX
  5
429
  8
LAYER_1
 10
38.85855537743858
 20
28.96241846044351
 30
0.0
  0
VERTEX
  5
42A
  8
LAYER_1
 10
38.84550820407074
 20
28.98085100007896
 30
0.0
  0
VERTEX
  5
42B
  8
LAYER_1
 10
38.83281262838839
 20
28.99953933924661
 30
0.0
  0
VERTEX
  5
42C
  8
LAYER_1
 10
38.82047258284851
 20
29.01846904055509
 30
0.0
  0
VERTEX
  5
42D
  8
LAYER_1
 10
38.8084919999081
 20
29.03762566661306
 30
0.0
  0
VERTEX
  5
42E
  8
LAYER_1
 10
38.79687481202414
 20
29.05699478002916
 30
0.0
  0
VERTEX
  5
42F
  8
LAYER_1
 10
38.78562495165365
 20
29.07656194341205
 30
0.0
  0
VERTEX
  5
430
  8
LAYER_1
 10
38.77474635125358
 20
29.09631271937036
 30
0.0
  0
VERTEX
  5
431
  8
LAYER_1
 10
38.76424294328096
 20
29.11623267051274
 30
0.0
  0
VERTEX
  5
432
  8
LAYER_1
 10
38.75411866019277
 20
29.13630735944785
 30
0.0
  0
VERTEX
  5
433
  8
LAYER_1
 10
38.74437743444601
 20
29.15652234878432
 30
0.0
  0
VERTEX
  5
434
  8
LAYER_1
 10
38.73502319849765
 20
29.17686320113081
 30
0.0
  0
VERTEX
  5
435
  8
LAYER_1
 10
38.72605988480471
 20
29.19731547909595
 30
0.0
  0
VERTEX
  5
436
  8
LAYER_1
 10
38.71749142582416
 20
29.2178647452884
 30
0.0
  0
VERTEX
  5
437
  8
LAYER_1
 10
38.709321754013
 20
29.23849656231681
 30
0.0
  0
VERTEX
  5
438
  8
LAYER_1
 10
38.70155480182822
 20
29.25919649278982
 30
0.0
  0
VERTEX
  5
439
  8
LAYER_1
 10
38.69419450172683
 20
29.27995009931608
 30
0.0
  0
VERTEX
  5
43A
  8
LAYER_1
 10
38.68724478616581
 20
29.30074294450424
 30
0.0
  0
VERTEX
  5
43B
  8
LAYER_1
 10
38.68070958760214
 20
29.32156059096293
 30
0.0
  0
VERTEX
  5
43C
  8
LAYER_1
 10
38.67459283849282
 20
29.34238860130081
 30
0.0
  0
VERTEX
  5
43D
  8
LAYER_1
 10
38.66889847129486
 20
29.36321253812653
 30
0.0
  0
VERTEX
  5
43E
  8
LAYER_1
 10
38.66363041846523
 20
29.38401796404873
 30
0.0
  0
VERTEX
  5
43F
  8
LAYER_1
 10
38.65879261246093
 20
29.40479044167606
 30
0.0
  0
VERTEX
  5
440
  8
LAYER_1
 10
38.65438898573895
 20
29.42551553361717
 30
0.0
  0
VERTEX
  5
441
  8
LAYER_1
 10
38.65042347075629
 20
29.44617880248069
 30
0.0
  0
VERTEX
  5
442
  8
LAYER_1
 10
38.64689999996995
 20
29.46676581087529
 30
0.0
  0
VERTEX
  5
443
  8
LAYER_1
 10
38.36570000008817
 20
31.21676581096282
 30
0.0
  0
VERTEX
  5
444
  8
LAYER_1
 10
38.3616509635156
 20
31.23944803486563
 30
0.0
  0
VERTEX
  5
445
  8
LAYER_1
 10
38.35682634986959
 20
31.26198317789584
 30
0.0
  0
VERTEX
  5
446
  8
LAYER_1
 10
38.35124140496717
 20
31.28436451608813
 30
0.0
  0
VERTEX
  5
447
  8
LAYER_1
 10
38.34491137462538
 20
31.30658532547721
 30
0.0
  0
VERTEX
  5
448
  8
LAYER_1
 10
38.33785150466123
 20
31.32863888209776
 30
0.0
  0
VERTEX
  5
449
  8
LAYER_1
 10
38.33007704089177
 20
31.35051846198448
 30
0.0
  0
VERTEX
  5
44A
  8
LAYER_1
 10
38.32160322913401
 20
31.37221734117205
 30
0.0
  0
VERTEX
  5
44B
  8
LAYER_1
 10
38.31244531520498
 20
31.39372879569517
 30
0.0
  0
VERTEX
  5
44C
  8
LAYER_1
 10
38.30261854492173
 20
31.41504610158854
 30
0.0
  0
VERTEX
  5
44D
  8
LAYER_1
 10
38.29213816410127
 20
31.43616253488685
 30
0.0
  0
VERTEX
  5
44E
  8
LAYER_1
 10
38.28101941856065
 20
31.45707137162477
 30
0.0
  0
VERTEX
  5
44F
  8
LAYER_1
 10
38.26927755411688
 20
31.47776588783702
 30
0.0
  0
VERTEX
  5
450
  8
LAYER_1
 10
38.256927816587
 20
31.49823935955828
 30
0.0
  0
VERTEX
  5
451
  8
LAYER_1
 10
38.24398545178803
 20
31.51848506282325
 30
0.0
  0
VERTEX
  5
452
  8
LAYER_1
 10
38.230465705537
 20
31.5384962736666
 30
0.0
  0
VERTEX
  5
453
  8
LAYER_1
 10
38.21638382365096
 20
31.55826626812305
 30
0.0
  0
VERTEX
  5
454
  8
LAYER_1
 10
38.20175505194692
 20
31.57778832222727
 30
0.0
  0
VERTEX
  5
455
  8
LAYER_1
 10
38.18659463624191
 20
31.59705571201397
 30
0.0
  0
VERTEX
  5
456
  8
LAYER_1
 10
38.17091782235296
 20
31.61606171351783
 30
0.0
  0
VERTEX
  5
457
  8
LAYER_1
 10
38.15473985609712
 20
31.63479960277355
 30
0.0
  0
VERTEX
  5
458
  8
LAYER_1
 10
38.1380759832914
 20
31.65326265581581
 30
0.0
  0
VERTEX
  5
459
  8
LAYER_1
 10
38.12094144975283
 20
31.67144414867931
 30
0.0
  0
VERTEX
  5
45A
  8
LAYER_1
 10
38.10335150129845
 20
31.68933735739875
 30
0.0
  0
VERTEX
  5
45B
  8
LAYER_1
 10
38.08532138374527
 20
31.70693555800881
 30
0.0
  0
VERTEX
  5
45C
  8
LAYER_1
 10
38.06686634291034
 20
31.72423202654419
 30
0.0
  0
VERTEX
  5
45D
  8
LAYER_1
 10
38.04800162461069
 20
31.74122003903958
 30
0.0
  0
VERTEX
  5
45E
  8
LAYER_1
 10
38.02874247466333
 20
31.75789287152967
 30
0.0
  0
VERTEX
  5
45F
  8
LAYER_1
 10
38.00910413888531
 20
31.77424380004915
 30
0.0
  0
VERTEX
  5
460
  8
LAYER_1
 10
37.98910186309364
 20
31.79026610063272
 30
0.0
  0
VERTEX
  5
461
  8
LAYER_1
 10
37.96875089310537
 20
31.80595304931506
 30
0.0
  0
VERTEX
  5
462
  8
LAYER_1
 10
37.94806647473751
 20
31.82129792213087
 30
0.0
  0
VERTEX
  5
463
  8
LAYER_1
 10
37.9270638538071
 20
31.83629399511485
 30
0.0
  0
VERTEX
  5
464
  8
LAYER_1
 10
37.90575827613117
 20
31.85093454430168
 30
0.0
  0
VERTEX
  5
465
  8
LAYER_1
 10
37.88416498752676
 20
31.86521284572606
 30
0.0
  0
VERTEX
  5
466
  8
LAYER_1
 10
37.86229923381087
 20
31.87912217542267
 30
0.0
  0
VERTEX
  5
467
  8
LAYER_1
 10
37.84017626080056
 20
31.89265580942622
 30
0.0
  0
VERTEX
  5
468
  8
LAYER_1
 10
37.81781131431285
 20
31.90580702377138
 30
0.0
  0
VERTEX
  5
469
  8
LAYER_1
 10
37.79521964016476
 20
31.91856909449287
 30
0.0
  0
VERTEX
  5
46A
  8
LAYER_1
 10
37.77241648417333
 20
31.93093529762535
 30
0.0
  0
VERTEX
  5
46B
  8
LAYER_1
 10
37.7494170921556
 20
31.94289890920354
 30
0.0
  0
VERTEX
  5
46C
  8
LAYER_1
 10
37.72623670992857
 20
31.95445320526212
 30
0.0
  0
VERTEX
  5
46D
  8
LAYER_1
 10
37.7028905833093
 20
31.96559146183578
 30
0.0
  0
VERTEX
  5
46E
  8
LAYER_1
 10
37.6793939581148
 20
31.97630695495921
 30
0.0
  0
VERTEX
  5
46F
  8
LAYER_1
 10
37.6557620801621
 20
31.98659296066712
 30
0.0
  0
VERTEX
  5
470
  8
LAYER_1
 10
37.63201019526824
 20
31.99644275499419
 30
0.0
  0
VERTEX
  5
471
  8
LAYER_1
 10
37.60815354925025
 20
32.0058496139751
 30
0.0
  0
VERTEX
  5
472
  8
LAYER_1
 10
37.58420738792515
 20
32.01480681364456
 30
0.0
  0
VERTEX
  5
473
  8
LAYER_1
 10
37.56018695710996
 20
32.02330763003726
 30
0.0
  0
VERTEX
  5
474
  8
LAYER_1
 10
37.53610750262173
 20
32.03134533918789
 30
0.0
  0
VERTEX
  5
475
  8
LAYER_1
 10
37.51198427027749
 20
32.03891321713112
 30
0.0
  0
VERTEX
  5
476
  8
LAYER_1
 10
37.48783250589426
 20
32.04600453990169
 30
0.0
  0
VERTEX
  5
477
  8
LAYER_1
 10
37.46366745528908
 20
32.05261258353426
 30
0.0
  0
VERTEX
  5
478
  8
LAYER_1
 10
37.43950436427896
 20
32.05873062406351
 30
0.0
  0
VERTEX
  5
479
  8
LAYER_1
 10
37.41535847868096
 20
32.06435193752416
 30
0.0
  0
VERTEX
  5
47A
  8
LAYER_1
 10
37.39124504431207
 20
32.06946979995089
 30
0.0
  0
VERTEX
  5
47B
  8
LAYER_1
 10
37.36717930698936
 20
32.0740774873784
 30
0.0
  0
VERTEX
  5
47C
  8
LAYER_1
 10
37.34317651252982
 20
32.07816827584136
 30
0.0
  0
VERTEX
  5
47D
  8
LAYER_1
 10
37.31925190675052
 20
32.08173544137449
 30
0.0
  0
VERTEX
  5
47E
  8
LAYER_1
 10
37.29542073546846
 20
32.08477226001247
 30
0.0
  0
VERTEX
  5
47F
  8
LAYER_1
 10
37.27169824450068
 20
32.08727200778999
 30
0.0
  0
VERTEX
  5
480
  8
LAYER_1
 10
37.24809967966421
 20
32.08922796074174
 30
0.0
  0
VERTEX
  5
481
  8
LAYER_1
 10
37.22464028677608
 20
32.09063339490242
 30
0.0
  0
VERTEX
  5
482
  8
LAYER_1
 10
37.20133531165332
 20
32.09148158630671
 30
0.0
  0
VERTEX
  5
483
  8
LAYER_1
 10
37.17820000011295
 20
32.09176581098932
 30
0.0
  0
VERTEX
  5
484
  8
LAYER_1
 10
31.74070000009806
 20
32.09176581098787
 30
0.0
  0
VERTEX
  5
485
  8
LAYER_1
 10
31.71238013192655
 20
32.09121388101016
 30
0.0
  0
VERTEX
  5
486
  8
LAYER_1
 10
31.68426222779045
 20
32.08959213812649
 30
0.0
  0
VERTEX
  5
487
  8
LAYER_1
 10
31.65632864250458
 20
32.08695165291107
 30
0.0
  0
VERTEX
  5
488
  8
LAYER_1
 10
31.62856173088372
 20
32.08334349593807
 30
0.0
  0
VERTEX
  5
489
  8
LAYER_1
 10
31.60094384774271
 20
32.07881873778169
 30
0.0
  0
VERTEX
  5
48A
  8
LAYER_1
 10
31.57345734789633
 20
32.07342844901609
 30
0.0
  0
VERTEX
  5
48B
  8
LAYER_1
 10
31.54608458615942
 20
32.06722370021548
 30
0.0
  0
VERTEX
  5
48C
  8
LAYER_1
 10
31.51880791734676
 20
32.06025556195404
 30
0.0
  0
VERTEX
  5
48D
  8
LAYER_1
 10
31.49160969627316
 20
32.05257510480597
 30
0.0
  0
VERTEX
  5
48E
  8
LAYER_1
 10
31.46447227775345
 20
32.04423339934542
 30
0.0
  0
VERTEX
  5
48F
  8
LAYER_1
 10
31.43737801660242
 20
32.0352815161466
 30
0.0
  0
VERTEX
  5
490
  8
LAYER_1
 10
31.41030926763488
 20
32.02577052578371
 30
0.0
  0
VERTEX
  5
491
  8
LAYER_1
 10
31.38324838566564
 20
32.01575149883091
 30
0.0
  0
VERTEX
  5
492
  8
LAYER_1
 10
31.35617772550951
 20
32.0052755058624
 30
0.0
  0
VERTEX
  5
493
  8
LAYER_1
 10
31.30193648989581
 20
31.983156904175
 30
0.0
  0
VERTEX
  5
494
  8
LAYER_1
 10
31.27224337897171
 20
31.97048819489238
 30
0.0
  0
VERTEX
  5
495
  8
LAYER_1
 10
31.24259206287959
 20
31.95737928745229
 30
0.0
  0
VERTEX
  5
496
  8
LAYER_1
 10
31.21304296644991
 20
31.94381077477285
 30
0.0
  0
VERTEX
  5
497
  8
LAYER_1
 10
31.18365651451316
 20
31.92976324977219
 30
0.0
  0
VERTEX
  5
498
  8
LAYER_1
 10
31.1544931318998
 20
31.91521730536842
 30
0.0
  0
VERTEX
  5
499
  8
LAYER_1
 10
31.12561324344031
 20
31.90015353447968
 30
0.0
  0
VERTEX
  5
49A
  8
LAYER_1
 10
31.09707727396515
 20
31.88455253002407
 30
0.0
  0
VERTEX
  5
49B
  8
LAYER_1
 10
31.0689456483048
 20
31.86839488491972
 30
0.0
  0
VERTEX
  5
49C
  8
LAYER_1
 10
31.04127879128973
 20
31.85166119208475
 30
0.0
  0
VERTEX
  5
49D
  8
LAYER_1
 10
31.01413712775042
 20
31.83433204443729
 30
0.0
  0
VERTEX
  5
49E
  8
LAYER_1
 10
30.98758108251733
 20
31.81638803489545
 30
0.0
  0
VERTEX
  5
49F
  8
LAYER_1
 10
30.96167108042093
 20
31.79780975637736
 30
0.0
  0
VERTEX
  5
4A0
  8
LAYER_1
 10
30.93646754629171
 20
31.77857780180113
 30
0.0
  0
VERTEX
  5
4A1
  8
LAYER_1
 10
30.91203090496013
 20
31.7586727640849
 30
0.0
  0
VERTEX
  5
4A2
  8
LAYER_1
 10
30.88842158125666
 20
31.73807523614678
 30
0.0
  0
VERTEX
  5
4A3
  8
LAYER_1
 10
30.86570000001177
 20
31.71676581090489
 30
0.0
  0
VERTEX
  5
4A4
  8
LAYER_1
 10
28.49069999997883
 20
29.40426581087441
 30
0.0
  0
VERTEX
  5
4A5
  8
LAYER_1
 10
28.47093253068082
 20
29.38540245478114
 30
0.0
  0
VERTEX
  5
4A6
  8
LAYER_1
 10
28.45055151314645
 20
29.36672708070251
 30
0.0
  0
VERTEX
  5
4A7
  8
LAYER_1
 10
28.42958356397781
 20
29.34829193123811
 30
0.0
  0
VERTEX
  5
4A8
  8
LAYER_1
 10
28.40805529977697
 20
29.33014924898752
 30
0.0
  0
VERTEX
  5
4A9
  8
LAYER_1
 10
28.385993337146
 20
29.31235127655031
 30
0.0
  0
VERTEX
  5
4AA
  8
LAYER_1
 10
28.36342429268699
 20
29.29495025652609
 30
0.0
  0
VERTEX
  5
4AB
  8
LAYER_1
 10
28.34037478300201
 20
29.27799843151442
 30
0.0
  0
VERTEX
  5
4AC
  8
LAYER_1
 10
28.31687142469314
 20
29.26154804411489
 30
0.0
  0
VERTEX
  5
4AD
  8
LAYER_1
 10
28.29294083436245
 20
29.24565133692708
 30
0.0
  0
VERTEX
  5
4AE
  8
LAYER_1
 10
28.26860962861203
 20
29.23036055255058
 30
0.0
  0
VERTEX
  5
4AF
  8
LAYER_1
 10
28.24390442404395
 20
29.21572793358497
 30
0.0
  0
VERTEX
  5
4B0
  8
LAYER_1
 10
28.21885183726028
 20
29.20180572262982
 30
0.0
  0
VERTEX
  5
4B1
  8
LAYER_1
 10
28.1934784848631
 20
29.18864616228473
 30
0.0
  0
VERTEX
  5
4B2
  8
LAYER_1
 10
28.1678109834545
 20
29.17630149514928
 30
0.0
  0
VERTEX
  5
4B3
  8
LAYER_1
 10
28.14187594963655
 20
29.16482396382305
 30
0.0
  0
VERTEX
  5
4B4
  8
LAYER_1
 10
28.11570000001132
 20
29.15426581090561
 30
0.0
  0
VERTEX
  5
4B5
  8
LAYER_1
 10
28.09098003702175
 20
29.14526226741363
 30
0.0
  0
VERTEX
  5
4B6
  8
LAYER_1
 10
28.06609150936443
 20
29.13711696374281
 30
0.0
  0
VERTEX
  5
4B7
  8
LAYER_1
 10
28.04105128698206
 20
29.12979162831686
 30
0.0
  0
VERTEX
  5
4B8
  8
LAYER_1
 10
28.01587623981733
 20
29.12324798955951
 30
0.0
  0
VERTEX
  5
4B9
  8
LAYER_1
 10
27.99058323781295
 20
29.11744777589446
 30
0.0
  0
VERTEX
  5
4BA
  8
LAYER_1
 10
27.96518915091158
 20
29.11235271574544
 30
0.0
  0
VERTEX
  5
4BB
  8
LAYER_1
 10
27.93971084905595
 20
29.10792453753615
 30
0.0
  0
VERTEX
  5
4BC
  8
LAYER_1
 10
27.91416520218874
 20
29.10412496969032
 30
0.0
  0
VERTEX
  5
4BD
  8
LAYER_1
 10
27.88856908025264
 20
29.10091574063166
 30
0.0
  0
VERTEX
  5
4BE
  8
LAYER_1
 10
27.86293935319035
 20
29.09825857878387
 30
0.0
  0
VERTEX
  5
4BF
  8
LAYER_1
 10
27.83729289094455
 20
29.09611521257069
 30
0.0
  0
VERTEX
  5
4C0
  8
LAYER_1
 10
27.81164656345796
 20
29.09444737041583
 30
0.0
  0
VERTEX
  5
4C1
  8
LAYER_1
 10
27.78601724067326
 20
29.09321678074299
 30
0.0
  0
VERTEX
  5
4C2
  8
LAYER_1
 10
27.76042179253314
 20
29.0923851719759
 30
0.0
  0
VERTEX
  5
4C3
  8
LAYER_1
 10
27.7348770889803
 20
29.09191427253827
 30
0.0
  0
VERTEX
  5
4C4
  8
LAYER_1
 10
27.70939999995744
 20
29.09176581085381
 30
0.0
  0
VERTEX
  5
4C5
  8
LAYER_1
 10
0.3032000000000039
 20
29.09176581089545
 30
0.0
  0
VERTEX
  5
4C6
  8
LAYER_1
 10
0.3032000000000039
 20
2.029265810895424
 30
0.0
  0
VERTEX
  5
4C7
  8
LAYER_1
 10
58.36569999999946
 20
2.029265810895424
 30
0.0
  0
SEQEND
  5
6DF
  8
LAYER_1
  0
POLYLINE
  5
9C
  8
LAYER_1
 66
     1
 10
0.0
 20
0.0
 30
0.0
 70
     1
  0
VERTEX
  5
4C8
  8
LAYER_1
 10
24.67817806855031
 20
2.936006106330957
 30
0.0
 42
0.4142135623730951
  0
VERTEX
  5
4C9
  8
LAYER_1
 10
24.55267806855031
 20
2.810506106330955
 30
0.0
 42
0.4142135623730951
  0
VERTEX
  5
4CA
  8
LAYER_1
 10
24.67817806855031
 20
2.68500610633096
 30
0.0
 42
0.4142135623730951
  0
VERTEX
  5
4CB
  8
LAYER_1
 10
24.80367806855031
 20
2.810506106330955
 30
0.0
 42
0.4142135623730951
  0
SEQEND
  5
6E0
  8
LAYER_1
  0
POLYLINE
  5
9D
  8
LAYER_1
 66
     1
 10
0.0
 20
0.0
 30
0.0
 70
     1
  0
VERTEX
  5
4CC
  8
LAYER_1
 10
26.20937806855031
 20
2.936006106330957
 30
0.0
 42
0.4142135623730951
  0
VERTEX
  5
4CD
  8
LAYER_1
 10
26.08387806855031
 20
2.810506106330955
 30
0.0
 42
0.4142135623730951
  0
VERTEX
  5
4CE
  8
LAYER_1
 10
26.20937806855031
 20
2.68500610633096
 30
0.0
 42
0.4142135623730951
  0
VERTEX
  5
4CF
  8
LAYER_1
 10
26.33487806855031
 20
2.810506106330955
 30
0.0
 42
0.4142135623730951
  0
SEQEND
  5
6E1
  8
LAYER_1
  0
POLYLINE
  5
9E
  8
LAYER_1
 66
     1
 10
0.0
 20
0.0
 30
0.0
 70
     1
  0
VERTEX
  5
4D0
  8
LAYER_1
 10
47.99040262409363
 20
2.935935772982141
 30
0.0
 42
0.4142135623730951
  0
VERTEX
  5
4D1
  8
LAYER_1
 10
47.86490262409362
 20
2.810435772982139
 30
0.0
 42
0.4142135623730951
  0
VERTEX
  5
4D2
  8
LAYER_1
 10
47.99040262409363
 20
2.684935772982143
 30
0.0
 42
0.4142135623730951
  0
VERTEX
  5
4D3
  8
LAYER_1
 10
48.11590262409362
 20
2.810435772982139
 30
0.0
 42
0.4142135623730951
  0
SEQEND
  5
6E2
  8
LAYER_1
  0
POLYLINE
  5
9F
  8
LAYER_1
 66
     1
 10
0.0
 20
0.0
 30
0.0
 70
     1
  0
VERTEX
  5
4D4
  8
LAYER_1
 10
49.52160262409362
 20
2.935935772982141
 30
0.0
 42
0.4142135623730951
  0
VERTEX
  5
4D5
  8
LAYER_1
 10
49.39610262409363
 20
2.810435772982139
 30
0.0
 42
0.4142135623730951
  0
VERTEX
  5
4D6
  8
LAYER_1
 10
49.52160262409362
 20
2.684935772982143
 30
0.0
 42
0.4142135623730951
  0
VERTEX
  5
4D7
  8
LAYER_1
 10
49.64710262409361
 20
2.810435772982139
 30
0.0
 42
0.4142135623730951
  0
SEQEND
  5
6E3
  8
LAYER_1
  0
POLYLINE
  5
A0
  8
LAYER_1
 66
     1
 10
0.0
 20
0.0
 30
0.0
 70
     1
  0
VERTEX
  5
4D8
  8
LAYER_1
 10
22.96594738891783
 20
15.80733987854592
 30
0.0
  0
VERTEX
  5
4D9
  8
LAYER_1
 10
37.88073814233479
 20
24.3744533398918
 30
0.0
  0
VERTEX
  5
4DA
  8
LAYER_1
 10
37.88524650899438
 20
24.37993958201098
 30
0.0
 42
0.2344940734898681
  0
VERTEX
  5
4DB
  8
LAYER_1
 10
37.95935370778045
 20
24.52926581089542
 30
0.0
 42
0.4142135623730951
  0
VERTEX
  5
4DC
  8
LAYER_1
 10
37.77185370778045
 20
24.71676581089542
 30
0.0
 42
0.1242345215880506
  0
VERTEX
  5
4DD
  8
LAYER_1
 10
37.68288347901424
 20
24.69431292051352
 30
0.0
  0
VERTEX
  5
4DE
  8
LAYER_1
 10
37.67706412666388
 20
24.68989071434242
 30
0.0
  0
VERTEX
  5
4DF
  8
LAYER_1
 10
22.75848456474232
 20
16.12061971815967
 30
0.0
 42
0.2453474026574246
  0
VERTEX
  5
4E0
  8
LAYER_1
 10
22.67815370778044
 20
15.96676581089542
 30
0.0
 42
0.4142135623730951
  0
VERTEX
  5
4E1
  8
LAYER_1
 10
22.86565370778044
 20
15.77926581089542
 30
0.0
 42
0.1322587082903171
  0
VERTEX
  5
4E2
  8
LAYER_1
 10
22.95979044786921
 20
15.80460994709316
 30
0.0
  0
SEQEND
  5
6E4
  8
LAYER_1
  0
POLYLINE
  5
A1
  8
LAYER_1
 66
     1
 10
0.0
 20
0.0
 30
0.0
 70
     1
  0
VERTEX
  5
4E3
  8
LAYER_1
 10
55.28204303607038
 20
6.716116371473298
 30
0.0
  0
VERTEX
  5
4E4
  8
LAYER_1
 10
48.04263420754114
 20
6.716765810895424
 30
0.0
  0
VERTEX
  5
4E5
  8
LAYER_1
 10
48.04248350463695
 20
6.716615413490985
 30
0.0
 42
-0.084950032554286
  0
VERTEX
  5
4E6
  8
LAYER_1
 10
48.05315370778044
 20
6.654265810895424
 30
0.0
 42
-0.4142135623730951
  0
VERTEX
  5
4E7
  8
LAYER_1
 10
47.86565370778044
 20
6.466765810895424
 30
0.0
 42
-0.2383184053557163
  0
VERTEX
  5
4E8
  8
LAYER_1
 10
47.71470041426409
 20
6.543048217068872
 30
0.0
  0
VERTEX
  5
4E9
  8
LAYER_1
 10
47.70693743797733
 20
6.554399557228706
 30
0.0
  0
VERTEX
  5
4EA
  8
LAYER_1
 10
46.69950971901989
 20
8.317338110144206
 30
0.0
  0
VERTEX
  5
4EB
  8
LAYER_1
 10
46.69788693080937
 20
8.320536732644527
 30
0.0
 42
-0.1162473049337183
  0
VERTEX
  5
4EC
  8
LAYER_1
 10
46.67815370778044
 20
8.404265810895424
 30
0.0
 42
-0.4142135623730951
  0
VERTEX
  5
4ED
  8
LAYER_1
 10
46.86565370778044
 20
8.591765810895424
 30
0.0
 42
-0.2653563729467726
  0
VERTEX
  5
4EE
  8
LAYER_1
 10
47.02711811145065
 20
8.499583680927365
 30
0.0
  0
VERTEX
  5
4EF
  8
LAYER_1
 10
47.02748884352448
 20
8.498916825059439
 30
0.0
  0
VERTEX
  5
4F0
  8
LAYER_1
 10
47.83154383835753
 20
7.091759499180739
 30
0.0
  0
VERTEX
  5
4F1
  8
LAYER_1
 10
55.30315370778044
 20
7.091765810895424
 30
0.0
 42
-0.4142135623730951
  0
VERTEX
  5
4F2
  8
LAYER_1
 10
55.49065370778044
 20
6.904265810895424
 30
0.0
 42
-0.4142135623730951
  0
VERTEX
  5
4F3
  8
LAYER_1
 10
55.30315370778044
 20
6.716765810895424
 30
0.0
  0
SEQEND
  5
6E5
  8
LAYER_1
  0
POLYLINE
  5
A2
  8
LAYER_1
 66
     1
 10
0.0
 20
0.0
 30
0.0
 70
     1
  0
VERTEX
  5
4F4
  8
LAYER_1
 10
57.70807697095051
 20
2.405887956477315
 30
0.0
  0
VERTEX
  5
4F5
  8
LAYER_1
 10
66.23231331220805
 20
16.91754162031873
 30
0.0
  0
VERTEX
  5
4F6
  8
LAYER_1
 10
66.23336079036557
 20
16.91773937991899
 30
0.0
 42
0.0956423699519571
  0
VERTEX
  5
4F7
  8
LAYER_1
 10
66.30315370778044
 20
16.90426581089542
 30
0.0
 42
0.4142135623730951
  0
VERTEX
  5
4F8
  8
LAYER_1
 10
66.49065370778044
 20
17.09176581089542
 30
0.0
  0
VERTEX
  5
4F9
  8
LAYER_1
 10
66.49019922917792
 20
17.10303312149063
 30
0.0
  0
VERTEX
  5
4FA
  8
LAYER_1
 10
66.48896706125109
 20
17.11426381077291
 30
0.0
  0
VERTEX
  5
4FB
  8
LAYER_1
 10
66.48715410582105
 20
17.12543403180884
 30
0.0
  0
VERTEX
  5
4FC
  8
LAYER_1
 10
66.48495726470887
 20
17.13651993766496
 30
0.0
  0
VERTEX
  5
4FD
  8
LAYER_1
 10
65.23851014455394
 20
23.05759269033875
 30
0.0
  0
VERTEX
  5
4FE
  8
LAYER_1
 10
65.23314445121781
 20
23.08179753727929
 30
0.0
 42
0.3332843723158944
  0
VERTEX
  5
4FF
  8
LAYER_1
 10
65.05315370778044
 20
23.21676581089542
 30
0.0
 42
0.4142135623730951
  0
VERTEX
  5
500
  8
LAYER_1
 10
64.86565370778044
 20
23.02926581089542
 30
0.0
  0
VERTEX
  5
501
  8
LAYER_1
 10
64.86602383859564
 20
23.01832828017489
 30
0.0
  0
VERTEX
  5
502
  8
LAYER_1
 10
64.86706349234062
 20
23.00741592121308
 30
0.0
  0
VERTEX
  5
503
  8
LAYER_1
 10
64.86866656096446
 20
22.99656222932768
 30
0.0
  0
VERTEX
  5
504
  8
LAYER_1
 10
64.87072693641622
 20
22.98580069983637
 30
0.0
  0
VERTEX
  5
505
  8
LAYER_1
 10
66.05592299546797
 20
17.35643470069103
 30
0.0
  0
VERTEX
  5
506
  8
LAYER_1
 10
66.05590376148365
 20
17.35639870042258
 30
0.0
  0
VERTEX
  5
507
  8
LAYER_1
 10
57.49301932656445
 20
2.779338628745059
 30
0.0
  0
VERTEX
  5
508
  8
LAYER_1
 10
57.49298961816288
 20
2.779265810895424
 30
0.0
  0
VERTEX
  5
509
  8
LAYER_1
 10
50.49094011004354
 20
2.779507088129556
 30
0.0
  0
VERTEX
  5
50A
  8
LAYER_1
 10
50.49065370778044
 20
3.310465810895423
 30
0.0
 42
0.4142135623730951
  0
VERTEX
  5
50B
  8
LAYER_1
 10
50.67815370778044
 20
3.497965810895423
 30
0.0
 42
0.4142135623730951
  0
VERTEX
  5
50C
  8
LAYER_1
 10
50.49065370778044
 20
3.685465810895423
 30
0.0
  0
VERTEX
  5
50D
  8
LAYER_1
 10
47.17815370778044
 20
3.685465810895423
 30
0.0
 42
0.4142135623730951
  0
VERTEX
  5
50E
  8
LAYER_1
 10
46.99065370778044
 20
3.497965810895423
 30
0.0
 42
0.4142135623730951
  0
VERTEX
  5
50F
  8
LAYER_1
 10
47.17815370778044
 20
3.310465810895423
 30
0.0
  0
VERTEX
  5
510
  8
LAYER_1
 10
47.17815370778044
 20
2.780465810895421
 30
0.0
  0
VERTEX
  5
511
  8
LAYER_1
 10
47.177706415762
 20
2.779265810895424
 30
0.0
  0
VERTEX
  5
512
  8
LAYER_1
 10
27.1784083518005
 20
2.779265810895424
 30
0.0
  0
VERTEX
  5
513
  8
LAYER_1
 10
27.17815370778044
 20
2.780465810895421
 30
0.0
  0
VERTEX
  5
514
  8
LAYER_1
 10
27.17815370778044
 20
3.310465810895423
 30
0.0
 42
0.4142135623730951
  0
VERTEX
  5
515
  8
LAYER_1
 10
27.36565370778044
 20
3.497965810895423
 30
0.0
 42
0.4142135623730951
  0
VERTEX
  5
516
  8
LAYER_1
 10
27.17815370778044
 20
3.685465810895423
 30
0.0
  0
VERTEX
  5
517
  8
LAYER_1
 10
23.86446972048412
 20
3.685244269940142
 30
0.0
 42
0.4142135623730951
  0
VERTEX
  5
518
  8
LAYER_1
 10
23.67696972048412
 20
3.497744269940142
 30
0.0
 42
0.4142135623730951
  0
VERTEX
  5
519
  8
LAYER_1
 10
23.86446972048412
 20
3.310244269940142
 30
0.0
  0
VERTEX
  5
51A
  8
LAYER_1
 10
23.86446147020163
 20
2.77932785911851
 30
0.0
  0
VERTEX
  5
51B
  8
LAYER_1
 10
23.86446894822899
 20
2.779265810895424
 30
0.0
  0
VERTEX
  5
51C
  8
LAYER_1
 10
3.178153707780439
 20
2.779265810895424
 30
0.0
  0
VERTEX
  5
51D
  8
LAYER_1
 10
2.054607135557688
 20
2.779265810895424
 30
0.0
  0
VERTEX
  5
51E
  8
LAYER_1
 10
2.053153707780439
 20
2.781498078266154
 30
0.0
  0
VERTEX
  5
51F
  8
LAYER_1
 10
2.053153707780439
 20
2.84958663279621
 30
0.0
  0
VERTEX
  5
520
  8
LAYER_1
 10
2.053153707780439
 20
2.889820697790789
 30
0.0
  0
VERTEX
  5
521
  8
LAYER_1
 10
2.053153707780439
 20
27.02926581089542
 30
0.0
  0
VERTEX
  5
522
  8
LAYER_1
 10
2.053153707780439
 20
27.77768012014619
 30
0.0
  0
VERTEX
  5
523
  8
LAYER_1
 10
2.053454642196812
 20
27.77926581089542
 30
0.0
  0
VERTEX
  5
524
  8
LAYER_1
 10
27.61565370778044
 20
27.77926581089542
 30
0.0
  0
VERTEX
  5
525
  8
LAYER_1
 10
28.10143011383013
 20
27.77926581089542
 30
0.0
  0
VERTEX
  5
526
  8
LAYER_1
 10
28.10094237062287
 20
27.77931377077339
 30
0.0
 42
0.1845718162898516
  0
VERTEX
  5
527
  8
LAYER_1
 10
28.05315370778044
 20
27.65426581089542
 30
0.0
 42
0.4142135623730951
  0
VERTEX
  5
528
  8
LAYER_1
 10
28.24065370778044
 20
27.46676581089542
 30
0.0
 42
0.1946565993501367
  0
VERTEX
  5
529
  8
LAYER_1
 10
28.37104570385611
 20
27.51952837229947
 30
0.0
  0
VERTEX
  5
52A
  8
LAYER_1
 10
28.37323622925291
 20
27.52168328942295
 30
0.0
  0
VERTEX
  5
52B
  8
LAYER_1
 10
31.75224106777347
 20
30.77781522472456
 30
0.0
  0
VERTEX
  5
52C
  8
LAYER_1
 10
31.75628182013219
 20
30.77926581089542
 30
0.0
  0
VERTEX
  5
52D
  8
LAYER_1
 10
36.42815370778044
 20
30.77926581089542
 30
0.0
 42
0.4142135623730951
  0
VERTEX
  5
52E
  8
LAYER_1
 10
36.61565370778044
 20
30.96676581089542
 30
0.0
 42
0.4142135623730951
  0
VERTEX
  5
52F
  8
LAYER_1
 10
36.42815370778044
 20
31.15426581089542
 30
0.0
  0
VERTEX
  5
530
  8
LAYER_1
 10
31.67815370778044
 20
31.15426581089542
 30
0.0
 42
0.1899908004198604
  0
VERTEX
  5
531
  8
LAYER_1
 10
31.55020763080299
 20
31.10382802810383
 30
0.0
  0
VERTEX
  5
532
  8
LAYER_1
 10
31.54557118630797
 20
31.0993483323679
 30
0.0
  0
VERTEX
  5
533
  8
LAYER_1
 10
28.48947828713287
 20
28.1543860840719
 30
0.0
  0
VERTEX
  5
534
  8
LAYER_1
 10
28.4891942054947
 20
28.15426581089542
 30
0.0
  0
VERTEX
  5
535
  8
LAYER_1
 10
27.61565370778044
 20
28.15426581089542
 30
0.0
  0
VERTEX
  5
536
  8
LAYER_1
 10
0.0378740799385184
 20
28.15426581089542
 30
0.0
  0
VERTEX
  5
537
  8
LAYER_1
 10
0.0378740799385184
 20
27.78004874123652
 30
0.0
  0
VERTEX
  5
538
  8
LAYER_1
 10
0.0383901316228616
 20
27.77926581089542
 30
0.0
  0
VERTEX
  5
539
  8
LAYER_1
 10
1.67745917413373
 20
27.77926581089542
 30
0.0
  0
VERTEX
  5
53A
  8
LAYER_1
 10
1.678153707780439
 20
27.77768012014619
 30
0.0
  0
VERTEX
  5
53B
  8
LAYER_1
 10
1.678153707780439
 20
27.02926581089542
 30
0.0
  0
VERTEX
  5
53C
  8
LAYER_1
 10
1.678153707780439
 20
2.881350368318252
 30
0.0
  0
VERTEX
  5
53D
  8
LAYER_1
 10
1.678153707780439
 20
2.779659865128338
 30
0.0
  0
VERTEX
  5
53E
  8
LAYER_1
 10
1.676854335734816
 20
2.779265810895424
 30
0.0
  0
VERTEX
  5
53F
  8
LAYER_1
 10
0.0014361040139192
 20
2.779579181012323
 30
0.0
  0
VERTEX
  5
540
  8
LAYER_1
 10
0.0014361040139192
 20
2.419579181012324
 30
0.0
  0
VERTEX
  5
541
  8
LAYER_1
 10
0.0
 20
2.404756033377879
 30
0.0
  0
VERTEX
  5
542
  8
LAYER_1
 10
3.178153707780439
 20
2.404265810895424
 30
0.0
  0
VERTEX
  5
543
  8
LAYER_1
 10
5.888153707780447
 20
2.404265810895424
 30
0.0
  0
VERTEX
  5
544
  8
LAYER_1
 10
18.55320000000059
 20
2.404265810895438
 30
0.0
  0
VERTEX
  5
545
  8
LAYER_1
 10
18.5532
 20
1.904265810895424
 30
0.0
  0
VERTEX
  5
546
  8
LAYER_1
 10
54.8032
 20
1.904265810895424
 30
0.0
  0
VERTEX
  5
547
  8
LAYER_1
 10
54.80320000000427
 20
2.404265810895424
 30
0.0
  0
VERTEX
  5
548
  8
LAYER_1
 10
57.70732572345071
 20
2.404265810895424
 30
0.0
  0
SEQEND
  5
6E6
  8
LAYER_1
  0
POLYLINE
  5
A3
  8
LAYER_1
 66
     1
 10
0.0
 20
0.0
 30
0.0
 70
     1
  0
VERTEX
  5
549
  8
LAYER_1
 10
72.85755054996059
 20
20.46676581089542
 30
0.0
 42
0.4142135623730951
  0
VERTEX
  5
54A
  8
LAYER_1
 10
72.29505054996059
 20
19.90426581089542
 30
0.0
 42
0.4142135623730951
  0
VERTEX
  5
54B
  8
LAYER_1
 10
72.85755054996059
 20
19.34176581089542
 30
0.0
 42
0.4142135623730951
  0
VERTEX
  5
54C
  8
LAYER_1
 10
73.42005054996059
 20
19.90426581089542
 30
0.0
 42
0.4142135623730951
  0
SEQEND
  5
6E7
  8
LAYER_1
  0
POLYLINE
  5
A4
  8
LAYER_1
 66
     1
 10
0.0
 20
0.0
 30
0.0
 70
     1
  0
VERTEX
  5
54D
  8
LAYER_1
 10
72.85755054996059
 20
20.27926581089542
 30
0.0
 42
0.4142135623730951
  0
VERTEX
  5
54E
  8
LAYER_1
 10
72.48255054996059
 20
19.90426581089542
 30
0.0
 42
0.4142135623730951
  0
VERTEX
  5
54F
  8
LAYER_1
 10
72.85755054996059
 20
19.52926581089542
 30
0.0
 42
0.4142135623730951
  0
VERTEX
  5
550
  8
LAYER_1
 10
73.23255054996059
 20
19.90426581089542
 30
0.0
 42
0.4142135623730951
  0
SEQEND
  5
6E8
  8
LAYER_1
  0
POLYLINE
  5
A5
  8
LAYER_1
 66
     1
 10
0.0
 20
0.0
 30
0.0
 70
     1
  0
VERTEX
  5
551
  8
LAYER_1
 10
95.0
 20
5.466958441650043
 30
0.0
  0
VERTEX
  5
552
  8
LAYER_1
 10
94.54505054996059
 20
5.466765810895424
 30
0.0
 42
-0.4142135623730951
  0
VERTEX
  5
553
  8
LAYER_1
 10
94.29505054996059
 20
5.716765810895424
 30
0.0
  0
VERTEX
  5
554
  8
LAYER_1
 10
94.29505054996059
 20
7.585038127416759
 30
0.0
  0
VERTEX
  5
555
  8
LAYER_1
 10
94.99505054996061
 20
7.585038127416759
 30
0.0
  0
VERTEX
  5
556
  8
LAYER_1
 10
94.99505054996061
 20
5.485038127416757
 30
0.0
  0
SEQEND
  5
6E9
  8
LAYER_1
  0
POLYLINE
  5
A6
  8
LAYER_1
 66
     1
 10
0.0
 20
0.0
 30
0.0
 70
     1
  0
VERTEX
  5
557
  8
LAYER_1
 10
95.0
 20
28.59195844165004
 30
0.0
  0
VERTEX
  5
558
  8
LAYER_1
 10
94.54505054996059
 20
28.59176581089542
 30
0.0
  0
VERTEX
  5
559
  8
LAYER_1
 10
94.53218558311976
 20
28.59209110934411
 30
0.0
  0
VERTEX
  5
55A
  8
LAYER_1
 10
94.51948950222283
 20
28.59305653271291
 30
0.0
  0
VERTEX
  5
55B
  8
LAYER_1
 10
94.50697801523565
 20
28.59464637303595
 30
0.0
  0
VERTEX
  5
55C
  8
LAYER_1
 10
94.4946668301241
 20
28.59684492234736
 30
0.0
  0
VERTEX
  5
55D
  8
LAYER_1
 10
94.48257165485408
 20
28.59963647268126
 30
0.0
  0
VERTEX
  5
55E
  8
LAYER_1
 10
94.47070819739146
 20
28.60300531607178
 30
0.0
  0
VERTEX
  5
55F
  8
LAYER_1
 10
94.45909216570209
 20
28.60693574455305
 30
0.0
  0
VERTEX
  5
560
  8
LAYER_1
 10
94.44773926775187
 20
28.61141205015919
 30
0.0
  0
VERTEX
  5
561
  8
LAYER_1
 10
94.43666521150666
 20
28.61641852492433
 30
0.0
  0
VERTEX
  5
562
  8
LAYER_1
 10
94.42588570493234
 20
28.62193946088258
 30
0.0
  0
VERTEX
  5
563
  8
LAYER_1
 10
94.41541645599479
 20
28.62795915006809
 30
0.0
  0
VERTEX
  5
564
  8
LAYER_1
 10
94.40527317265986
 20
28.63446188451498
 30
0.0
  0
VERTEX
  5
565
  8
LAYER_1
 10
94.39547156289343
 20
28.64143195625736
 30
0.0
  0
VERTEX
  5
566
  8
LAYER_1
 10
94.38602733466139
 20
28.64885365732938
 30
0.0
  0
VERTEX
  5
567
  8
LAYER_1
 10
94.37695619592961
 20
28.65671127976514
 30
0.0
  0
VERTEX
  5
568
  8
LAYER_1
 10
94.36827385466395
 20
28.66498911559879
 30
0.0
  0
VERTEX
  5
569
  8
LAYER_1
 10
94.35999601883032
 20
28.67367145686443
 30
0.0
  0
VERTEX
  5
56A
  8
LAYER_1
 10
94.35213839639454
 20
28.68274259559622
 30
0.0
  0
VERTEX
  5
56B
  8
LAYER_1
 10
94.34471669532253
 20
28.69218682382825
 30
0.0
  0
VERTEX
  5
56C
  8
LAYER_1
 10
94.33774662358014
 20
28.70198843359468
 30
0.0
  0
VERTEX
  5
56D
  8
LAYER_1
 10
94.33124388913326
 20
28.7121317169296
 30
0.0
  0
VERTEX
  5
56E
  8
LAYER_1
 10
94.32522419994775
 20
28.72260096586717
 30
0.0
  0
VERTEX
  5
56F
  8
LAYER_1
 10
94.3197032639895
 20
28.7333804724415
 30
0.0
  0
VERTEX
  5
570
  8
LAYER_1
 10
94.31469678922436
 20
28.74445452868671
 30
0.0
  0
VERTEX
  5
571
  8
LAYER_1
 10
94.31022048361824
 20
28.75580742663693
 30
0.0
  0
VERTEX
  5
572
  8
LAYER_1
 10
94.30629005513696
 20
28.76742345832629
 30
0.0
  0
VERTEX
  5
573
  8
LAYER_1
 10
94.30292121174644
 20
28.77928691578892
 30
0.0
  0
VERTEX
  5
574
  8
LAYER_1
 10
94.30012966141253
 20
28.79138209105894
 30
0.0
  0
VERTEX
  5
575
  8
LAYER_1
 10
94.29793111210112
 20
28.80369327617047
 30
0.0
  0
VERTEX
  5
576
  8
LAYER_1
 10
94.29634127177808
 20
28.81620476315764
 30
0.0
  0
VERTEX
  5
577
  8
LAYER_1
 10
94.29537584840928
 20
28.82890084405459
 30
0.0
  0
VERTEX
  5
578
  8
LAYER_1
 10
94.29505054996059
 20
28.84176581089542
 30
0.0
  0
VERTEX
  5
579
  8
LAYER_1
 10
94.29505054996059
 20
30.71003812741676
 30
0.0
  0
VERTEX
  5
57A
  8
LAYER_1
 10
94.99505054996061
 20
30.71003812741676
 30
0.0
  0
VERTEX
  5
57B
  8
LAYER_1
 10
94.99505054996061
 20
28.61003812741676
 30
0.0
  0
SEQEND
  5
6EA
  8
LAYER_1
  0
POLYLINE
  5
A7
  8
LAYER_1
 66
     1
 10
0.0
 20
0.0
 30
0.0
 70
     1
  0
VERTEX
  5
57C
  8
LAYER_1
 10
94.79505054996059
 20
30.2165962080411
 30
0.0
  0
VERTEX
  5
57D
  8
LAYER_1
 10
94.79505054996059
 20
10.78295505987563
 30
0.0
  0
VERTEX
  5
57E
  8
LAYER_1
 10
94.7932583802347
 20
10.65426581089542
 30
0.0
  0
VERTEX
  5
57F
  8
LAYER_1
 10
94.54505054996059
 20
10.65426581089542
 30
0.0
 42
0.4142135623730951
  0
VERTEX
  5
580
  8
LAYER_1
 10
94.29505054996059
 20
10.40426581089542
 30
0.0
  0
VERTEX
  5
581
  8
LAYER_1
 10
94.29505054996059
 20
7.404265810895424
 30
0.0
 42
0.4142135623730951
  0
VERTEX
  5
582
  8
LAYER_1
 10
94.54505054996059
 20
7.154265810895424
 30
0.0
  0
VERTEX
  5
583
  8
LAYER_1
 10
94.79334879277258
 20
7.154265810895424
 30
0.0
  0
VERTEX
  5
584
  8
LAYER_1
 10
94.79505054996059
 20
7.125633739678264
 30
0.0
  0
VERTEX
  5
585
  8
LAYER_1
 10
94.79505054996059
 20
1.904265810895424
 30
0.0
  0
VERTEX
  5
586
  8
LAYER_1
 10
71.35755054996059
 20
1.904265810895424
 30
0.0
  0
VERTEX
  5
587
  8
LAYER_1
 10
71.35755054996059
 20
37.96676581089542
 30
0.0
  0
VERTEX
  5
588
  8
LAYER_1
 10
94.79505054996059
 20
37.96676581089542
 30
0.0
  0
VERTEX
  5
589
  8
LAYER_1
 10
94.79505054996059
 20
33.82394376223505
 30
0.0
  0
VERTEX
  5
58A
  8
LAYER_1
 10
94.7932583802347
 20
33.77926581089542
 30
0.0
  0
VERTEX
  5
58B
  8
LAYER_1
 10
94.54505054996059
 20
33.77926581089542
 30
0.0
  0
VERTEX
  5
58C
  8
LAYER_1
 10
94.53218558311976
 20
33.77894051244674
 30
0.0
  0
VERTEX
  5
58D
  8
LAYER_1
 10
94.51948950222283
 20
33.77797508907794
 30
0.0
  0
VERTEX
  5
58E
  8
LAYER_1
 10
94.50697801523565
 20
33.7763852487549
 30
0.0
  0
VERTEX
  5
58F
  8
LAYER_1
 10
94.4946668301241
 20
33.77418669944349
 30
0.0
  0
VERTEX
  5
590
  8
LAYER_1
 10
94.48257165485408
 20
33.77139514910959
 30
0.0
  0
VERTEX
  5
591
  8
LAYER_1
 10
94.47070819739146
 20
33.76802630571907
 30
0.0
  0
VERTEX
  5
592
  8
LAYER_1
 10
94.45909216570209
 20
33.7640958772378
 30
0.0
  0
VERTEX
  5
593
  8
LAYER_1
 10
94.44773926775187
 20
33.75961957163166
 30
0.0
  0
VERTEX
  5
594
  8
LAYER_1
 10
94.43666521150666
 20
33.75461309686653
 30
0.0
  0
VERTEX
  5
595
  8
LAYER_1
 10
94.42588570493234
 20
33.74909216090827
 30
0.0
  0
VERTEX
  5
596
  8
LAYER_1
 10
94.41541645599479
 20
33.74307247172276
 30
0.0
  0
VERTEX
  5
597
  8
LAYER_1
 10
94.40527317265986
 20
33.73656973727587
 30
0.0
  0
VERTEX
  5
598
  8
LAYER_1
 10
94.39547156289343
 20
33.7295996655335
 30
0.0
  0
VERTEX
  5
599
  8
LAYER_1
 10
94.38602733466139
 20
33.72217796446148
 30
0.0
  0
VERTEX
  5
59A
  8
LAYER_1
 10
94.37695619592961
 20
33.71432034202572
 30
0.0
  0
VERTEX
  5
59B
  8
LAYER_1
 10
94.36827385466395
 20
33.70604250619206
 30
0.0
  0
VERTEX
  5
59C
  8
LAYER_1
 10
94.35999601883032
 20
33.69736016492641
 30
0.0
  0
VERTEX
  5
59D
  8
LAYER_1
 10
94.35213839639454
 20
33.68828902619462
 30
0.0
  0
VERTEX
  5
59E
  8
LAYER_1
 10
94.34471669532253
 20
33.6788447979626
 30
0.0
  0
VERTEX
  5
59F
  8
LAYER_1
 10
94.33774662358014
 20
33.66904318819617
 30
0.0
  0
VERTEX
  5
5A0
  8
LAYER_1
 10
94.33124388913326
 20
33.65889990486124
 30
0.0
  0
VERTEX
  5
5A1
  8
LAYER_1
 10
94.32522419994775
 20
33.64843065592368
 30
0.0
  0
VERTEX
  5
5A2
  8
LAYER_1
 10
94.3197032639895
 20
33.63765114934935
 30
0.0
  0
VERTEX
  5
5A3
  8
LAYER_1
 10
94.31469678922436
 20
33.62657709310414
 30
0.0
  0
VERTEX
  5
5A4
  8
LAYER_1
 10
94.31022048361824
 20
33.61522419515392
 30
0.0
  0
VERTEX
  5
5A5
  8
LAYER_1
 10
94.30629005513696
 20
33.60360816346456
 30
0.0
  0
VERTEX
  5
5A6
  8
LAYER_1
 10
94.30292121174644
 20
33.59174470600193
 30
0.0
  0
VERTEX
  5
5A7
  8
LAYER_1
 10
94.30012966141253
 20
33.57964953073191
 30
0.0
  0
VERTEX
  5
5A8
  8
LAYER_1
 10
94.29793111210112
 20
33.56733834562037
 30
0.0
  0
VERTEX
  5
5A9
  8
LAYER_1
 10
94.29634127177808
 20
33.5548268586332
 30
0.0
  0
VERTEX
  5
5AA
  8
LAYER_1
 10
94.29537584840928
 20
33.54213077773625
 30
0.0
  0
VERTEX
  5
5AB
  8
LAYER_1
 10
94.29505054996059
 20
33.52926581089542
 30
0.0
  0
VERTEX
  5
5AC
  8
LAYER_1
 10
94.29505054996059
 20
30.52926581089542
 30
0.0
  0
VERTEX
  5
5AD
  8
LAYER_1
 10
94.29537584840928
 20
30.51640084405459
 30
0.0
  0
VERTEX
  5
5AE
  8
LAYER_1
 10
94.29634127177808
 20
30.50370476315764
 30
0.0
  0
VERTEX
  5
5AF
  8
LAYER_1
 10
94.29793111210112
 20
30.49119327617047
 30
0.0
  0
VERTEX
  5
5B0
  8
LAYER_1
 10
94.30012966141253
 20
30.47888209105894
 30
0.0
  0
VERTEX
  5
5B1
  8
LAYER_1
 10
94.30292121174644
 20
30.46678691578892
 30
0.0
  0
VERTEX
  5
5B2
  8
LAYER_1
 10
94.30629005513696
 20
30.45492345832629
 30
0.0
  0
VERTEX
  5
5B3
  8
LAYER_1
 10
94.31022048361824
 20
30.44330742663693
 30
0.0
  0
VERTEX
  5
5B4
  8
LAYER_1
 10
94.31469678922436
 20
30.43195452868671
 30
0.0
  0
VERTEX
  5
5B5
  8
LAYER_1
 10
94.3197032639895
 20
30.4208804724415
 30
0.0
  0
VERTEX
  5
5B6
  8
LAYER_1
 10
94.32522419994775
 20
30.41010096586717
 30
0.0
  0
VERTEX
  5
5B7
  8
LAYER_1
 10
94.33124388913326
 20
30.3996317169296
 30
0.0
  0
VERTEX
  5
5B8
  8
LAYER_1
 10
94.33774662358014
 20
30.38948843359468
 30
0.0
  0
VERTEX
  5
5B9
  8
LAYER_1
 10
94.34471669532253
 20
30.37968682382825
 30
0.0
  0
VERTEX
  5
5BA
  8
LAYER_1
 10
94.35213839639454
 20
30.37024259559622
 30
0.0
  0
VERTEX
  5
5BB
  8
LAYER_1
 10
94.35999601883032
 20
30.36117145686443
 30
0.0
  0
VERTEX
  5
5BC
  8
LAYER_1
 10
94.36827385466395
 20
30.35248911559879
 30
0.0
  0
VERTEX
  5
5BD
  8
LAYER_1
 10
94.37695619592961
 20
30.34421127976514
 30
0.0
  0
VERTEX
  5
5BE
  8
LAYER_1
 10
94.38602733466139
 20
30.33635365732938
 30
0.0
  0
VERTEX
  5
5BF
  8
LAYER_1
 10
94.39547156289343
 20
30.32893195625736
 30
0.0
  0
VERTEX
  5
5C0
  8
LAYER_1
 10
94.40527317265986
 20
30.32196188451498
 30
0.0
  0
VERTEX
  5
5C1
  8
LAYER_1
 10
94.41541645599479
 20
30.31545915006809
 30
0.0
  0
VERTEX
  5
5C2
  8
LAYER_1
 10
94.42588570493234
 20
30.30943946088258
 30
0.0
  0
VERTEX
  5
5C3
  8
LAYER_1
 10
94.43666521150666
 20
30.30391852492433
 30
0.0
  0
VERTEX
  5
5C4
  8
LAYER_1
 10
94.44773926775187
 20
30.29891205015919
 30
0.0
  0
VERTEX
  5
5C5
  8
LAYER_1
 10
94.45909216570209
 20
30.29443574455305
 30
0.0
  0
VERTEX
  5
5C6
  8
LAYER_1
 10
94.47070819739146
 20
30.29050531607178
 30
0.0
  0
VERTEX
  5
5C7
  8
LAYER_1
 10
94.48257165485408
 20
30.28713647268126
 30
0.0
  0
VERTEX
  5
5C8
  8
LAYER_1
 10
94.4946668301241
 20
30.28434492234736
 30
0.0
  0
VERTEX
  5
5C9
  8
LAYER_1
 10
94.50697801523565
 20
30.28214637303595
 30
0.0
  0
VERTEX
  5
5CA
  8
LAYER_1
 10
94.51948950222283
 20
30.28055653271291
 30
0.0
  0
VERTEX
  5
5CB
  8
LAYER_1
 10
94.53218558311976
 20
30.27959110934411
 30
0.0
  0
VERTEX
  5
5CC
  8
LAYER_1
 10
94.54505054996059
 20
30.27926581089542
 30
0.0
  0
VERTEX
  5
5CD
  8
LAYER_1
 10
94.79334879277258
 20
30.27926581089542
 30
0.0
  0
SEQEND
  5
6EB
  8
LAYER_1
  0
POLYLINE
  5
A8
  8
LAYER_1
 66
     1
 10
0.0
 20
0.0
 30
0.0
 70
     1
  0
VERTEX
  5
5CE
  8
LAYER_1
 10
93.8887505499606
 20
8.342765810895422
 30
0.0
 42
0.4142135623730951
  0
VERTEX
  5
5CF
  8
LAYER_1
 10
93.76325054996062
 20
8.217265810895427
 30
0.0
 42
0.4142135623730951
  0
VERTEX
  5
5D0
  8
LAYER_1
 10
93.8887505499606
 20
8.091765810895424
 30
0.0
 42
0.4142135623730951
  0
VERTEX
  5
5D1
  8
LAYER_1
 10
94.0142505499606
 20
8.217265810895427
 30
0.0
 42
0.4142135623730951
  0
SEQEND
  5
6EC
  8
LAYER_1
  0
POLYLINE
  5
A9
  8
LAYER_1
 66
     1
 10
0.0
 20
0.0
 30
0.0
 70
     1
  0
VERTEX
  5
5D2
  8
LAYER_1
 10
93.8887505499606
 20
9.155265810895422
 30
0.0
 42
0.4142135623730951
  0
VERTEX
  5
5D3
  8
LAYER_1
 10
93.76325054996062
 20
9.029765810895427
 30
0.0
 42
0.4142135623730951
  0
VERTEX
  5
5D4
  8
LAYER_1
 10
93.8887505499606
 20
8.904265810895424
 30
0.0
 42
0.4142135623730951
  0
VERTEX
  5
5D5
  8
LAYER_1
 10
94.0142505499606
 20
9.029765810895427
 30
0.0
 42
0.4142135623730951
  0
SEQEND
  5
6ED
  8
LAYER_1
  0
POLYLINE
  5
AA
  8
LAYER_1
 66
     1
 10
0.0
 20
0.0
 30
0.0
 70
     1
  0
VERTEX
  5
5D6
  8
LAYER_1
 10
93.8887505499606
 20
9.873965810895427
 30
0.0
 42
0.4142135623730951
  0
VERTEX
  5
5D7
  8
LAYER_1
 10
93.76325054996062
 20
9.748465810895425
 30
0.0
 42
0.4142135623730951
  0
VERTEX
  5
5D8
  8
LAYER_1
 10
93.8887505499606
 20
9.622965810895423
 30
0.0
 42
0.4142135623730951
  0
VERTEX
  5
5D9
  8
LAYER_1
 10
94.0142505499606
 20
9.748465810895425
 30
0.0
 42
0.4142135623730951
  0
SEQEND
  5
6EE
  8
LAYER_1
  0
POLYLINE
  5
AB
  8
LAYER_1
 66
     1
 10
0.0
 20
0.0
 30
0.0
 70
     1
  0
VERTEX
  5
5DA
  8
LAYER_1
 10
93.8887505499606
 20
31.46776581089542
 30
0.0
 42
0.4142135623730951
  0
VERTEX
  5
5DB
  8
LAYER_1
 10
93.76325054996062
 20
31.34226581089543
 30
0.0
 42
0.4142135623730951
  0
VERTEX
  5
5DC
  8
LAYER_1
 10
93.8887505499606
 20
31.21676581089542
 30
0.0
 42
0.4142135623730951
  0
VERTEX
  5
5DD
  8
LAYER_1
 10
94.0142505499606
 20
31.34226581089543
 30
0.0
 42
0.4142135623730951
  0
SEQEND
  5
6EF
  8
LAYER_1
  0
POLYLINE
  5
AC
  8
LAYER_1
 66
     1
 10
0.0
 20
0.0
 30
0.0
 70
     1
  0
VERTEX
  5
5DE
  8
LAYER_1
 10
93.8887505499606
 20
32.28026581089542
 30
0.0
 42
0.4142135623730951
  0
VERTEX
  5
5DF
  8
LAYER_1
 10
93.76325054996062
 20
32.15476581089543
 30
0.0
 42
0.4142135623730951
  0
VERTEX
  5
5E0
  8
LAYER_1
 10
93.8887505499606
 20
32.02926581089542
 30
0.0
 42
0.4142135623730951
  0
VERTEX
  5
5E1
  8
LAYER_1
 10
94.0142505499606
 20
32.15476581089543
 30
0.0
 42
0.4142135623730951
  0
SEQEND
  5
6F0
  8
LAYER_1
  0
POLYLINE
  5
AD
  8
LAYER_1
 66
     1
 10
0.0
 20
0.0
 30
0.0
 70
     1
  0
VERTEX
  5
5E2
  8
LAYER_1
 10
93.8887505499606
 20
32.99896581089543
 30
0.0
 42
0.4142135623730951
  0
VERTEX
  5
5E3
  8
LAYER_1
 10
93.76325054996062
 20
32.87346581089542
 30
0.0
 42
0.4142135623730951
  0
VERTEX
  5
5E4
  8
LAYER_1
 10
93.8887505499606
 20
32.74796581089542
 30
0.0
 42
0.4142135623730951
  0
VERTEX
  5
5E5
  8
LAYER_1
 10
94.0142505499606
 20
32.87346581089542
 30
0.0
 42
0.4142135623730951
  0
SEQEND
  5
6F1
  8
LAYER_1
  0
POLYLINE
  5
AE
  8
LAYER_1
 66
     1
 10
0.0
 20
0.0
 30
0.0
 70
     1
  0
VERTEX
  5
5E6
  8
LAYER_1
 10
74.67005054996059
 20
5.717265810895427
 30
0.0
 42
0.4142135623730951
  0
VERTEX
  5
5E7
  8
LAYER_1
 10
74.5445505499606
 20
5.591765810895424
 30
0.0
 42
0.4142135623730951
  0
VERTEX
  5
5E8
  8
LAYER_1
 10
74.67005054996059
 20
5.466265810895422
 30
0.0
 42
0.4142135623730951
  0
VERTEX
  5
5E9
  8
LAYER_1
 10
74.79555054996061
 20
5.591765810895424
 30
0.0
 42
0.4142135623730951
  0
SEQEND
  5
6F2
  8
LAYER_1
  0
POLYLINE
  5
AF
  8
LAYER_1
 66
     1
 10
0.0
 20
0.0
 30
0.0
 70
     1
  0
VERTEX
  5
5EA
  8
LAYER_1
 10
89.17005054996059
 20
6.217265810895427
 30
0.0
 42
0.4142135623730951
  0
VERTEX
  5
5EB
  8
LAYER_1
 10
89.0445505499606
 20
6.091765810895424
 30
0.0
 42
0.4142135623730951
  0
VERTEX
  5
5EC
  8
LAYER_1
 10
89.17005054996059
 20
5.966265810895422
 30
0.0
 42
0.4142135623730951
  0
VERTEX
  5
5ED
  8
LAYER_1
 10
89.29555054996061
 20
6.091765810895424
 30
0.0
 42
0.4142135623730951
  0
SEQEND
  5
6F3
  8
LAYER_1
  0
POLYLINE
  5
B0
  8
LAYER_1
 66
     1
 10
0.0
 20
0.0
 30
0.0
 70
     1
  0
VERTEX
  5
5EE
  8
LAYER_1
 10
93.23255054996059
 20
13.15476581089543
 30
0.0
 42
0.4142135623730951
  0
VERTEX
  5
5EF
  8
LAYER_1
 10
93.1070505499606
 20
13.02926581089542
 30
0.0
 42
0.4142135623730951
  0
VERTEX
  5
5F0
  8
LAYER_1
 10
93.23255054996059
 20
12.90376581089542
 30
0.0
 42
0.4142135623730951
  0
VERTEX
  5
5F1
  8
LAYER_1
 10
93.35805054996061
 20
13.02926581089542
 30
0.0
 42
0.4142135623730951
  0
SEQEND
  5
6F4
  8
LAYER_1
  0
POLYLINE
  5
B1
  8
LAYER_1
 66
     1
 10
0.0
 20
0.0
 30
0.0
 70
     1
  0
VERTEX
  5
5F2
  8
LAYER_1
 10
93.23255054996059
 20
28.15476581089543
 30
0.0
 42
0.4142135623730951
  0
VERTEX
  5
5F3
  8
LAYER_1
 10
93.1070505499606
 20
28.02926581089542
 30
0.0
 42
0.4142135623730951
  0
VERTEX
  5
5F4
  8
LAYER_1
 10
93.23255054996059
 20
27.90376581089542
 30
0.0
 42
0.4142135623730951
  0
VERTEX
  5
5F5
  8
LAYER_1
 10
93.35805054996061
 20
28.02926581089542
 30
0.0
 42
0.4142135623730951
  0
SEQEND
  5
6F5
  8
LAYER_1
  0
POLYLINE
  5
B2
  8
LAYER_1
 66
     1
 10
0.0
 20
0.0
 30
0.0
 70
     1
  0
VERTEX
  5
5F6
  8
LAYER_1
 10
92.04505054996059
 20
31.21726581089543
 30
0.0
 42
0.4142135623730951
  0
VERTEX
  5
5F7
  8
LAYER_1
 10
91.9195505499606
 20
31.09176581089542
 30
0.0
 42
0.4142135623730951
  0
VERTEX
  5
5F8
  8
LAYER_1
 10
92.04505054996059
 20
30.96626581089542
 30
0.0
 42
0.4142135623730951
  0
VERTEX
  5
5F9
  8
LAYER_1
 10
92.17055054996061
 20
31.09176581089542
 30
0.0
 42
0.4142135623730951
  0
SEQEND
  5
6F6
  8
LAYER_1
  0
POLYLINE
  5
B3
  8
LAYER_1
 66
     1
 10
0.0
 20
0.0
 30
0.0
 70
     1
  0
VERTEX
  5
5FA
  8
LAYER_1
 10
91.67005054996059
 20
35.40476581089543
 30
0.0
 42
0.4142135623730951
  0
VERTEX
  5
5FB
  8
LAYER_1
 10
91.5445505499606
 20
35.27926581089542
 30
0.0
 42
0.4142135623730951
  0
VERTEX
  5
5FC
  8
LAYER_1
 10
91.67005054996059
 20
35.15376581089542
 30
0.0
 42
0.4142135623730951
  0
VERTEX
  5
5FD
  8
LAYER_1
 10
91.79555054996061
 20
35.27926581089542
 30
0.0
 42
0.4142135623730951
  0
SEQEND
  5
6F7
  8
LAYER_1
  0
POLYLINE
  5
B4
  8
LAYER_1
 66
     1
 10
0.0
 20
0.0
 30
0.0
 70
     1
  0
VERTEX
  5
5FE
  8
LAYER_1
 10
82.48255054996059
 20
35.40476581089543
 30
0.0
 42
0.4142135623730951
  0
VERTEX
  5
5FF
  8
LAYER_1
 10
82.3570505499606
 20
35.27926581089542
 30
0.0
 42
0.4142135623730951
  0
VERTEX
  5
600
  8
LAYER_1
 10
82.48255054996059
 20
35.15376581089542
 30
0.0
 42
0.4142135623730951
  0
VERTEX
  5
601
  8
LAYER_1
 10
82.60805054996061
 20
35.27926581089542
 30
0.0
 42
0.4142135623730951
  0
SEQEND
  5
6F8
  8
LAYER_1
  0
POLYLINE
  5
B5
  8
LAYER_1
 66
     1
 10
0.0
 20
0.0
 30
0.0
 70
     1
  0
VERTEX
  5
602
  8
LAYER_1
 10
74.67005054996059
 20
23.59226581089543
 30
0.0
 42
0.4142135623730951
  0
VERTEX
  5
603
  8
LAYER_1
 10
74.5445505499606
 20
23.46676581089542
 30
0.0
 42
0.4142135623730951
  0
VERTEX
  5
604
  8
LAYER_1
 10
74.67005054996059
 20
23.34126581089542
 30
0.0
 42
0.4142135623730951
  0
VERTEX
  5
605
  8
LAYER_1
 10
74.79555054996061
 20
23.46676581089542
 30
0.0
 42
0.4142135623730951
  0
SEQEND
  5
6F9
  8
LAYER_1
  0
POLYLINE
  5
B6
  8
LAYER_1
 66
     1
 10
0.0
 20
0.0
 30
0.0
 70
     1
  0
VERTEX
  5
606
  8
LAYER_1
 10
71.24124921728242
 20
39.42220569818409
 30
0.0
  0
VERTEX
  5
607
  8
LAYER_1
 10
94.74124921728242
 20
39.42220569818409
 30
0.0
  0
VERTEX
  5
608
  8
LAYER_1
 10
94.74124921728242
 20
44.42220569818409
 30
0.0
  0
VERTEX
  5
609
  8
LAYER_1
 10
71.24124921728242
 20
44.42220569818409
 30
0.0
  0
SEQEND
  5
6FA
  8
LAYER_1
  0
POLYLINE
  5
B7
  8
LAYER_1
 66
     1
 10
0.0
 20
0.0
 30
0.0
 70
     1
  0
VERTEX
  5
60A
  8
LAYER_1
 10
94.49124921728242
 20
39.29720569818409
 30
0.0
  0
VERTEX
  5
60B
  8
LAYER_1
 10
94.86624921728242
 20
39.29720569818409
 30
0.0
  0
VERTEX
  5
60C
  8
LAYER_1
 10
94.86624921728242
 20
44.54720569818409
 30
0.0
  0
VERTEX
  5
60D
  8
LAYER_1
 10
94.49124921728242
 20
44.54720569818409
 30
0.0
  0
SEQEND
  5
6FB
  8
LAYER_1
  0
POLYLINE
  5
B8
  8
LAYER_1
 66
     1
 10
0.0
 20
0.0
 30
0.0
 70
     1
  0
VERTEX
  5
60E
  8
LAYER_1
 10
71.11624921728242
 20
39.29720569818409
 30
0.0
  0
VERTEX
  5
60F
  8
LAYER_1
 10
71.49124921728242
 20
39.29720569818409
 30
0.0
  0
VERTEX
  5
610
  8
LAYER_1
 10
71.49124921728242
 20
44.54720569818409
 30
0.0
  0
VERTEX
  5
611
  8
LAYER_1
 10
71.11624921728242
 20
44.54720569818409
 30
0.0
  0
SEQEND
  5
6FC
  8
LAYER_1
  0
POLYLINE
  5
B9
  8
LAYER_1
 66
     1
 10
0.0
 20
0.0
 30
0.0
 70
     1
  0
VERTEX
  5
612
  8
LAYER_1
 10
72.17619755792111
 20
45.71304790231684
 30
0.0
  0
VERTEX
  5
613
  8
LAYER_1
 10
93.55119755792111
 20
45.71304790231684
 30
0.0
  0
VERTEX
  5
614
  8
LAYER_1
 10
93.55119755792111
 20
48.46304790231684
 30
0.0
  0
VERTEX
  5
615
  8
LAYER_1
 10
72.17619755792111
 20
48.46304790231684
 30
0.0
  0
SEQEND
  5
6FD
  8
LAYER_1
  0
POLYLINE
  5
BA
  8
LAYER_1
 66
     1
 10
0.0
 20
0.0
 30
0.0
 70
     1
  0
VERTEX
  5
616
  8
LAYER_1
 10
12.63661168396214
 20
48.875
 30
0.0
  0
VERTEX
  5
617
  8
LAYER_1
 10
23.82252661239824
 20
48.875
 30
0.0
  0
VERTEX
  5
618
  8
LAYER_1
 10
23.82252661239824
 20
30.25
 30
0.0
  0
VERTEX
  5
619
  8
LAYER_1
 10
0.3225266123982351
 20
30.25
 30
0.0
  0
VERTEX
  5
61A
  8
LAYER_1
 10
0.3225266123982351
 20
48.875
 30
0.0
  0
VERTEX
  5
61B
  8
LAYER_1
 10
11.51022080409035
 20
48.875
 30
0.0
  0
VERTEX
  5
61C
  8
LAYER_1
 10
11.51002661239824
 20
48.87173602605969
 30
0.0
  0
VERTEX
  5
61D
  8
LAYER_1
 10
11.51002661239824
 20
47.375
 30
0.0
 42
0.4142135623730951
  0
VERTEX
  5
61E
  8
LAYER_1
 10
11.76002661239824
 20
47.125
 30
0.0
  0
VERTEX
  5
61F
  8
LAYER_1
 10
12.38502661239824
 20
47.125
 30
0.0
 42
0.4142135623730951
  0
VERTEX
  5
620
  8
LAYER_1
 10
12.63502661239824
 20
47.375
 30
0.0
  0
VERTEX
  5
621
  8
LAYER_1
 10
12.63502661239824
 20
48.87025198010465
 30
0.0
  0
SEQEND
  5
6FE
  8
LAYER_1
  0
POLYLINE
  5
BB
  8
LAYER_1
 66
     1
 10
0.0
 20
0.0
 30
0.0
 70
     1
  0
VERTEX
  5
622
  8
LAYER_1
 10
18.57252661239824
 20
46.75
 30
0.0
 42
0.4142135623730951
  0
VERTEX
  5
623
  8
LAYER_1
 10
16.07252661239824
 20
44.25
 30
0.0
 42
0.4142135623730951
  0
VERTEX
  5
624
  8
LAYER_1
 10
18.57252661239824
 20
41.75
 30
0.0
 42
0.4142135623730951
  0
VERTEX
  5
625
  8
LAYER_1
 10
21.07252661239824
 20
44.25
 30
0.0
 42
0.4142135623730951
  0
SEQEND
  5
6FF
  8
LAYER_1
  0
POLYLINE
  5
BC
  8
LAYER_1
 66
     1
 10
0.0
 20
0.0
 30
0.0
 70
     1
  0
VERTEX
  5
626
  8
LAYER_1
 10
0.1975266123982351
 20
48.5
 30
0.0
  0
VERTEX
  5
627
  8
LAYER_1
 10
23.94752661239824
 20
48.5
 30
0.0
  0
VERTEX
  5
628
  8
LAYER_1
 10
23.94752661239824
 20
49.0
 30
0.0
  0
VERTEX
  5
629
  8
LAYER_1
 10
0.1975266123982351
 20
49.0
 30
0.0
  0
SEQEND
  5
700
  8
LAYER_1
  0
POLYLINE
  5
BD
  8
LAYER_1
 66
     1
 10
0.0
 20
0.0
 30
0.0
 70
     1
  0
VERTEX
  5
62A
  8
LAYER_1
 10
0.1975266123982351
 20
30.125
 30
0.0
  0
VERTEX
  5
62B
  8
LAYER_1
 10
0.5725266123982351
 20
30.125
 30
0.0
  0
VERTEX
  5
62C
  8
LAYER_1
 10
0.5725266123982351
 20
49.0
 30
0.0
  0
VERTEX
  5
62D
  8
LAYER_1
 10
0.1975266123982351
 20
49.0
 30
0.0
  0
SEQEND
  5
701
  8
LAYER_1
  0
POLYLINE
  5
BE
  8
LAYER_1
 66
     1
 10
0.0
 20
0.0
 30
0.0
 70
     1
  0
VERTEX
  5
62E
  8
LAYER_1
 10
23.57252661239824
 20
30.125
 30
0.0
  0
VERTEX
  5
62F
  8
LAYER_1
 10
23.94752661239824
 20
30.125
 30
0.0
  0
VERTEX
  5
630
  8
LAYER_1
 10
23.94752661239824
 20
49.0
 30
0.0
  0
VERTEX
  5
631
  8
LAYER_1
 10
23.57252661239824
 20
49.0
 30
0.0
  0
SEQEND
  5
702
  8
LAYER_1
  0
POLYLINE
  5
BF
  8
LAYER_1
 66
     1
 10
0.0
 20
0.0
 30
0.0
 70
     1
  0
VERTEX
  5
632
  8
LAYER_1
 10
45.99160104884157
 20
41.76063106606136
 30
0.0
  0
VERTEX
  5
633
  8
LAYER_1
 10
69.49160104884155
 20
41.76063106606136
 30
0.0
  0
VERTEX
  5
634
  8
LAYER_1
 10
69.49160104884155
 20
48.69813106606136
 30
0.0
  0
VERTEX
  5
635
  8
LAYER_1
 10
45.99160104884157
 20
48.69813106606136
 30
0.0
  0
SEQEND
  5
703
  8
LAYER_1
  0
POLYLINE
  5
C0
  8
LAYER_1
 66
     1
 10
0.0
 20
0.0
 30
0.0
 70
     1
  0
VERTEX
  5
636
  8
LAYER_1
 10
69.24160104884155
 20
41.63563106606136
 30
0.0
  0
VERTEX
  5
637
  8
LAYER_1
 10
69.61660104884155
 20
41.63563106606136
 30
0.0
  0
VERTEX
  5
638
  8
LAYER_1
 10
69.61660104884155
 20
48.82313106606136
 30
0.0
  0
VERTEX
  5
639
  8
LAYER_1
 10
69.24160104884155
 20
48.82313106606136
 30
0.0
  0
SEQEND
  5
704
  8
LAYER_1
  0
POLYLINE
  5
C1
  8
LAYER_1
 66
     1
 10
0.0
 20
0.0
 30
0.0
 70
     1
  0
VERTEX
  5
63A
  8
LAYER_1
 10
45.86660104884157
 20
41.63563106606136
 30
0.0
  0
VERTEX
  5
63B
  8
LAYER_1
 10
46.24160104884157
 20
41.63563106606136
 30
0.0
  0
VERTEX
  5
63C
  8
LAYER_1
 10
46.24160104884157
 20
48.82313106606136
 30
0.0
  0
VERTEX
  5
63D
  8
LAYER_1
 10
45.86660104884157
 20
48.82313106606136
 30
0.0
  0
SEQEND
  5
705
  8
LAYER_1
  0
POLYLINE
  5
C2
  8
LAYER_1
 66
     1
 10
0.0
 20
0.0
 30
0.0
 70
     1
  0
VERTEX
  5
63E
  8
LAYER_1
 10
47.22600104884157
 20
45.76113106606136
 30
0.0
 42
0.4142135623730951
  0
VERTEX
  5
63F
  8
LAYER_1
 10
47.10050104884155
 20
45.63563106606136
 30
0.0
 42
0.4142135623730951
  0
VERTEX
  5
640
  8
LAYER_1
 10
47.22600104884157
 20
45.51013106606135
 30
0.0
 42
0.4142135623730951
  0
VERTEX
  5
641
  8
LAYER_1
 10
47.35150104884156
 20
45.63563106606136
 30
0.0
 42
0.4142135623730951
  0
SEQEND
  5
706
  8
LAYER_1
  0
POLYLINE
  5
C3
  8
LAYER_1
 66
     1
 10
0.0
 20
0.0
 30
0.0
 70
     1
  0
VERTEX
  5
642
  8
LAYER_1
 10
67.06970104884155
 20
45.76113106606136
 30
0.0
 42
0.4142135623730951
  0
VERTEX
  5
643
  8
LAYER_1
 10
66.94420104884153
 20
45.63563106606136
 30
0.0
 42
0.4142135623730951
  0
VERTEX
  5
644
  8
LAYER_1
 10
67.06970104884155
 20
45.51013106606135
 30
0.0
 42
0.4142135623730951
  0
VERTEX
  5
645
  8
LAYER_1
 10
67.19520104884154
 20
45.63563106606136
 30
0.0
 42
0.4142135623730951
  0
SEQEND
  5
707
  8
LAYER_1
  0
POLYLINE
  5
C4
  8
LAYER_1
 66
     1
 10
0.0
 20
0.0
 30
0.0
 70
     1
  0
VERTEX
  5
646
  8
LAYER_1
 10
48.41350104884157
 20
45.76113106606136
 30
0.0
 42
0.4142135623730951
  0
VERTEX
  5
647
  8
LAYER_1
 10
48.28800104884155
 20
45.63563106606136
 30
0.0
 42
0.4142135623730951
  0
VERTEX
  5
648
  8
LAYER_1
 10
48.41350104884157
 20
45.51013106606135
 30
0.0
 42
0.4142135623730951
  0
VERTEX
  5
649
  8
LAYER_1
 10
48.53900104884156
 20
45.63563106606136
 30
0.0
 42
0.4142135623730951
  0
SEQEND
  5
708
  8
LAYER_1
  0
POLYLINE
  5
C5
  8
LAYER_1
 66
     1
 10
0.0
 20
0.0
 30
0.0
 70
     1
  0
VERTEX
  5
64A
  8
LAYER_1
 10
68.25720104884155
 20
45.76113106606136
 30
0.0
 42
0.4142135623730951
  0
VERTEX
  5
64B
  8
LAYER_1
 10
68.13170104884153
 20
45.63563106606136
 30
0.0
 42
0.4142135623730951
  0
VERTEX
  5
64C
  8
LAYER_1
 10
68.25720104884155
 20
45.51013106606135
 30
0.0
 42
0.4142135623730951
  0
VERTEX
  5
64D
  8
LAYER_1
 10
68.38270104884154
 20
45.63563106606136
 30
0.0
 42
0.4142135623730951
  0
SEQEND
  5
709
  8
LAYER_1
  0
POLYLINE
  5
C6
  8
LAYER_1
 66
     1
 10
0.0
 20
0.0
 30
0.0
 70
     1
  0
VERTEX
  5
64E
  8
LAYER_1
 10
47.66448868973075
 20
27.21197782952409
 30
0.0
  0
VERTEX
  5
64F
  8
LAYER_1
 10
58.35198868973075
 20
27.21197782952409
 30
0.0
  0
VERTEX
  5
650
  8
LAYER_1
 10
58.35198868973075
 20
37.58697782952409
 30
0.0
  0
VERTEX
  5
651
  8
LAYER_1
 10
47.66448868973075
 20
37.58697782952409
 30
0.0
  0
SEQEND
  5
70A
  8
LAYER_1
  0
POLYLINE
  5
C7
  8
LAYER_1
 66
     1
 10
0.0
 20
0.0
 30
0.0
 70
     1
  0
VERTEX
  5
652
  8
LAYER_1
 10
50.91448868973075
 20
35.46197782952409
 30
0.0
  0
VERTEX
  5
653
  8
LAYER_1
 10
52.32068868973073
 20
35.46197782952409
 30
0.0
  0
VERTEX
  5
654
  8
LAYER_1
 10
52.32068868973073
 20
36.86817782952409
 30
0.0
  0
VERTEX
  5
655
  8
LAYER_1
 10
50.91448868973075
 20
36.86817782952409
 30
0.0
  0
SEQEND
  5
70B
  8
LAYER_1
  0
POLYLINE
  5
C8
  8
LAYER_1
 66
     1
 10
0.0
 20
0.0
 30
0.0
 70
     1
  0
VERTEX
  5
656
  8
LAYER_1
 10
53.91448868973075
 20
35.46197782952409
 30
0.0
  0
VERTEX
  5
657
  8
LAYER_1
 10
55.10198868973075
 20
35.46197782952409
 30
0.0
  0
VERTEX
  5
658
  8
LAYER_1
 10
55.10198868973075
 20
36.8681778295241
 30
0.0
  0
VERTEX
  5
659
  8
LAYER_1
 10
53.91448868973075
 20
36.8681778295241
 30
0.0
  0
SEQEND
  5
70C
  8
LAYER_1
  0
POLYLINE
  5
C9
  8
LAYER_1
 66
     1
 10
0.0
 20
0.0
 30
0.0
 70
     1
  0
VERTEX
  5
65A
  8
LAYER_1
 10
49.85198868973075
 20
27.08697782952409
 30
0.0
  0
VERTEX
  5
65B
  8
LAYER_1
 10
50.22698868973075
 20
27.08697782952409
 30
0.0
  0
VERTEX
  5
65C
  8
LAYER_1
 10
50.22698868973075
 20
37.71197782952409
 30
0.0
  0
VERTEX
  5
65D
  8
LAYER_1
 10
49.85198868973075
 20
37.71197782952409
 30
0.0
  0
SEQEND
  5
70D
  8
LAYER_1
  0
POLYLINE
  5
CA
  8
LAYER_1
 66
     1
 10
0.0
 20
0.0
 30
0.0
 70
     1
  0
VERTEX
  5
65E
  8
LAYER_1
 10
57.60198868973075
 20
27.08697782952409
 30
0.0
  0
VERTEX
  5
65F
  8
LAYER_1
 10
57.97698868973075
 20
27.08697782952409
 30
0.0
  0
VERTEX
  5
660
  8
LAYER_1
 10
57.97698868973075
 20
37.71197782952409
 30
0.0
  0
VERTEX
  5
661
  8
LAYER_1
 10
57.60198868973075
 20
37.71197782952409
 30
0.0
  0
SEQEND
  5
70E
  8
LAYER_1
  0
POLYLINE
  5
CB
  8
LAYER_1
 66
     1
 10
0.0
 20
0.0
 30
0.0
 70
     1
  0
VERTEX
  5
662
  8
LAYER_1
 10
25.07353308938636
 20
33.61213339464621
 30
0.0
  0
VERTEX
  5
663
  8
LAYER_1
 10
34.88603308938636
 20
33.61213339464621
 30
0.0
  0
VERTEX
  5
664
  8
LAYER_1
 10
34.88603308938636
 20
48.73713339464622
 30
0.0
  0
VERTEX
  5
665
  8
LAYER_1
 10
25.07353308938636
 20
48.73713339464622
 30
0.0
  0
SEQEND
  5
70F
  8
LAYER_1
  0
POLYLINE
  5
CC
  8
LAYER_1
 66
     1
 10
0.0
 20
0.0
 30
0.0
 70
     1
  0
VERTEX
  5
666
  8
LAYER_1
 10
25.3255961395689
 20
39.61213339464621
 30
0.0
  0
VERTEX
  5
667
  8
LAYER_1
 10
35.01103308938636
 20
39.61213339464621
 30
0.0
  0
VERTEX
  5
668
  8
LAYER_1
 10
35.01103308938636
 20
39.98713339464621
 30
0.0
  0
VERTEX
  5
669
  8
LAYER_1
 10
25.32420836078812
 20
39.98713339464621
 30
0.0
  0
VERTEX
  5
66A
  8
LAYER_1
 10
25.32353308938636
 20
39.98689405996216
 30
0.0
  0
VERTEX
  5
66B
  8
LAYER_1
 10
25.32353308938636
 20
48.86213339464622
 30
0.0
  0
VERTEX
  5
66C
  8
LAYER_1
 10
24.94853308938636
 20
48.86213339464622
 30
0.0
  0
VERTEX
  5
66D
  8
LAYER_1
 10
24.94853308938636
 20
33.48713339464621
 30
0.0
  0
VERTEX
  5
66E
  8
LAYER_1
 10
25.32353308938636
 20
33.48713339464621
 30
0.0
  0
VERTEX
  5
66F
  8
LAYER_1
 10
25.32353308938636
 20
39.61149989976079
 30
0.0
  0
SEQEND
  5
710
  8
LAYER_1
  0
POLYLINE
  5
CD
  8
LAYER_1
 66
     1
 10
0.0
 20
0.0
 30
0.0
 70
     1
  0
VERTEX
  5
670
  8
LAYER_1
 10
69.57081912306552
 20
25.37999510801502
 30
0.0
  0
VERTEX
  5
671
  8
LAYER_1
 10
59.75831912306555
 20
25.37999510801502
 30
0.0
  0
VERTEX
  5
672
  8
LAYER_1
 10
59.75831912306555
 20
40.50499510801502
 30
0.0
  0
VERTEX
  5
673
  8
LAYER_1
 10
69.57081912306552
 20
40.50499510801502
 30
0.0
  0
SEQEND
  5
711
  8
LAYER_1
  0
POLYLINE
  5
CE
  8
LAYER_1
 66
     1
 10
0.0
 20
0.0
 30
0.0
 70
     1
  0
VERTEX
  5
674
  8
LAYER_1
 10
69.31875607288299
 20
31.37999510801502
 30
0.0
  0
VERTEX
  5
675
  8
LAYER_1
 10
59.63331912306555
 20
31.37999510801502
 30
0.0
  0
VERTEX
  5
676
  8
LAYER_1
 10
59.63331912306555
 20
31.75499510801502
 30
0.0
  0
VERTEX
  5
677
  8
LAYER_1
 10
69.32014385166377
 20
31.75499510801502
 30
0.0
  0
VERTEX
  5
678
  8
LAYER_1
 10
69.32081912306552
 20
31.75475577333097
 30
0.0
  0
VERTEX
  5
679
  8
LAYER_1
 10
69.32081912306552
 20
40.62999510801502
 30
0.0
  0
VERTEX
  5
67A
  8
LAYER_1
 10
69.69581912306552
 20
40.62999510801502
 30
0.0
  0
VERTEX
  5
67B
  8
LAYER_1
 10
69.69581912306552
 20
25.25499510801502
 30
0.0
  0
VERTEX
  5
67C
  8
LAYER_1
 10
69.32081912306552
 20
25.25499510801502
 30
0.0
  0
VERTEX
  5
67D
  8
LAYER_1
 10
69.32081912306552
 20
31.3793616131296
 30
0.0
  0
SEQEND
  5
712
  8
LAYER_1
  0
POLYLINE
  5
CF
  8
LAYER_1
 66
     1
 10
0.0
 20
0.0
 30
0.0
 70
     1
  0
VERTEX
  5
67E
  8
LAYER_1
 10
36.77066249706479
 20
33.10591348035378
 30
0.0
  0
VERTEX
  5
67F
  8
LAYER_1
 10
44.39566249706479
 20
33.10591348035378
 30
0.0
  0
VERTEX
  5
680
  8
LAYER_1
 10
44.39566249706479
 20
40.73091348035378
 30
0.0
  0
VERTEX
  5
681
  8
LAYER_1
 10
36.77066249706479
 20
40.73091348035378
 30
0.0
  0
SEQEND
  5
713
  8
LAYER_1
  0
POLYLINE
  5
D0
  8
LAYER_1
 66
     1
 10
0.0
 20
0.0
 30
0.0
 70
     1
  0
VERTEX
  5
682
  8
LAYER_1
 10
44.14566249706479
 20
32.98091348035378
 30
0.0
  0
VERTEX
  5
683
  8
LAYER_1
 10
44.52066249706479
 20
32.98091348035378
 30
0.0
  0
VERTEX
  5
684
  8
LAYER_1
 10
44.52066249706479
 20
40.85591348035378
 30
0.0
  0
VERTEX
  5
685
  8
LAYER_1
 10
44.14566249706479
 20
40.85591348035378
 30
0.0
  0
SEQEND
  5
714
  8
LAYER_1
  0
POLYLINE
  5
D1
  8
LAYER_1
 66
     1
 10
0.0
 20
0.0
 30
0.0
 70
     1
  0
VERTEX
  5
686
  8
LAYER_1
 10
36.64566249706479
 20
32.98091348035378
 30
0.0
  0
VERTEX
  5
687
  8
LAYER_1
 10
37.02066249706479
 20
32.98091348035378
 30
0.0
  0
VERTEX
  5
688
  8
LAYER_1
 10
37.02066249706479
 20
40.85591348035378
 30
0.0
  0
VERTEX
  5
689
  8
LAYER_1
 10
36.64566249706479
 20
40.85591348035378
 30
0.0
  0
SEQEND
  5
715
  8
LAYER_1
  0
POLYLINE
  5
D2
  8
LAYER_1
 66
     1
 10
0.0
 20
0.0
 30
0.0
 70
     1
  0
VERTEX
  5
68A
  8
LAYER_1
 10
101.2837826292884
 20
3.996623283402258
 30
0.0
  0
VERTEX
  5
68B
  8
LAYER_1
 10
124.7837826292884
 20
3.996623283402258
 30
0.0
  0
VERTEX
  5
68C
  8
LAYER_1
 10
124.7837826292884
 20
29.49662328340226
 30
0.0
  0
VERTEX
  5
68D
  8
LAYER_1
 10
101.2837826292884
 20
29.49662328340226
 30
0.0
  0
SEQEND
  5
716
  8
LAYER_1
  0
POLYLINE
  5
D3
  8
LAYER_1
 66
     1
 10
0.0
 20
0.0
 30
0.0
 70
     1
  0
VERTEX
  5
68E
  8
LAYER_1
 10
101.1587826292884
 20
3.871623283402258
 30
0.0
  0
VERTEX
  5
68F
  8
LAYER_1
 10
124.9087826292884
 20
3.871623283402258
 30
0.0
  0
VERTEX
  5
690
  8
LAYER_1
 10
124.9087826292884
 20
29.62162328340226
 30
0.0
  0
VERTEX
  5
691
  8
LAYER_1
 10
101.1587826292884
 20
29.62162328340226
 30
0.0
  0
SEQEND
  5
717
  8
LAYER_1
  0
POLYLINE
  5
D4
  8
LAYER_1
 66
     1
 10
0.0
 20
0.0
 30
0.0
 70
     1
  0
VERTEX
  5
692
  8
LAYER_1
 10
101.5337826292884
 20
4.246623283402258
 30
0.0
  0
VERTEX
  5
693
  8
LAYER_1
 10
124.5337826292884
 20
4.246623283402258
 30
0.0
  0
VERTEX
  5
694
  8
LAYER_1
 10
124.5337826292884
 20
29.24662328340226
 30
0.0
  0
VERTEX
  5
695
  8
LAYER_1
 10
101.5337826292884
 20
29.24662328340226
 30
0.0
  0
SEQEND
  5
718
  8
LAYER_1
  0
POLYLINE
  5
D5
  8
LAYER_1
 66
     1
 10
0.0
 20
0.0
 30
0.0
 70
     1
  0
VERTEX
  5
696
  8
LAYER_1
 10
101.3231152891584
 20
31.22603878903782
 30
0.0
  0
VERTEX
  5
697
  8
LAYER_1
 10
124.8231152891584
 20
31.22603878903782
 30
0.0
  0
VERTEX
  5
698
  8
LAYER_1
 10
124.8231152891584
 20
48.60103878903782
 30
0.0
  0
VERTEX
  5
699
  8
LAYER_1
 10
101.3231152891584
 20
48.60103878903782
 30
0.0
  0
SEQEND
  5
719
  8
LAYER_1
  0
POLYLINE
  5
D6
  8
LAYER_1
 66
     1
 10
0.0
 20
0.0
 30
0.0
 70
     1
  0
VERTEX
  5
69A
  8
LAYER_1
 10
124.5731152891584
 20
31.10103878903782
 30
0.0
  0
VERTEX
  5
69B
  8
LAYER_1
 10
124.9481152891584
 20
31.10103878903782
 30
0.0
  0
VERTEX
  5
69C
  8
LAYER_1
 10
124.9481152891584
 20
48.72603878903782
 30
0.0
  0
VERTEX
  5
69D
  8
LAYER_1
 10
124.5731152891584
 20
48.72603878903782
 30
0.0
  0
SEQEND
  5
71A
  8
LAYER_1
  0
POLYLINE
  5
D7
  8
LAYER_1
 66
     1
 10
0.0
 20
0.0
 30
0.0
 70
     1
  0
VERTEX
  5
69E
  8
LAYER_1
 10
101.1981152891584
 20
31.10103878903782
 30
0.0
  0
VERTEX
  5
69F
  8
LAYER_1
 10
101.5731152891584
 20
31.10103878903782
 30
0.0
  0
VERTEX
  5
6A0
  8
LAYER_1
 10
101.5731152891584
 20
48.72603878903782
 30
0.0
  0
VERTEX
  5
6A1
  8
LAYER_1
 10
101.1981152891584
 20
48.72603878903782
 30
0.0
  0
SEQEND
  5
71B
  8
LAYER_1
  0
POLYLINE
  5
D8
  8
LAYER_1
 66
     1
 10
0.0
 20
0.0
 30
0.0
 70
     1
  0
VERTEX
  5
6A2
  8
LAYER_1
 10
105.1981152891584
 20
34.41403878903782
 30
0.0
 42
0.4142135623730951
  0
VERTEX
  5
6A3
  8
LAYER_1
 10
105.0726152891584
 20
34.28853878903782
 30
0.0
 42
0.4142135623730951
  0
VERTEX
  5
6A4
  8
LAYER_1
 10
105.1981152891584
 20
34.16303878903781
 30
0.0
 42
0.4142135623730951
  0
VERTEX
  5
6A5
  8
LAYER_1
 10
105.3236152891584
 20
34.28853878903782
 30
0.0
 42
0.4142135623730951
  0
SEQEND
  5
71C
  8
LAYER_1
  0
POLYLINE
  5
D9
  8
LAYER_1
 66
     1
 10
0.0
 20
0.0
 30
0.0
 70
     1
  0
VERTEX
  5
6A6
  8
LAYER_1
 10
121.1356152891584
 20
34.41403878903782
 30
0.0
 42
0.4142135623730951
  0
VERTEX
  5
6A7
  8
LAYER_1
 10
121.0101152891584
 20
34.28853878903782
 30
0.0
 42
0.4142135623730951
  0
VERTEX
  5
6A8
  8
LAYER_1
 10
121.1356152891584
 20
34.16303878903781
 30
0.0
 42
0.4142135623730951
  0
VERTEX
  5
6A9
  8
LAYER_1
 10
121.2611152891584
 20
34.28853878903782
 30
0.0
 42
0.4142135623730951
  0
SEQEND
  5
71D
  8
LAYER_1
  0
POLYLINE
  5
DA
  8
LAYER_1
 66
     1
 10
0.0
 20
0.0
 30
0.0
 70
     1
  0
VERTEX
  5
6AA
  8
LAYER_1
 10
121.1356152891584
 20
42.41403878903782
 30
0.0
 42
0.4142135623730951
  0
VERTEX
  5
6AB
  8
LAYER_1
 10
121.0101152891584
 20
42.28853878903782
 30
0.0
 42
0.4142135623730951
  0
VERTEX
  5
6AC
  8
LAYER_1
 10
121.1356152891584
 20
42.16303878903781
 30
0.0
 42
0.4142135623730951
  0
VERTEX
  5
6AD
  8
LAYER_1
 10
121.2611152891584
 20
42.28853878903782
 30
0.0
 42
0.4142135623730951
  0
SEQEND
  5
71E
  8
LAYER_1
  0
POLYLINE
  5
DB
  8
LAYER_1
 66
     1
 10
0.0
 20
0.0
 30
0.0
 70
     1
  0
VERTEX
  5
6AE
  8
LAYER_1
 10
105.1981152891584
 20
42.41403878903782
 30
0.0
 42
0.4142135623730951
  0
VERTEX
  5
6AF
  8
LAYER_1
 10
105.0726152891584
 20
42.28853878903782
 30
0.0
 42
0.4142135623730951
  0
VERTEX
  5
6B0
  8
LAYER_1
 10
105.1981152891584
 20
42.16303878903781
 30
0.0
 42
0.4142135623730951
  0
VERTEX
  5
6B1
  8
LAYER_1
 10
105.3236152891584
 20
42.28853878903782
 30
0.0
 42
0.4142135623730951
  0
SEQEND
  5
71F
  8
LAYER_1
  0
ENDSEC
  0
EOF
