  0
SECTION
  2
HEADER
  9
$ACADVER
  1
AC1009
  9
$DWGCODEPAGE
  3
ansi_1252
  9
$INSBASE
 10
0.0
 20
0.0
 30
0.0
  9
$EXTMIN
 10
0.0968054512712939
 20
-47.76320343673607
 30
0.0
  9
$EXTMAX
 10
145.0796256535328
 20
47.65936001965611
 30
0.0
  9
$LIMMIN
 10
0.0
 20
0.0
  9
$LIMMAX
 10
12.0
 20
9.0
  9
$ORTHOMODE
 70
     0
  9
$REGENMODE
 70
     1
  9
$FILLMODE
 70
     1
  9
$QTEXTMODE
 70
     0
  9
$MIRRTEXT
 70
     1
  9
$DRAGMODE
 70
     2
  9
$LTSCALE
 40
1.0
  9
$OSMODE
 70
    37
  9
$ATTMODE
 70
     1
  9
$TEXTSIZE
 40
0.2
  9
$TRACEWID
 40
0.05
  9
$TEXTSTYLE
  7
STANDARD
  9
$CLAYER
  8
0
  9
$CELTYPE
  6
BYLAYER
  9
$CECOLOR
 62
   256
  9
$DIMSCALE
 40
1.0
  9
$DIMASZ
 40
0.18
  9
$DIMEXO
 40
0.0625
  9
$DIMDLI
 40
0.38
  9
$DIMRND
 40
0.0
  9
$DIMDLE
 40
0.0
  9
$DIMEXE
 40
0.18
  9
$DIMTP
 40
0.0
  9
$DIMTM
 40
0.0
  9
$DIMTXT
 40
0.18
  9
$DIMCEN
 40
0.09
  9
$DIMTSZ
 40
0.0
  9
$DIMTOL
 70
     0
  9
$DIMLIM
 70
     0
  9
$DIMTIH
 70
     1
  9
$DIMTOH
 70
     1
  9
$DIMSE1
 70
     0
  9
$DIMSE2
 70
     0
  9
$DIMTAD
 70
     0
  9
$DIMZIN
 70
     0
  9
$DIMBLK
  1

  9
$DIMASO
 70
     1
  9
$DIMSHO
 70
     1
  9
$DIMPOST
  1

  9
$DIMAPOST
  1

  9
$DIMALT
 70
     0
  9
$DIMALTD
 70
     2
  9
$DIMALTF
 40
25.4
  9
$DIMLFAC
 40
1.0
  9
$DIMTOFL
 70
     0
  9
$DIMTVP
 40
0.0
  9
$DIMTIX
 70
     0
  9
$DIMSOXD
 70
     0
  9
$DIMSAH
 70
     0
  9
$DIMBLK1
  1

  9
$DIMBLK2
  1

  9
$DIMSTYLE
  2
STANDARD
  9
$DIMCLRD
 70
     0
  9
$DIMCLRE
 70
     0
  9
$DIMCLRT
 70
     0
  9
$DIMTFAC
 40
1.0
  9
$DIMGAP
 40
0.09
  9
$LUNITS
 70
     2
  9
$LUPREC
 70
     4
  9
$SKETCHINC
 40
0.1
  9
$FILLETRAD
 40
0.5
  9
$AUNITS
 70
     0
  9
$AUPREC
 70
     0
  9
$MENU
  1
.
  9
$ELEVATION
 40
0.0
  9
$PELEVATION
 40
0.0
  9
$THICKNESS
 40
0.0
  9
$LIMCHECK
 70
     0
  9
$CHAMFERA
 40
0.0
  9
$CHAMFERB
 40
0.0
  9
$SKPOLY
 70
     0
  9
$TDCREATE
 40
2454910.5
  9
$TDUPDATE
 40
2457528.662184873
  9
$TDINDWG
 40
0.0000000116
  9
$TDUSRTIMER
 40
0.0000000116
  9
$USRTIMER
 70
     1
  9
$ANGBASE
 50
0.0
  9
$ANGDIR
 70
     0
  9
$PDMODE
 70
     0
  9
$PDSIZE
 40
0.0
  9
$PLINEWID
 40
0.0
  9
$COORDS
 70
     1
  9
$SPLFRAME
 70
     0
  9
$SPLINETYPE
 70
     6
  9
$SPLINESEGS
 70
     8
  9
$ATTDIA
 70
     0
  9
$ATTREQ
 70
     1
  9
$HANDLING
 70
     1
  9
$HANDSEED
  5
263
  9
$SURFTAB1
 70
     6
  9
$SURFTAB2
 70
     6
  9
$SURFTYPE
 70
     6
  9
$SURFU
 70
     6
  9
$SURFV
 70
     6
  9
$UCSNAME
  2

  9
$UCSORG
 10
0.0
 20
0.0
 30
0.0
  9
$UCSXDIR
 10
1.0
 20
0.0
 30
0.0
  9
$UCSYDIR
 10
0.0
 20
1.0
 30
0.0
  9
$PUCSNAME
  2

  9
$PUCSORG
 10
0.0
 20
0.0
 30
0.0
  9
$PUCSXDIR
 10
1.0
 20
0.0
 30
0.0
  9
$PUCSYDIR
 10
0.0
 20
1.0
 30
0.0
  9
$USERI1
 70
     0
  9
$USERI2
 70
     0
  9
$USERI3
 70
     0
  9
$USERI4
 70
     0
  9
$USERI5
 70
     0
  9
$USERR1
 40
0.0
  9
$USERR2
 40
0.0
  9
$USERR3
 40
0.0
  9
$USERR4
 40
0.0
  9
$USERR5
 40
0.0
  9
$WORLDVIEW
 70
     1
  9
$SHADEDGE
 70
     3
  9
$SHADEDIF
 70
    70
  9
$TILEMODE
 70
     1
  9
$MAXACTVP
 70
    64
  9
$PLIMCHECK
 70
     0
  9
$PEXTMIN
 10
1.000000000000000E+20
 20
1.000000000000000E+20
 30
1.000000000000000E+20
  9
$PEXTMAX
 10
-1.000000000000000E+20
 20
-1.000000000000000E+20
 30
-1.000000000000000E+20
  9
$PLIMMIN
 10
0.0
 20
0.0
  9
$PLIMMAX
 10
12.0
 20
9.0
  9
$UNITMODE
 70
     0
  9
$VISRETAIN
 70
     1
  9
$PLINEGEN
 70
     0
  9
$PSLTSCALE
 70
     1
  0
ENDSEC
  0
SECTION
  2
TABLES
  0
TABLE
  2
VPORT
 70
     1
  0
VPORT
  2
*ACTIVE
 70
     0
 10
0.0
 20
0.0
 11
1.0
 21
1.0
 12
10.42990654205607
 22
4.5
 13
0.0
 23
0.0
 14
0.5
 24
0.5
 15
0.5
 25
0.5
 16
0.0
 26
0.0
 36
1.0
 17
0.0
 27
0.0
 37
0.0
 40
9.0
 41
1.972972972850329
 42
50.0
 43
0.0
 44
0.0
 50
0.0
 51
0.0
 71
     0
 72
   100
 73
     1
 74
     3
 75
     0
 76
     0
 77
     0
 78
     0
  0
ENDTAB
  0
TABLE
  2
LTYPE
 70
     2
  0
LTYPE
  2
CONTINUOUS
 70
     0
  3
Solid line
 72
    65
 73
     0
 40
0.0
  0
LTYPE
  2
CONTINUOUS2
 70
     0
  3
Solid Line
 72
    65
 73
     0
 40
0.0
  0
ENDTAB
  0
TABLE
  2
LAYER
 70
     2
  0
LAYER
  2
0
 70
     0
 62
     7
  6
CONTINUOUS
  0
LAYER
  2
LAYER_1
 70
     0
 62
    18
  6
CONTINUOUS
  0
ENDTAB
  0
TABLE
  2
STYLE
 70
     1
  0
STYLE
  2
STANDARD
 70
     0
 40
0.0
 41
1.0
 50
0.0
 71
     0
 42
0.2
  3
txt
  4

  0
ENDTAB
  0
TABLE
  2
VIEW
 70
     0
  0
ENDTAB
  0
TABLE
  2
UCS
 70
     0
  0
ENDTAB
  0
TABLE
  2
APPID
 70
     1
  0
APPID
  2
ACAD
 70
     0
  0
ENDTAB
  0
TABLE
  2
DIMSTYLE
 70
     1
  0
DIMSTYLE
  2
STANDARD
 70
     0
  3

  4

  5

  6

  7

 40
1.0
 41
0.18
 42
0.0625
 43
0.38
 44
0.18
 45
0.0
 46
0.0
 47
0.0
 48
0.0
140
0.18
141
0.09
142
0.0
143
25.4
144
1.0
145
0.0
146
1.0
147
0.09
 71
     0
 72
     0
 73
     1
 74
     1
 75
     0
 76
     0
 77
     0
 78
     0
170
     0
171
     2
172
     0
173
     0
174
     0
175
     0
176
     0
177
     0
178
     0
  0
ENDTAB
  0
ENDSEC
  0
SECTION
  2
BLOCKS
  0
BLOCK
  8
0
  2
$MODEL_SPACE
 70
     0
 10
0.0
 20
0.0
 30
0.0
  3
$MODEL_SPACE
  1

  0
ENDBLK
  5
21
  8
0
  0
BLOCK
 67
     1
  8
0
  2
$PAPER_SPACE
 70
     0
 10
0.0
 20
0.0
 30
0.0
  3
$PAPER_SPACE
  1

  0
ENDBLK
  5
1D
 67
     1
  8
0
  0
ENDSEC
  0
SECTION
  2
ENTITIES
  0
POLYLINE
  5
70
  8
LAYER_1
 66
     1
 10
0.0
 20
0.0
 30
0.0
 70
     1
  0
VERTEX
  5
A1
  8
LAYER_1
 10
80.88803691512453
 20
-47.33399421830228
 30
0.0
  0
VERTEX
  5
A2
  8
LAYER_1
 10
80.25929883634075
 20
-41.74424346992545
 30
0.0
 42
-0.4142135623730952
  0
VERTEX
  5
A3
  8
LAYER_1
 10
81.14125664430136
 20
-40.63873434511851
 30
0.0
  0
VERTEX
  5
A4
  8
LAYER_1
 10
90.20565976232453
 20
-39.61916555610227
 30
0.0
  0
VERTEX
  5
A5
  8
LAYER_1
 10
90.20565976232452
 20
-4.507753419102272
 30
0.0
  0
VERTEX
  5
A6
  8
LAYER_1
 10
68.02235784162453
 20
-4.507753419102272
 30
0.0
  0
VERTEX
  5
A7
  8
LAYER_1
 10
67.96699029462452
 20
-4.507753419102272
 30
0.0
  0
VERTEX
  5
A8
  8
LAYER_1
 10
67.95692346792453
 20
-4.507753419102272
 30
0.0
  0
VERTEX
  5
A9
  8
LAYER_1
 10
67.90155592092452
 20
-4.507753419102272
 30
0.0
  0
VERTEX
  5
AA
  8
LAYER_1
 10
67.90155592092071
 20
-35.53319447900228
 30
0.0
 42
-0.1989123673796596
  0
VERTEX
  5
AB
  8
LAYER_1
 10
67.35115154665472
 20
-36.86198818403246
 30
0.0
  0
VERTEX
  5
AC
  8
LAYER_1
 10
61.35173349512453
 20
-42.86140623560229
 30
0.0
  0
VERTEX
  5
AD
  8
LAYER_1
 10
61.41126486282454
 20
-42.88017640370228
 30
0.0
  0
VERTEX
  5
AE
  8
LAYER_1
 10
61.35173349512453
 20
-42.86140623560229
 30
0.0
  0
VERTEX
  5
AF
  8
LAYER_1
 10
62.14037143002453
 20
-47.33399421830228
 30
0.0
  0
VERTEX
  5
B0
  8
LAYER_1
 10
62.19659311072454
 20
-47.33399421830228
 30
0.0
  0
VERTEX
  5
B1
  8
LAYER_1
 10
62.20681523452454
 20
-47.33399421830228
 30
0.0
  0
VERTEX
  5
B2
  8
LAYER_1
 10
62.26303691512453
 20
-47.33399421830228
 30
0.0
  0
VERTEX
  5
B3
  8
LAYER_1
 10
80.88803691512453
 20
-47.33399421830228
 30
0.0
  0
VERTEX
  5
B4
  8
LAYER_1
 10
62.26303691512453
 20
-47.33399421830228
 30
0.0
  0
SEQEND
  5
239
  8
LAYER_1
  0
POLYLINE
  5
71
  8
LAYER_1
 66
     1
 10
0.0
 20
0.0
 30
0.0
 70
     1
  0
VERTEX
  5
B5
  8
LAYER_1
 10
3.255908027874661
 20
-9.258030490472954
 30
0.0
  0
VERTEX
  5
B6
  8
LAYER_1
 10
18.27888570357466
 20
-9.258030490472954
 30
0.0
 42
0.4142135623731092
  0
VERTEX
  5
B7
  8
LAYER_1
 10
18.40388570357466
 20
-9.383030490472954
 30
0.0
  0
VERTEX
  5
B8
  8
LAYER_1
 10
19.15388570357466
 20
-9.383030490472954
 30
0.0
  0
VERTEX
  5
B9
  8
LAYER_1
 10
21.72710900827639
 20
-11.95625379517469
 30
0.0
 42
0.6681786379193018
  0
VERTEX
  5
BA
  8
LAYER_1
 10
21.90388570357466
 20
-12.38303049047289
 30
0.0
  0
VERTEX
  5
BB
  8
LAYER_1
 10
21.90388570357466
 20
-29.88303049047303
 30
0.0
 42
0.6681786379192985
  0
VERTEX
  5
BC
  8
LAYER_1
 10
21.72710900827639
 20
-30.30980718577123
 30
0.0
  0
VERTEX
  5
BD
  8
LAYER_1
 10
19.15388570357466
 20
-32.88303049047295
 30
0.0
  0
VERTEX
  5
BE
  8
LAYER_1
 10
18.46638570357466
 20
-32.88303049047295
 30
0.0
 42
0.414213562373098
  0
VERTEX
  5
BF
  8
LAYER_1
 10
18.34138570357466
 20
-33.00803049047295
 30
0.0
  0
VERTEX
  5
C0
  8
LAYER_1
 10
3.255908027874657
 20
-33.00803049047295
 30
0.0
  0
VERTEX
  5
C1
  8
LAYER_1
 10
3.255908027874661
 20
-9.258030490472954
 30
0.0
  0
VERTEX
  5
C2
  8
LAYER_1
 10
3.255908027874657
 20
-33.00803049047295
 30
0.0
  0
SEQEND
  5
23A
  8
LAYER_1
  0
POLYLINE
  5
72
  8
LAYER_1
 66
     1
 10
0.0
 20
0.0
 30
0.0
 70
     1
  0
VERTEX
  5
C3
  8
LAYER_1
 10
60.57442511113159
 20
-21.77309741549318
 30
0.0
 42
0.4142135623730965
  0
VERTEX
  5
C4
  8
LAYER_1
 10
59.46891598635146
 20
-22.65505522338761
 30
0.0
  0
VERTEX
  5
C5
  8
LAYER_1
 10
58.44934719728524
 20
-31.71945834136076
 30
0.0
  0
VERTEX
  5
C6
  8
LAYER_1
 10
23.33793506038526
 20
-31.71945834136076
 30
0.0
  0
VERTEX
  5
C7
  8
LAYER_1
 10
23.33793506038526
 20
-9.536156420660774
 30
0.0
  0
VERTEX
  5
C8
  8
LAYER_1
 10
23.33793506038526
 20
-9.415354499960785
 30
0.0
  0
VERTEX
  5
C9
  8
LAYER_1
 10
32.45493468329092
 20
-9.415354499960785
 30
0.0
 42
0.0554572211161112
  0
VERTEX
  5
CA
  8
LAYER_1
 10
32.4610946890072
 20
-9.470722046951693
 30
0.0
  0
VERTEX
  5
CB
  8
LAYER_1
 10
32.46316830571455
 20
-9.479223751513306
 30
0.0
  0
VERTEX
  5
CC
  8
LAYER_1
 10
32.46554273771122
 20
-9.487663340903717
 30
0.0
  0
VERTEX
  5
CD
  8
LAYER_1
 10
32.46821232378675
 20
-9.496025814444668
 30
0.0
  0
VERTEX
  5
CE
  8
LAYER_1
 10
32.47117140273071
 20
-9.504296171457906
 30
0.0
  0
VERTEX
  5
CF
  8
LAYER_1
 10
32.47441431333264
 20
-9.512459411265173
 30
0.0
  0
VERTEX
  5
D0
  8
LAYER_1
 10
32.4779353943821
 20
-9.520500533188212
 30
0.0
  0
VERTEX
  5
D1
  8
LAYER_1
 10
32.48172898466864
 20
-9.52840453654877
 30
0.0
  0
VERTEX
  5
D2
  8
LAYER_1
 10
32.4857894229818
 20
-9.53615642066859
 30
0.0
 42
0.2742451789134499
  0
VERTEX
  5
D3
  8
LAYER_1
 10
32.70684280448526
 20
-9.667262621155118
 30
0.0
  0
VERTEX
  5
D4
  8
LAYER_1
 10
37.45493468332955
 20
-9.667262621155118
 30
0.0
 42
0.2722143904641978
  0
VERTEX
  5
D5
  8
LAYER_1
 10
37.67408817893629
 20
-9.53615642066859
 30
0.0
  0
VERTEX
  5
D6
  8
LAYER_1
 10
37.6809099023443
 20
-9.522858899420397
 30
0.0
  0
VERTEX
  5
D7
  8
LAYER_1
 10
37.68697910096178
 20
-9.509168263494402
 30
0.0
  0
VERTEX
  5
D8
  8
LAYER_1
 10
37.69215462210375
 20
-9.495129819403546
 30
0.0
  0
VERTEX
  5
D9
  8
LAYER_1
 10
37.69629531308524
 20
-9.48078887366077
 30
0.0
  0
VERTEX
  5
DA
  8
LAYER_1
 10
37.69878208538949
 20
-9.470722046956269
 30
0.0
 42
0.0554556003617324
  0
VERTEX
  5
DB
  8
LAYER_1
 10
37.70494190992542
 20
-9.415354499960785
 30
0.0
  0
VERTEX
  5
DC
  8
LAYER_1
 10
48.45495206359092
 20
-9.415354499960785
 30
0.0
 42
0.0554572211161627
  0
VERTEX
  5
DD
  8
LAYER_1
 10
48.4611120693072
 20
-9.470722046951693
 30
0.0
  0
VERTEX
  5
DE
  8
LAYER_1
 10
48.46318568601455
 20
-9.479223751513306
 30
0.0
  0
VERTEX
  5
DF
  8
LAYER_1
 10
48.46556011801121
 20
-9.487663340903723
 30
0.0
  0
VERTEX
  5
E0
  8
LAYER_1
 10
48.46822970408675
 20
-9.496025814444678
 30
0.0
  0
VERTEX
  5
E1
  8
LAYER_1
 10
48.4711887830307
 20
-9.50429617145792
 30
0.0
  0
VERTEX
  5
E2
  8
LAYER_1
 10
48.47443169363264
 20
-9.51245941126519
 30
0.0
  0
VERTEX
  5
E3
  8
LAYER_1
 10
48.47795277468209
 20
-9.520500533188237
 30
0.0
  0
VERTEX
  5
E4
  8
LAYER_1
 10
48.48174636496863
 20
-9.528404536548798
 30
0.0
  0
VERTEX
  5
E5
  8
LAYER_1
 10
48.4858068032818
 20
-9.536156420668618
 30
0.0
 42
0.2742451789134459
  0
VERTEX
  5
E6
  8
LAYER_1
 10
48.70686018478525
 20
-9.667262621155118
 30
0.0
  0
VERTEX
  5
E7
  8
LAYER_1
 10
53.45495206357955
 20
-9.667262621155103
 30
0.0
 42
0.2722143904641995
  0
VERTEX
  5
E8
  8
LAYER_1
 10
53.6741055591363
 20
-9.536156420668576
 30
0.0
  0
VERTEX
  5
E9
  8
LAYER_1
 10
53.68092728258743
 20
-9.52285889942376
 30
0.0
  0
VERTEX
  5
EA
  8
LAYER_1
 10
53.68699648128067
 20
-9.509168263511558
 30
0.0
  0
VERTEX
  5
EB
  8
LAYER_1
 10
53.69217200246396
 20
-9.495129819425909
 30
0.0
  0
VERTEX
  5
EC
  8
LAYER_1
 10
53.69631269338526
 20
-9.480788873660757
 30
0.0
  0
VERTEX
  5
ED
  8
LAYER_1
 10
53.6987994655895
 20
-9.470722046956254
 30
0.0
 42
0.0554556003617094
  0
VERTEX
  5
EE
  8
LAYER_1
 10
53.70495929017542
 20
-9.41535449996077
 30
0.0
  0
VERTEX
  5
EF
  8
LAYER_1
 10
54.36337612018524
 20
-9.415354499956933
 30
0.0
 42
0.1989123673796581
  0
VERTEX
  5
F0
  8
LAYER_1
 10
55.69216982526543
 20
-8.864950125740947
 30
0.0
  0
VERTEX
  5
F1
  8
LAYER_1
 10
61.69158787678525
 20
-2.865532074260784
 30
0.0
  0
VERTEX
  5
F2
  8
LAYER_1
 10
66.16417585948524
 20
-3.654170009160751
 30
0.0
  0
VERTEX
  5
F3
  8
LAYER_1
 10
66.16417585948524
 20
-3.710391689860771
 30
0.0
  0
VERTEX
  5
F4
  8
LAYER_1
 10
66.16417585948524
 20
-3.776835494260766
 30
0.0
  0
VERTEX
  5
F5
  8
LAYER_1
 10
66.16417585948524
 20
-22.40183549426077
 30
0.0
  0
SEQEND
  5
23B
  8
LAYER_1
  0
POLYLINE
  5
73
  8
LAYER_1
 66
     1
 10
0.0
 20
0.0
 30
0.0
 70
     1
  0
VERTEX
  5
F6
  8
LAYER_1
 10
47.39814887313662
 20
-44.91800578386395
 30
0.0
 42
0.4142135623730951
  0
VERTEX
  5
F7
  8
LAYER_1
 10
48.64814887313662
 20
-46.16800578386395
 30
0.0
 42
0.4142135623730951
  0
VERTEX
  5
F8
  8
LAYER_1
 10
49.89814887313663
 20
-44.91800578386395
 30
0.0
 42
0.4142135623730951
  0
VERTEX
  5
F9
  8
LAYER_1
 10
48.64814887313663
 20
-43.66800578386395
 30
0.0
 42
0.4142135623730951
  0
SEQEND
  5
23C
  8
LAYER_1
  0
POLYLINE
  5
74
  8
LAYER_1
 66
     1
 10
0.0
 20
0.0
 30
0.0
 70
     1
  0
VERTEX
  5
FA
  8
LAYER_1
 10
59.89814887313663
 20
-47.53880770456395
 30
0.0
  0
VERTEX
  5
FB
  8
LAYER_1
 10
36.39814887313663
 20
-47.53880770456395
 30
0.0
  0
VERTEX
  5
FC
  8
LAYER_1
 10
36.39814887313663
 20
-47.41800578386395
 30
0.0
  0
VERTEX
  5
FD
  8
LAYER_1
 10
36.39814887313663
 20
-33.16800578386395
 30
0.0
  0
VERTEX
  5
FE
  8
LAYER_1
 10
36.39814887313663
 20
-33.04720386316394
 30
0.0
  0
VERTEX
  5
FF
  8
LAYER_1
 10
59.89814887313663
 20
-33.04720386316394
 30
0.0
  0
VERTEX
  5
100
  8
LAYER_1
 10
59.89814887313663
 20
-33.16800578386395
 30
0.0
  0
VERTEX
  5
101
  8
LAYER_1
 10
59.89814887313663
 20
-47.41800578386395
 30
0.0
  0
SEQEND
  5
23D
  8
LAYER_1
  0
POLYLINE
  5
75
  8
LAYER_1
 66
     1
 10
0.0
 20
0.0
 30
0.0
 70
     1
  0
VERTEX
  5
102
  8
LAYER_1
 10
36.89814887313663
 20
-38.73050578386395
 30
0.0
  0
VERTEX
  5
103
  8
LAYER_1
 10
36.89814887313663
 20
-41.85550578386395
 30
0.0
 42
0.4142135623730946
  0
VERTEX
  5
104
  8
LAYER_1
 10
39.39814887313663
 20
-44.35550578386395
 30
0.0
  0
VERTEX
  5
105
  8
LAYER_1
 10
40.14814887313663
 20
-44.35550578386395
 30
0.0
  0
VERTEX
  5
106
  8
LAYER_1
 10
40.14814887313663
 20
-36.23050578386395
 30
0.0
  0
VERTEX
  5
107
  8
LAYER_1
 10
39.39814887313663
 20
-36.23050578386395
 30
0.0
 42
0.4142135623730947
  0
SEQEND
  5
23E
  8
LAYER_1
  0
POLYLINE
  5
76
  8
LAYER_1
 66
     1
 10
0.0
 20
0.0
 30
0.0
 70
     1
  0
VERTEX
  5
108
  8
LAYER_1
 10
41.39817070511778
 20
-47.76320343673607
 30
0.0
  0
VERTEX
  5
109
  8
LAYER_1
 10
41.65817070511778
 20
-47.76320343673607
 30
0.0
  0
VERTEX
  5
10A
  8
LAYER_1
 10
41.65817070511778
 20
-32.86320343673607
 30
0.0
  0
VERTEX
  5
10B
  8
LAYER_1
 10
41.39817070511778
 20
-32.86320343673607
 30
0.0
  0
SEQEND
  5
23F
  8
LAYER_1
  0
POLYLINE
  5
77
  8
LAYER_1
 66
     1
 10
0.0
 20
0.0
 30
0.0
 70
     1
  0
VERTEX
  5
10C
  8
LAYER_1
 10
0.0968054512712939
 20
-47.11507959485839
 30
0.0
  0
VERTEX
  5
10D
  8
LAYER_1
 10
34.84680545127129
 20
-47.11507959485839
 30
0.0
  0
VERTEX
  5
10E
  8
LAYER_1
 10
34.84680545127129
 20
-34.49007959485839
 30
0.0
  0
VERTEX
  5
10F
  8
LAYER_1
 10
0.0968054512712939
 20
-34.49007959485839
 30
0.0
  0
VERTEX
  5
110
  8
LAYER_1
 10
0.0968054512712939
 20
-47.11507959485839
 30
0.0
  0
VERTEX
  5
111
  8
LAYER_1
 10
0.0968054512712939
 20
-34.49007959485839
 30
0.0
  0
SEQEND
  5
240
  8
LAYER_1
  0
POLYLINE
  5
78
  8
LAYER_1
 66
     1
 10
0.0
 20
0.0
 30
0.0
 70
     1
  0
VERTEX
  5
112
  8
LAYER_1
 10
5.971805451271287
 20
-44.42757959485839
 30
0.0
  0
VERTEX
  5
113
  8
LAYER_1
 10
23.9718054512713
 20
-44.42757959485839
 30
0.0
 42
0.4142135623730949
  0
VERTEX
  5
114
  8
LAYER_1
 10
24.9718054512713
 20
-43.42757959485839
 30
0.0
  0
VERTEX
  5
115
  8
LAYER_1
 10
24.9718054512713
 20
-38.17757959485839
 30
0.0
 42
0.4142135623730957
  0
VERTEX
  5
116
  8
LAYER_1
 10
23.9718054512713
 20
-37.17757959485839
 30
0.0
  0
VERTEX
  5
117
  8
LAYER_1
 10
5.971805451271287
 20
-37.17757959485839
 30
0.0
 42
0.414213562373094
  0
VERTEX
  5
118
  8
LAYER_1
 10
4.971805451271287
 20
-38.17757959485839
 30
0.0
  0
VERTEX
  5
119
  8
LAYER_1
 10
4.971805451271287
 20
-43.42757959485839
 30
0.0
 42
0.4142135623730936
  0
SEQEND
  5
241
  8
LAYER_1
  0
POLYLINE
  5
79
  8
LAYER_1
 66
     1
 10
0.0
 20
0.0
 30
0.0
 70
     1
  0
VERTEX
  5
11A
  8
LAYER_1
 10
36.27932552539112
 20
-6.222731187495278
 30
0.0
  0
VERTEX
  5
11B
  8
LAYER_1
 10
36.27932552539112
 20
-4.722731187495278
 30
0.0
 42
-0.414213562373094
  0
VERTEX
  5
11C
  8
LAYER_1
 10
36.52932552539112
 20
-4.472731187495278
 30
0.0
  0
VERTEX
  5
11D
  8
LAYER_1
 10
49.77932552539112
 20
-4.472731187495278
 30
0.0
 42
-0.4142135623730923
  0
VERTEX
  5
11E
  8
LAYER_1
 10
50.02932552539112
 20
-4.722731187495278
 30
0.0
  0
VERTEX
  5
11F
  8
LAYER_1
 10
50.02932552539112
 20
-6.222731187495278
 30
0.0
 42
-0.4142135623730954
  0
VERTEX
  5
120
  8
LAYER_1
 10
49.77932552539112
 20
-6.472731187495285
 30
0.0
  0
VERTEX
  5
121
  8
LAYER_1
 10
36.52932552539112
 20
-6.472731187495285
 30
0.0
 42
-0.414213562373094
  0
VERTEX
  5
122
  8
LAYER_1
 10
36.27932705211335
 20
-6.22307301179066
 30
0.0
  0
SEQEND
  5
242
  8
LAYER_1
  0
POLYLINE
  5
7A
  8
LAYER_1
 66
     1
 10
0.0
 20
0.0
 30
0.0
 70
     1
  0
VERTEX
  5
123
  8
LAYER_1
 10
55.02932552539112
 20
-7.847731187495285
 30
0.0
  0
VERTEX
  5
124
  8
LAYER_1
 10
31.27932552539112
 20
-7.847731187495285
 30
0.0
  0
VERTEX
  5
125
  8
LAYER_1
 10
31.27932552539112
 20
-2.824753511795279
 30
0.0
  0
VERTEX
  5
126
  8
LAYER_1
 10
55.02932552539112
 20
-2.824753511795279
 30
0.0
  0
SEQEND
  5
243
  8
LAYER_1
  0
POLYLINE
  5
7B
  8
LAYER_1
 66
     1
 10
0.0
 20
0.0
 30
0.0
 70
     1
  0
VERTEX
  5
127
  8
LAYER_1
 10
90.26960096230331
 20
-39.67240667292978
 30
0.0
  0
VERTEX
  5
128
  8
LAYER_1
 10
81.15331100127602
 20
-40.71532764755268
 30
0.0
  0
VERTEX
  5
129
  8
LAYER_1
 10
80.33271617392816
 20
-42.17682671660965
 30
0.0
  0
VERTEX
  5
12A
  8
LAYER_1
 10
80.3130031115065
 20
-42.18929267645739
 30
0.0
  0
VERTEX
  5
12B
  8
LAYER_1
 10
80.11419649336223
 20
-40.41061339106491
 30
0.0
  0
VERTEX
  5
12C
  8
LAYER_1
 10
80.13047270654357
 20
-40.40889972435575
 30
0.0
  0
VERTEX
  5
12D
  8
LAYER_1
 10
81.14127070502083
 20
-40.29870343674733
 30
0.0
  0
VERTEX
  5
12E
  8
LAYER_1
 10
90.2056707049669
 20
-39.27920343675302
 30
0.0
  0
VERTEX
  5
12F
  8
LAYER_1
 10
90.37612439805123
 20
-39.26051405147746
 30
0.0
  0
SEQEND
  5
244
  8
LAYER_1
  0
POLYLINE
  5
7C
  8
LAYER_1
 66
     1
 10
0.0
 20
0.0
 30
0.0
 70
     1
  0
VERTEX
  5
130
  8
LAYER_1
 10
58.50258831421275
 20
-31.78339954133956
 30
0.0
  0
VERTEX
  5
131
  8
LAYER_1
 10
59.54550928883565
 20
-22.66710958031227
 30
0.0
  0
VERTEX
  5
132
  8
LAYER_1
 10
61.00700835789262
 20
-21.84651475296441
 30
0.0
  0
VERTEX
  5
133
  8
LAYER_1
 10
61.01947431774038
 20
-21.82680169054275
 30
0.0
  0
VERTEX
  5
134
  8
LAYER_1
 10
59.24079503234788
 20
-21.62799507239848
 30
0.0
  0
VERTEX
  5
135
  8
LAYER_1
 10
59.23908136563872
 20
-21.64427128557982
 30
0.0
  0
VERTEX
  5
136
  8
LAYER_1
 10
59.1288850780303
 20
-22.65506928405708
 30
0.0
  0
VERTEX
  5
137
  8
LAYER_1
 10
58.10938507803599
 20
-31.71946928400315
 30
0.0
  0
VERTEX
  5
138
  8
LAYER_1
 10
58.09069569276044
 20
-31.88992297708748
 30
0.0
  0
SEQEND
  5
245
  8
LAYER_1
  0
POLYLINE
  5
7D
  8
LAYER_1
 66
     1
 10
0.0
 20
0.0
 30
0.0
 70
     1
  0
VERTEX
  5
139
  8
LAYER_1
 10
48.32810879206934
 20
46.2939015420418
 30
0.0
  0
VERTEX
  5
13A
  8
LAYER_1
 10
30.20310879206934
 20
46.2939015420418
 30
0.0
  0
VERTEX
  5
13B
  8
LAYER_1
 10
30.20310879206934
 20
40.45390154204181
 30
0.0
  0
VERTEX
  5
13C
  8
LAYER_1
 10
48.32810879206934
 20
40.45390154204181
 30
0.0
  0
VERTEX
  5
13D
  8
LAYER_1
 10
48.32810879206934
 20
46.2939015420418
 30
0.0
  0
VERTEX
  5
13E
  8
LAYER_1
 10
48.32810879206934
 20
40.45390154204181
 30
0.0
  0
SEQEND
  5
246
  8
LAYER_1
  0
POLYLINE
  5
7E
  8
LAYER_1
 66
     1
 10
0.0
 20
0.0
 30
0.0
 70
     1
  0
VERTEX
  5
13F
  8
LAYER_1
 10
90.21858314391238
 20
3.952443339161441
 30
0.0
  0
VERTEX
  5
140
  8
LAYER_1
 10
90.21858314391238
 20
22.08244333916142
 30
0.0
  0
VERTEX
  5
141
  8
LAYER_1
 10
82.20135301391238
 20
23.00994333916143
 30
0.0
  0
VERTEX
  5
142
  8
LAYER_1
 10
82.20135301391238
 20
3.029943339161427
 30
0.0
  0
VERTEX
  5
143
  8
LAYER_1
 10
90.21858314391238
 20
3.952443339161441
 30
0.0
  0
VERTEX
  5
144
  8
LAYER_1
 10
82.20135301391238
 20
3.029943339161427
 30
0.0
  0
SEQEND
  5
247
  8
LAYER_1
  0
POLYLINE
  5
7F
  8
LAYER_1
 66
     1
 10
0.0
 20
0.0
 30
0.0
 70
     1
  0
VERTEX
  5
145
  8
LAYER_1
 10
93.52796667002067
 20
36.55812038988152
 30
0.0
  0
VERTEX
  5
146
  8
LAYER_1
 10
93.52796667002067
 20
42.18312038988152
 30
0.0
  0
VERTEX
  5
147
  8
LAYER_1
 10
91.52796667002067
 20
42.18312038988152
 30
0.0
  0
VERTEX
  5
148
  8
LAYER_1
 10
91.52796667002067
 20
36.55812038988152
 30
0.0
  0
VERTEX
  5
149
  8
LAYER_1
 10
93.52796667002067
 20
36.55812038988152
 30
0.0
  0
VERTEX
  5
14A
  8
LAYER_1
 10
91.52796667002067
 20
36.55812038988152
 30
0.0
  0
SEQEND
  5
248
  8
LAYER_1
  0
POLYLINE
  5
80
  8
LAYER_1
 66
     1
 10
0.0
 20
0.0
 30
0.0
 70
     1
  0
VERTEX
  5
14B
  8
LAYER_1
 10
19.79589567814187
 20
35.27026313459156
 30
0.0
  0
VERTEX
  5
14C
  8
LAYER_1
 10
7.157227823441872
 20
35.27026313459156
 30
0.0
  0
VERTEX
  5
14D
  8
LAYER_1
 10
6.414061750741865
 20
30.64540469589155
 30
0.0
  0
VERTEX
  5
14E
  8
LAYER_1
 10
4.697789723741877
 20
30.64540469589156
 30
0.0
 42
0.2687580112486322
  0
VERTEX
  5
14F
  8
LAYER_1
 10
2.962728866360621
 20
29.64017292078599
 30
0.0
  0
VERTEX
  5
150
  8
LAYER_1
 10
1.116500893410631
 20
26.42000785158599
 30
0.0
 42
0.1308850111196302
  0
VERTEX
  5
151
  8
LAYER_1
 10
0.8515617507418654
 20
25.42523962669156
 30
0.0
  0
VERTEX
  5
152
  8
LAYER_1
 10
0.8515617507418511
 20
4.332904695891555
 30
0.0
 42
0.4142135623730958
  0
VERTEX
  5
153
  8
LAYER_1
 10
2.851561750741851
 20
2.332904695891555
 30
0.0
  0
VERTEX
  5
154
  8
LAYER_1
 10
24.10156175074187
 20
2.332904695891554
 30
0.0
 42
0.4142135623730958
  0
VERTEX
  5
155
  8
LAYER_1
 10
26.10156175074187
 20
4.332904695891553
 30
0.0
  0
VERTEX
  5
156
  8
LAYER_1
 10
26.10156175074187
 20
25.42523962669155
 30
0.0
 42
0.1308850111196325
  0
VERTEX
  5
157
  8
LAYER_1
 10
25.83662260812312
 20
26.42000785158598
 30
0.0
  0
VERTEX
  5
158
  8
LAYER_1
 10
23.99039463517312
 20
29.64017292078598
 30
0.0
 42
0.2687580112486305
  0
VERTEX
  5
159
  8
LAYER_1
 10
22.25533377784187
 20
30.64540469589155
 30
0.0
  0
VERTEX
  5
15A
  8
LAYER_1
 10
20.53906175074187
 20
30.64540469589155
 30
0.0
  0
VERTEX
  5
15B
  8
LAYER_1
 10
19.79589567814187
 20
35.27026313459156
 30
0.0
  0
VERTEX
  5
15C
  8
LAYER_1
 10
20.53906175074187
 20
30.64540469589155
 30
0.0
  0
SEQEND
  5
249
  8
LAYER_1
  0
POLYLINE
  5
81
  8
LAYER_1
 66
     1
 10
0.0
 20
0.0
 30
0.0
 70
     1
  0
VERTEX
  5
15D
  8
LAYER_1
 10
51.26503061265493
 20
29.71520467614658
 30
0.0
  0
VERTEX
  5
15E
  8
LAYER_1
 10
53.11125858563616
 20
26.49503960704099
 30
0.0
 42
-0.1308850111196324
  0
VERTEX
  5
15F
  8
LAYER_1
 10
53.37619772825491
 20
25.50027138214658
 30
0.0
  0
VERTEX
  5
160
  8
LAYER_1
 10
53.37619772825491
 20
4.407936451246584
 30
0.0
 42
-0.4142135623730954
  0
VERTEX
  5
161
  8
LAYER_1
 10
51.37619772825491
 20
2.407936451246584
 30
0.0
  0
VERTEX
  5
162
  8
LAYER_1
 10
30.12619772825491
 20
2.407936451246584
 30
0.0
 42
-0.4142135623730968
  0
VERTEX
  5
163
  8
LAYER_1
 10
28.12619772825491
 20
4.407936451246584
 30
0.0
  0
VERTEX
  5
164
  8
LAYER_1
 10
28.12619772825491
 20
25.50027138214658
 30
0.0
 42
-0.1308850111196301
  0
VERTEX
  5
165
  8
LAYER_1
 10
28.39113687092367
 20
26.49503960704101
 30
0.0
  0
VERTEX
  5
166
  8
LAYER_1
 10
30.23736484387368
 20
29.71520467614101
 30
0.0
 42
-0.2687580112486296
  0
VERTEX
  5
167
  8
LAYER_1
 10
31.97242570125491
 20
30.72043645124658
 30
0.0
  0
VERTEX
  5
168
  8
LAYER_1
 10
33.68869772825491
 20
30.72043645124658
 30
0.0
  0
VERTEX
  5
169
  8
LAYER_1
 10
30.87619772827796
 20
13.40793645125099
 30
0.0
 42
0.4622097846451265
  0
VERTEX
  5
16A
  8
LAYER_1
 10
31.02314331985491
 20
13.23519239623801
 30
0.0
 42
0.4622097846451265
  0
VERTEX
  5
16B
  8
LAYER_1
 10
31.1700889113819
 20
13.40793645125099
 30
0.0
  0
VERTEX
  5
16C
  8
LAYER_1
 10
50.33230654517783
 20
13.407936451251
 30
0.0
 42
0.462209784645126
  0
VERTEX
  5
16D
  8
LAYER_1
 10
50.47925213675492
 20
13.23519239623774
 30
0.0
 42
0.462209784645126
  0
VERTEX
  5
16E
  8
LAYER_1
 10
50.62619772828202
 20
13.407936451251
 30
0.0
  0
VERTEX
  5
16F
  8
LAYER_1
 10
47.81369772825491
 20
30.72043645124658
 30
0.0
  0
VERTEX
  5
170
  8
LAYER_1
 10
49.52996975535493
 20
30.72043645124658
 30
0.0
 42
-0.2687580112486309
  0
SEQEND
  5
24A
  8
LAYER_1
  0
POLYLINE
  5
82
  8
LAYER_1
 66
     1
 10
0.0
 20
0.0
 30
0.0
 70
     1
  0
VERTEX
  5
171
  8
LAYER_1
 10
78.2320977698246
 20
29.86930220275899
 30
0.0
  0
VERTEX
  5
172
  8
LAYER_1
 10
80.07832574280584
 20
26.64913713365341
 30
0.0
 42
-0.1308850111196324
  0
VERTEX
  5
173
  8
LAYER_1
 10
80.34326488542459
 20
25.654368908759
 30
0.0
  0
VERTEX
  5
174
  8
LAYER_1
 10
80.34326488542459
 20
4.562033977859002
 30
0.0
 42
-0.4142135623730954
  0
VERTEX
  5
175
  8
LAYER_1
 10
78.34326488542459
 20
2.562033977858974
 30
0.0
  0
VERTEX
  5
176
  8
LAYER_1
 10
57.09326488542459
 20
2.562033977859002
 30
0.0
 42
-0.4142135623730968
  0
VERTEX
  5
177
  8
LAYER_1
 10
55.09326488542459
 20
4.562033977859002
 30
0.0
  0
VERTEX
  5
178
  8
LAYER_1
 10
55.09326488542459
 20
25.654368908759
 30
0.0
 42
-0.1308850111196301
  0
VERTEX
  5
179
  8
LAYER_1
 10
55.35820402809335
 20
26.64913713365341
 30
0.0
  0
VERTEX
  5
17A
  8
LAYER_1
 10
57.20443200104333
 20
29.86930220275342
 30
0.0
 42
-0.2687580112486296
  0
VERTEX
  5
17B
  8
LAYER_1
 10
58.93949285842459
 20
30.87453397785897
 30
0.0
  0
VERTEX
  5
17C
  8
LAYER_1
 10
60.65576488542459
 20
30.87453397785897
 30
0.0
  0
VERTEX
  5
17D
  8
LAYER_1
 10
57.84326488544761
 20
13.56203397786338
 30
0.0
 42
0.4622097846451265
  0
VERTEX
  5
17E
  8
LAYER_1
 10
57.99021047702459
 20
13.38928992285041
 30
0.0
 42
0.4622097846451265
  0
VERTEX
  5
17F
  8
LAYER_1
 10
58.13715606855155
 20
13.56203397786338
 30
0.0
  0
VERTEX
  5
180
  8
LAYER_1
 10
77.29937370234748
 20
13.56203397786341
 30
0.0
 42
0.462209784645126
  0
VERTEX
  5
181
  8
LAYER_1
 10
77.44631929392457
 20
13.38928992285012
 30
0.0
 42
0.462209784645126
  0
VERTEX
  5
182
  8
LAYER_1
 10
77.5932648854517
 20
13.56203397786341
 30
0.0
  0
VERTEX
  5
183
  8
LAYER_1
 10
74.78076488542459
 20
30.87453397785895
 30
0.0
  0
VERTEX
  5
184
  8
LAYER_1
 10
76.49703691252458
 20
30.87453397785895
 30
0.0
 42
-0.2687580112486309
  0
SEQEND
  5
24B
  8
LAYER_1
  0
POLYLINE
  5
83
  8
LAYER_1
 66
     1
 10
0.0
 20
0.0
 30
0.0
 70
     1
  0
VERTEX
  5
185
  8
LAYER_1
 10
80.54407274782281
 20
31.65864334385773
 30
0.0
  0
VERTEX
  5
186
  8
LAYER_1
 10
80.54407274782281
 20
47.40864334385773
 30
0.0
  0
VERTEX
  5
187
  8
LAYER_1
 10
78.54407274782281
 20
47.40864334385773
 30
0.0
  0
VERTEX
  5
188
  8
LAYER_1
 10
78.54407274782281
 20
32.01129730525773
 30
0.0
  0
VERTEX
  5
189
  8
LAYER_1
 10
80.54407274782281
 20
31.65864334385773
 30
0.0
  0
VERTEX
  5
18A
  8
LAYER_1
 10
78.54407274782281
 20
32.01129730525773
 30
0.0
  0
SEQEND
  5
24C
  8
LAYER_1
  0
POLYLINE
  5
84
  8
LAYER_1
 66
     1
 10
0.0
 20
0.0
 30
0.0
 70
     1
  0
VERTEX
  5
18B
  8
LAYER_1
 10
77.16049275302476
 20
31.90936001965611
 30
0.0
  0
VERTEX
  5
18C
  8
LAYER_1
 10
77.16049275302476
 20
47.65936001965611
 30
0.0
  0
VERTEX
  5
18D
  8
LAYER_1
 10
75.16049275302476
 20
47.65936001965611
 30
0.0
  0
VERTEX
  5
18E
  8
LAYER_1
 10
75.16049275302476
 20
32.26201398105611
 30
0.0
  0
VERTEX
  5
18F
  8
LAYER_1
 10
77.16049275302476
 20
31.90936001965611
 30
0.0
  0
VERTEX
  5
190
  8
LAYER_1
 10
75.16049275302476
 20
32.26201398105611
 30
0.0
  0
SEQEND
  5
24D
  8
LAYER_1
  0
POLYLINE
  5
85
  8
LAYER_1
 66
     1
 10
0.0
 20
0.0
 30
0.0
 70
     1
  0
VERTEX
  5
191
  8
LAYER_1
 10
93.68206419663309
 20
19.06462320766485
 30
0.0
  0
VERTEX
  5
192
  8
LAYER_1
 10
93.68206419663309
 20
34.40462320766486
 30
0.0
  0
VERTEX
  5
193
  8
LAYER_1
 10
91.68206419663309
 20
34.40462320766486
 30
0.0
  0
VERTEX
  5
194
  8
LAYER_1
 10
91.68206419663309
 20
19.41727716916485
 30
0.0
  0
VERTEX
  5
195
  8
LAYER_1
 10
93.68206419663309
 20
19.06462320766485
 30
0.0
  0
VERTEX
  5
196
  8
LAYER_1
 10
91.68206419663309
 20
19.41727716916485
 30
0.0
  0
SEQEND
  5
24E
  8
LAYER_1
  0
POLYLINE
  5
86
  8
LAYER_1
 66
     1
 10
0.0
 20
0.0
 30
0.0
 70
     1
  0
VERTEX
  5
197
  8
LAYER_1
 10
93.68206419663309
 20
2.422090333525858
 30
0.0
  0
VERTEX
  5
198
  8
LAYER_1
 10
93.68206419663309
 20
17.76209033352586
 30
0.0
  0
VERTEX
  5
199
  8
LAYER_1
 10
91.68206419663309
 20
17.76209033352586
 30
0.0
  0
VERTEX
  5
19A
  8
LAYER_1
 10
91.68206419663309
 20
2.774744295025862
 30
0.0
  0
VERTEX
  5
19B
  8
LAYER_1
 10
93.68206419663309
 20
2.422090333525858
 30
0.0
  0
VERTEX
  5
19C
  8
LAYER_1
 10
91.68206419663309
 20
2.774744295025862
 30
0.0
  0
SEQEND
  5
24F
  8
LAYER_1
  0
POLYLINE
  5
87
  8
LAYER_1
 66
     1
 10
0.0
 20
0.0
 30
0.0
 70
     1
  0
VERTEX
  5
19D
  8
LAYER_1
 10
39.34494772823521
 20
14.85962320766448
 30
0.0
 42
0.9999999999999996
  0
VERTEX
  5
19E
  8
LAYER_1
 10
35.87486731346476
 20
18.32970362243494
 30
0.0
  0
VERTEX
  5
19F
  8
LAYER_1
 10
35.15744772825491
 20
19.04712320764478
 30
0.0
  0
VERTEX
  5
1A0
  8
LAYER_1
 10
35.15744772825491
 20
34.42212320764479
 30
0.0
  0
VERTEX
  5
1A1
  8
LAYER_1
 10
35.87486731346476
 20
35.13954279295464
 30
0.0
 42
0.9999999999999999
  0
VERTEX
  5
1A2
  8
LAYER_1
 10
39.34494772824505
 20
38.60962320768492
 30
0.0
  0
VERTEX
  5
1A3
  8
LAYER_1
 10
46.34494772825491
 20
38.60962320764479
 30
0.0
  0
VERTEX
  5
1A4
  8
LAYER_1
 10
46.34494772825491
 20
14.85962320764478
 30
0.0
  0
SEQEND
  5
250
  8
LAYER_1
  0
POLYLINE
  5
88
  8
LAYER_1
 66
     1
 10
0.0
 20
0.0
 30
0.0
 70
     1
  0
VERTEX
  5
1A5
  8
LAYER_1
 10
73.49800048417512
 20
14.58052568105246
 30
0.0
  0
VERTEX
  5
1A6
  8
LAYER_1
 10
73.49800048417512
 20
38.58052568105246
 30
0.0
  0
VERTEX
  5
1A7
  8
LAYER_1
 10
72.99800048417512
 20
38.58052568105246
 30
0.0
  0
VERTEX
  5
1A8
  8
LAYER_1
 10
72.99800048417512
 20
14.58052568105246
 30
0.0
  0
SEQEND
  5
251
  8
LAYER_1
  0
POLYLINE
  5
89
  8
LAYER_1
 66
     1
 10
0.0
 20
0.0
 30
0.0
 70
     1
  0
VERTEX
  5
1A9
  8
LAYER_1
 10
73.00102928667405
 20
14.70661797660846
 30
0.0
  0
VERTEX
  5
1AA
  8
LAYER_1
 10
73.43852928667405
 20
14.70661797660846
 30
0.0
  0
VERTEX
  5
1AB
  8
LAYER_1
 10
73.43852928667405
 20
38.45661797660846
 30
0.0
  0
VERTEX
  5
1AC
  8
LAYER_1
 10
73.00102928667405
 20
38.45661797660846
 30
0.0
  0
VERTEX
  5
1AD
  8
LAYER_1
 10
61.93852928667405
 20
38.45661797660846
 30
0.0
  0
VERTEX
  5
1AE
  8
LAYER_1
 10
61.93852928667405
 20
14.70661797660846
 30
0.0
  0
VERTEX
  5
1AF
  8
LAYER_1
 10
73.00102928667405
 20
14.70661797660846
 30
0.0
  0
VERTEX
  5
1B0
  8
LAYER_1
 10
61.93852928667405
 20
14.70661797660846
 30
0.0
  0
SEQEND
  5
252
  8
LAYER_1
  0
POLYLINE
  5
8A
  8
LAYER_1
 66
     1
 10
0.0
 20
0.0
 30
0.0
 70
     1
  0
VERTEX
  5
1B1
  8
LAYER_1
 10
49.70846134754106
 20
45.1268136673655
 30
0.0
  0
VERTEX
  5
1B2
  8
LAYER_1
 10
73.70846134754106
 20
45.1268136673655
 30
0.0
  0
VERTEX
  5
1B3
  8
LAYER_1
 10
73.70846134754106
 20
45.6268136673655
 30
0.0
  0
VERTEX
  5
1B4
  8
LAYER_1
 10
49.70846134754106
 20
45.6268136673655
 30
0.0
  0
SEQEND
  5
253
  8
LAYER_1
  0
POLYLINE
  5
8B
  8
LAYER_1
 66
     1
 10
0.0
 20
0.0
 30
0.0
 70
     1
  0
VERTEX
  5
1B5
  8
LAYER_1
 10
49.8353201869181
 20
40.81930344301742
 30
0.0
  0
VERTEX
  5
1B6
  8
LAYER_1
 10
73.5853201869181
 20
40.81930344301742
 30
0.0
  0
VERTEX
  5
1B7
  8
LAYER_1
 10
73.5853201869181
 20
45.13180344301742
 30
0.0
  0
VERTEX
  5
1B8
  8
LAYER_1
 10
73.5853201869181
 20
45.56930344301742
 30
0.0
  0
VERTEX
  5
1B9
  8
LAYER_1
 10
49.8353201869181
 20
45.56930344301742
 30
0.0
  0
VERTEX
  5
1BA
  8
LAYER_1
 10
49.8353201869181
 20
45.13180344301742
 30
0.0
  0
SEQEND
  5
254
  8
LAYER_1
  0
POLYLINE
  5
8C
  8
LAYER_1
 66
     1
 10
0.0
 20
0.0
 30
0.0
 70
     1
  0
VERTEX
  5
1BB
  8
LAYER_1
 10
87.3349680789124
 20
33.05262179877319
 30
0.0
 42
0.4142135623730964
  0
VERTEX
  5
1BC
  8
LAYER_1
 10
87.5849680789124
 20
33.30262179877319
 30
0.0
  0
VERTEX
  5
1BD
  8
LAYER_1
 10
87.5849680789124
 20
41.30262179877319
 30
0.0
 42
0.4142135623730945
  0
VERTEX
  5
1BE
  8
LAYER_1
 10
87.3349680789124
 20
41.55262179877319
 30
0.0
  0
VERTEX
  5
1BF
  8
LAYER_1
 10
83.4599680789124
 20
41.55262179877319
 30
0.0
 42
0.4142135623730923
  0
VERTEX
  5
1C0
  8
LAYER_1
 10
83.2099680789124
 20
41.30262179877319
 30
0.0
  0
VERTEX
  5
1C1
  8
LAYER_1
 10
83.2099680789124
 20
33.30262179877319
 30
0.0
 42
0.4142135623730923
  0
VERTEX
  5
1C2
  8
LAYER_1
 10
83.4599680789124
 20
33.05262179877319
 30
0.0
  0
SEQEND
  5
255
  8
LAYER_1
  0
POLYLINE
  5
8D
  8
LAYER_1
 66
     1
 10
0.0
 20
0.0
 30
0.0
 70
     1
  0
VERTEX
  5
1C3
  8
LAYER_1
 10
90.5849680789124
 20
24.67762179877319
 30
0.0
  0
VERTEX
  5
1C4
  8
LAYER_1
 10
90.5849680789124
 20
42.80262179877319
 30
0.0
  0
VERTEX
  5
1C5
  8
LAYER_1
 10
81.8349680789124
 20
42.80262179877319
 30
0.0
  0
VERTEX
  5
1C6
  8
LAYER_1
 10
81.8349680789124
 20
28.80262179877319
 30
0.0
  0
VERTEX
  5
1C7
  8
LAYER_1
 10
85.0849680789124
 20
28.80262179877735
 30
0.0
 42
-0.9999999999999993
  0
VERTEX
  5
1C8
  8
LAYER_1
 10
85.0849680789124
 20
27.80102478756904
 30
0.0
  0
VERTEX
  5
1C9
  8
LAYER_1
 10
81.8349680789124
 20
27.80102478757319
 30
0.0
  0
VERTEX
  5
1CA
  8
LAYER_1
 10
81.8349680789124
 20
24.67762179877319
 30
0.0
  0
VERTEX
  5
1CB
  8
LAYER_1
 10
90.5849680789124
 20
24.67762179877319
 30
0.0
  0
VERTEX
  5
1CC
  8
LAYER_1
 10
81.8349680789124
 20
24.67762179877319
 30
0.0
  0
SEQEND
  5
256
  8
LAYER_1
  0
POLYLINE
  5
8E
  8
LAYER_1
 66
     1
 10
0.0
 20
0.0
 30
0.0
 70
     1
  0
VERTEX
  5
1CD
  8
LAYER_1
 10
119.5064023488328
 20
-21.75316596830937
 30
0.0
  0
VERTEX
  5
1CE
  8
LAYER_1
 10
142.5064023488328
 20
-21.75316596830937
 30
0.0
  0
VERTEX
  5
1CF
  8
LAYER_1
 10
138.7946725512328
 20
-0.7029002477093513
 30
0.0
  0
VERTEX
  5
1D0
  8
LAYER_1
 10
123.5301523795328
 20
1.988646506090674
 30
0.0
  0
VERTEX
  5
1D1
  8
LAYER_1
 10
119.5064023488328
 20
-21.75316596830937
 30
0.0
  0
VERTEX
  5
1D2
  8
LAYER_1
 10
123.5301523795328
 20
1.988646506090674
 30
0.0
  0
SEQEND
  5
257
  8
LAYER_1
  0
POLYLINE
  5
8F
  8
LAYER_1
 66
     1
 10
0.0
 20
0.0
 30
0.0
 70
     1
  0
VERTEX
  5
1D3
  8
LAYER_1
 10
145.0796256535328
 20
-47.11919685816493
 30
0.0
  0
VERTEX
  5
1D4
  8
LAYER_1
 10
122.0796256535328
 20
-47.11919685816493
 30
0.0
  0
VERTEX
  5
1D5
  8
LAYER_1
 10
125.7913554511328
 20
-26.06893113756493
 30
0.0
  0
VERTEX
  5
1D6
  8
LAYER_1
 10
141.0558756228328
 20
-23.37738438376493
 30
0.0
  0
VERTEX
  5
1D7
  8
LAYER_1
 10
145.0796256535328
 20
-47.11919685816493
 30
0.0
  0
VERTEX
  5
1D8
  8
LAYER_1
 10
141.0558756228328
 20
-23.37738438376493
 30
0.0
  0
SEQEND
  5
258
  8
LAYER_1
  0
POLYLINE
  5
90
  8
LAYER_1
 66
     1
 10
0.0
 20
0.0
 30
0.0
 70
     1
  0
VERTEX
  5
1D9
  8
LAYER_1
 10
98.57962565353282
 20
5.311869810790668
 30
0.0
 42
0.4142135623730971
  0
VERTEX
  5
1DA
  8
LAYER_1
 10
98.45462565353282
 20
5.436869810790668
 30
0.0
  0
VERTEX
  5
1DB
  8
LAYER_1
 10
98.45462565353282
 20
26.81186981079067
 30
0.0
  0
VERTEX
  5
1DC
  8
LAYER_1
 10
122.2046256535328
 20
26.81186981079067
 30
0.0
  0
VERTEX
  5
1DD
  8
LAYER_1
 10
122.2046256535328
 20
5.436869810790668
 30
0.0
 42
0.4142135623730799
  0
VERTEX
  5
1DE
  8
LAYER_1
 10
122.0796256535328
 20
5.311869810790668
 30
0.0
  0
VERTEX
  5
1DF
  8
LAYER_1
 10
122.0796256535328
 20
4.561869810790668
 30
0.0
  0
VERTEX
  5
1E0
  8
LAYER_1
 10
119.5064023488328
 20
1.988646506090674
 30
0.0
 42
0.6681786379192978
  0
VERTEX
  5
1E1
  8
LAYER_1
 10
119.0796256535328
 20
1.811869810790668
 30
0.0
  0
VERTEX
  5
1E2
  8
LAYER_1
 10
101.5796256535328
 20
1.811869810790668
 30
0.0
 42
0.6681786379193013
  0
VERTEX
  5
1E3
  8
LAYER_1
 10
101.1528489582362
 20
1.988646506087306
 30
0.0
  0
VERTEX
  5
1E4
  8
LAYER_1
 10
98.57962565353282
 20
4.561869810790668
 30
0.0
  0
SEQEND
  5
259
  8
LAYER_1
  0
POLYLINE
  5
91
  8
LAYER_1
 66
     1
 10
0.0
 20
0.0
 30
0.0
 70
     1
  0
VERTEX
  5
1E5
  8
LAYER_1
 10
106.2046256535328
 20
16.49936981079067
 30
0.0
  0
VERTEX
  5
1E6
  8
LAYER_1
 10
114.4546256535328
 20
16.49936981079067
 30
0.0
 42
-0.4142135623730923
  0
VERTEX
  5
1E7
  8
LAYER_1
 10
114.7046256535328
 20
16.24936981079067
 30
0.0
  0
VERTEX
  5
1E8
  8
LAYER_1
 10
114.7046256535328
 20
13.24936981079067
 30
0.0
 42
-0.4142135623730964
  0
VERTEX
  5
1E9
  8
LAYER_1
 10
114.4546256535328
 20
12.99936981079067
 30
0.0
  0
VERTEX
  5
1EA
  8
LAYER_1
 10
106.2046256535328
 20
12.99936981079067
 30
0.0
 42
-0.4142135623730948
  0
VERTEX
  5
1EB
  8
LAYER_1
 10
105.9546256535328
 20
13.24936981079067
 30
0.0
  0
VERTEX
  5
1EC
  8
LAYER_1
 10
105.9546256535328
 20
16.24936981079067
 30
0.0
 42
-0.4142135623730948
  0
SEQEND
  5
25A
  8
LAYER_1
  0
POLYLINE
  5
92
  8
LAYER_1
 66
     1
 10
0.0
 20
0.0
 30
0.0
 70
     1
  0
VERTEX
  5
1ED
  8
LAYER_1
 10
105.9546256535328
 20
22.06186981079067
 30
0.0
 42
0.4142135623730938
  0
VERTEX
  5
1EE
  8
LAYER_1
 10
106.2046256535328
 20
21.81186981079067
 30
0.0
  0
VERTEX
  5
1EF
  8
LAYER_1
 10
114.4546256535328
 20
21.81186981079067
 30
0.0
 42
0.4142135623730923
  0
VERTEX
  5
1F0
  8
LAYER_1
 10
114.7046256535328
 20
22.06186981079067
 30
0.0
  0
VERTEX
  5
1F1
  8
LAYER_1
 10
114.7046256535328
 20
25.31186981079067
 30
0.0
 42
0.4142135623730973
  0
VERTEX
  5
1F2
  8
LAYER_1
 10
114.4546256535328
 20
25.56186981079067
 30
0.0
  0
VERTEX
  5
1F3
  8
LAYER_1
 10
106.2046256535328
 20
25.56186981079067
 30
0.0
 42
0.4142135623730989
  0
VERTEX
  5
1F4
  8
LAYER_1
 10
105.9546256535328
 20
25.31186981079067
 30
0.0
  0
SEQEND
  5
25B
  8
LAYER_1
  0
POLYLINE
  5
93
  8
LAYER_1
 66
     1
 10
0.0
 20
0.0
 30
0.0
 70
     1
  0
VERTEX
  5
1F5
  8
LAYER_1
 10
98.77310928540436
 20
27.89594948960472
 30
0.0
  0
VERTEX
  5
1F6
  8
LAYER_1
 10
122.5231092854044
 20
27.89594948960472
 30
0.0
  0
VERTEX
  5
1F7
  8
LAYER_1
 10
122.5231092854044
 20
45.39594948960472
 30
0.0
  0
VERTEX
  5
1F8
  8
LAYER_1
 10
98.77310928540436
 20
45.39594948960472
 30
0.0
  0
VERTEX
  5
1F9
  8
LAYER_1
 10
98.77310928540436
 20
27.89594948960472
 30
0.0
  0
VERTEX
  5
1FA
  8
LAYER_1
 10
98.77310928540436
 20
45.39594948960472
 30
0.0
  0
SEQEND
  5
25C
  8
LAYER_1
  0
POLYLINE
  5
94
  8
LAYER_1
 66
     1
 10
0.0
 20
0.0
 30
0.0
 70
     1
  0
VERTEX
  5
1FB
  8
LAYER_1
 10
121.2731092854044
 20
31.64594948960472
 30
0.0
  0
VERTEX
  5
1FC
  8
LAYER_1
 10
120.3981092854044
 20
31.64594948960472
 30
0.0
 42
-0.4142135623730958
  0
VERTEX
  5
1FD
  8
LAYER_1
 10
120.1481092854044
 20
31.89594948960472
 30
0.0
  0
VERTEX
  5
1FE
  8
LAYER_1
 10
120.1481092854044
 20
33.77094948960472
 30
0.0
 42
-0.4142135623730954
  0
VERTEX
  5
1FF
  8
LAYER_1
 10
120.3981092854044
 20
34.02094948960472
 30
0.0
  0
VERTEX
  5
200
  8
LAYER_1
 10
121.2731092854044
 20
34.02094948960472
 30
0.0
 42
0.4142135623730989
  0
VERTEX
  5
201
  8
LAYER_1
 10
121.5231092854044
 20
34.27094948960472
 30
0.0
  0
VERTEX
  5
202
  8
LAYER_1
 10
121.5231092854044
 20
39.52094948960472
 30
0.0
 42
0.4142135623731006
  0
VERTEX
  5
203
  8
LAYER_1
 10
121.2731092854044
 20
39.77094948960472
 30
0.0
  0
VERTEX
  5
204
  8
LAYER_1
 10
120.3981092854044
 20
39.77094948960472
 30
0.0
 42
-0.4142135623730923
  0
VERTEX
  5
205
  8
LAYER_1
 10
120.1481092854044
 20
40.02094948960472
 30
0.0
  0
VERTEX
  5
206
  8
LAYER_1
 10
120.1481092854044
 20
44.39594948960472
 30
0.0
 42
0.4142135623730964
  0
VERTEX
  5
207
  8
LAYER_1
 10
119.8981092854044
 20
44.64594948960472
 30
0.0
  0
VERTEX
  5
208
  8
LAYER_1
 10
101.3981092854044
 20
44.64594948960472
 30
0.0
 42
0.4142135623730923
  0
VERTEX
  5
209
  8
LAYER_1
 10
101.1481092854044
 20
44.39594948960472
 30
0.0
  0
VERTEX
  5
20A
  8
LAYER_1
 10
101.1481092854044
 20
40.02094948960472
 30
0.0
 42
-0.4142135623730953
  0
VERTEX
  5
20B
  8
LAYER_1
 10
100.8981092854044
 20
39.77094948960472
 30
0.0
  0
VERTEX
  5
20C
  8
LAYER_1
 10
100.0231092854044
 20
39.77094948960472
 30
0.0
 42
0.4142135623730953
  0
VERTEX
  5
20D
  8
LAYER_1
 10
99.77310928540436
 20
39.52094948960472
 30
0.0
  0
VERTEX
  5
20E
  8
LAYER_1
 10
99.77310928540436
 20
34.27094948960472
 30
0.0
 42
0.4142135623730944
  0
VERTEX
  5
20F
  8
LAYER_1
 10
100.0231092854044
 20
34.02094948960472
 30
0.0
  0
VERTEX
  5
210
  8
LAYER_1
 10
100.8981092854044
 20
34.02094948960472
 30
0.0
 42
-0.4142135623730944
  0
VERTEX
  5
211
  8
LAYER_1
 10
101.1481092854044
 20
33.77094948960472
 30
0.0
  0
VERTEX
  5
212
  8
LAYER_1
 10
101.1481092854044
 20
31.89594948960472
 30
0.0
 42
-0.4142135623730946
  0
VERTEX
  5
213
  8
LAYER_1
 10
100.8981092854044
 20
31.64594948960472
 30
0.0
  0
VERTEX
  5
214
  8
LAYER_1
 10
100.0231092854044
 20
31.64594948960472
 30
0.0
 42
0.4142135623730948
  0
VERTEX
  5
215
  8
LAYER_1
 10
99.77310928540436
 20
31.39594948960472
 30
0.0
  0
VERTEX
  5
216
  8
LAYER_1
 10
99.77310928540436
 20
29.89594948960472
 30
0.0
 42
1.0
  0
VERTEX
  5
217
  8
LAYER_1
 10
100.2731092854044
 20
29.89594948960472
 30
0.0
  0
VERTEX
  5
218
  8
LAYER_1
 10
121.0231092854044
 20
29.89594948960472
 30
0.0
 42
1.0
  0
VERTEX
  5
219
  8
LAYER_1
 10
121.5231092854044
 20
29.89594948960472
 30
0.0
  0
VERTEX
  5
21A
  8
LAYER_1
 10
121.5231092854044
 20
31.39594948960472
 30
0.0
 42
0.4142135623730981
  0
SEQEND
  5
25D
  8
LAYER_1
  0
POLYLINE
  5
95
  8
LAYER_1
 66
     1
 10
0.0
 20
0.0
 30
0.0
 70
     1
  0
VERTEX
  5
21B
  8
LAYER_1
 10
114.4354716108787
 20
-20.58268414427325
 30
0.0
  0
VERTEX
  5
21C
  8
LAYER_1
 10
111.8605337211787
 20
-4.655726496473257
 30
0.0
  0
VERTEX
  5
21D
  8
LAYER_1
 10
97.36892987977865
 20
-4.655726496473257
 30
0.0
  0
VERTEX
  5
21E
  8
LAYER_1
 10
94.79974735887865
 20
-20.58268414427325
 30
0.0
  0
VERTEX
  5
21F
  8
LAYER_1
 10
114.4354716108787
 20
-20.58268414427325
 30
0.0
  0
VERTEX
  5
220
  8
LAYER_1
 10
94.79974735887865
 20
-20.58268414427325
 30
0.0
  0
SEQEND
  5
25E
  8
LAYER_1
  0
POLYLINE
  5
96
  8
LAYER_1
 66
     1
 10
0.0
 20
0.0
 30
0.0
 70
     1
  0
VERTEX
  5
221
  8
LAYER_1
 10
100.4928463955787
 20
-16.64811920697326
 30
0.0
  0
VERTEX
  5
222
  8
LAYER_1
 10
108.7428463955787
 20
-16.64811920697326
 30
0.0
 42
0.4142135623730938
  0
VERTEX
  5
223
  8
LAYER_1
 10
108.9928463955787
 20
-16.39811920697326
 30
0.0
  0
VERTEX
  5
224
  8
LAYER_1
 10
108.9928463955787
 20
-13.39811920697326
 30
0.0
 42
0.4142135623730936
  0
VERTEX
  5
225
  8
LAYER_1
 10
108.7428463955787
 20
-13.14811920697326
 30
0.0
  0
VERTEX
  5
226
  8
LAYER_1
 10
100.4928463955787
 20
-13.14811920697326
 30
0.0
 42
0.4142135623730964
  0
VERTEX
  5
227
  8
LAYER_1
 10
100.2428463955787
 20
-13.39811920697326
 30
0.0
  0
VERTEX
  5
228
  8
LAYER_1
 10
100.2428463955787
 20
-16.39811920697326
 30
0.0
 42
0.4142135623730923
  0
SEQEND
  5
25F
  8
LAYER_1
  0
POLYLINE
  5
97
  8
LAYER_1
 66
     1
 10
0.0
 20
0.0
 30
0.0
 70
     1
  0
VERTEX
  5
229
  8
LAYER_1
 10
94.44041677332831
 20
-45.29238320795817
 30
0.0
  0
VERTEX
  5
22A
  8
LAYER_1
 10
112.5654167733283
 20
-45.29238320795817
 30
0.0
  0
VERTEX
  5
22B
  8
LAYER_1
 10
112.5654167733283
 20
-21.66738320795818
 30
0.0
  0
VERTEX
  5
22C
  8
LAYER_1
 10
94.44041677332831
 20
-21.66738320795818
 30
0.0
  0
VERTEX
  5
22D
  8
LAYER_1
 10
94.44041677332831
 20
-45.29238320795817
 30
0.0
  0
VERTEX
  5
22E
  8
LAYER_1
 10
94.44041677332831
 20
-21.66738320795818
 30
0.0
  0
SEQEND
  5
260
  8
LAYER_1
  0
POLYLINE
  5
98
  8
LAYER_1
 66
     1
 10
0.0
 20
0.0
 30
0.0
 70
     1
  0
VERTEX
  5
22F
  8
LAYER_1
 10
96.19041677332831
 20
-34.54238320795818
 30
0.0
 42
0.4142135623730951
  0
VERTEX
  5
230
  8
LAYER_1
 10
95.81541677332831
 20
-34.91738320795818
 30
0.0
 42
0.4142135623730951
  0
VERTEX
  5
231
  8
LAYER_1
 10
96.19041677332831
 20
-35.29238320795818
 30
0.0
 42
0.4142135623730951
  0
VERTEX
  5
232
  8
LAYER_1
 10
96.56541677332831
 20
-34.91738320795818
 30
0.0
 42
0.4142135623730951
  0
SEQEND
  5
261
  8
LAYER_1
  0
POLYLINE
  5
99
  8
LAYER_1
 66
     1
 10
0.0
 20
0.0
 30
0.0
 70
     1
  0
VERTEX
  5
233
  8
LAYER_1
 10
96.19041677332905
 20
-34.41738320795785
 30
0.0
 42
0.4142135623730951
  0
VERTEX
  5
234
  8
LAYER_1
 10
95.69041677332905
 20
-34.91738320795785
 30
0.0
 42
0.4142135623730951
  0
VERTEX
  5
235
  8
LAYER_1
 10
96.19041677332905
 20
-35.41738320795785
 30
0.0
 42
0.4142135623730951
  0
VERTEX
  5
236
  8
LAYER_1
 10
96.69041677332905
 20
-34.91738320795785
 30
0.0
 42
0.4142135623730951
  0
SEQEND
  5
262
  8
LAYER_1
  0
ENDSEC
  0
EOF
