  0
SECTION
  2
HEADER
  9
$ACADVER
  1
AC1009
  9
$DWGCODEPAGE
  3
ansi_1252
  9
$INSBASE
 10
0.0
 20
0.0
 30
0.0
  9
$EXTMIN
 10
0.4294474327254747
 20
-47.50421724126041
 30
0.0
  9
$EXTMAX
 10
121.3671424181989
 20
46.90022737737664
 30
0.0
  9
$LIMMIN
 10
0.0
 20
0.0
  9
$LIMMAX
 10
12.0
 20
9.0
  9
$ORTHOMODE
 70
     0
  9
$REGENMODE
 70
     1
  9
$FILLMODE
 70
     1
  9
$QTEXTMODE
 70
     0
  9
$MIRRTEXT
 70
     1
  9
$DRAGMODE
 70
     2
  9
$LTSCALE
 40
1.0
  9
$OSMODE
 70
    37
  9
$ATTMODE
 70
     1
  9
$TEXTSIZE
 40
0.2
  9
$TRACEWID
 40
0.05
  9
$TEXTSTYLE
  7
STANDARD
  9
$CLAYER
  8
0
  9
$CELTYPE
  6
BYLAYER
  9
$CECOLOR
 62
   256
  9
$DIMSCALE
 40
1.0
  9
$DIMASZ
 40
0.18
  9
$DIMEXO
 40
0.0625
  9
$DIMDLI
 40
0.38
  9
$DIMRND
 40
0.0
  9
$DIMDLE
 40
0.0
  9
$DIMEXE
 40
0.18
  9
$DIMTP
 40
0.0
  9
$DIMTM
 40
0.0
  9
$DIMTXT
 40
0.18
  9
$DIMCEN
 40
0.09
  9
$DIMTSZ
 40
0.0
  9
$DIMTOL
 70
     0
  9
$DIMLIM
 70
     0
  9
$DIMTIH
 70
     1
  9
$DIMTOH
 70
     1
  9
$DIMSE1
 70
     0
  9
$DIMSE2
 70
     0
  9
$DIMTAD
 70
     0
  9
$DIMZIN
 70
     0
  9
$DIMBLK
  1

  9
$DIMASO
 70
     1
  9
$DIMSHO
 70
     1
  9
$DIMPOST
  1

  9
$DIMAPOST
  1

  9
$DIMALT
 70
     0
  9
$DIMALTD
 70
     2
  9
$DIMALTF
 40
25.4
  9
$DIMLFAC
 40
1.0
  9
$DIMTOFL
 70
     0
  9
$DIMTVP
 40
0.0
  9
$DIMTIX
 70
     0
  9
$DIMSOXD
 70
     0
  9
$DIMSAH
 70
     0
  9
$DIMBLK1
  1

  9
$DIMBLK2
  1

  9
$DIMSTYLE
  2
STANDARD
  9
$DIMCLRD
 70
     0
  9
$DIMCLRE
 70
     0
  9
$DIMCLRT
 70
     0
  9
$DIMTFAC
 40
1.0
  9
$DIMGAP
 40
0.09
  9
$LUNITS
 70
     2
  9
$LUPREC
 70
     4
  9
$SKETCHINC
 40
0.1
  9
$FILLETRAD
 40
0.5
  9
$AUNITS
 70
     0
  9
$AUPREC
 70
     0
  9
$MENU
  1
.
  9
$ELEVATION
 40
0.0
  9
$PELEVATION
 40
0.0
  9
$THICKNESS
 40
0.0
  9
$LIMCHECK
 70
     0
  9
$CHAMFERA
 40
0.0
  9
$CHAMFERB
 40
0.0
  9
$SKPOLY
 70
     0
  9
$TDCREATE
 40
2454910.5
  9
$TDUPDATE
 40
2457520.670425625
  9
$TDINDWG
 40
0.0000000116
  9
$TDUSRTIMER
 40
0.0000000116
  9
$USRTIMER
 70
     1
  9
$ANGBASE
 50
0.0
  9
$ANGDIR
 70
     0
  9
$PDMODE
 70
     0
  9
$PDSIZE
 40
0.0
  9
$PLINEWID
 40
0.0
  9
$COORDS
 70
     1
  9
$SPLFRAME
 70
     0
  9
$SPLINETYPE
 70
     6
  9
$SPLINESEGS
 70
     8
  9
$ATTDIA
 70
     0
  9
$ATTREQ
 70
     1
  9
$HANDLING
 70
     1
  9
$HANDSEED
  5
767
  9
$SURFTAB1
 70
     6
  9
$SURFTAB2
 70
     6
  9
$SURFTYPE
 70
     6
  9
$SURFU
 70
     6
  9
$SURFV
 70
     6
  9
$UCSNAME
  2

  9
$UCSORG
 10
0.0
 20
0.0
 30
0.0
  9
$UCSXDIR
 10
1.0
 20
0.0
 30
0.0
  9
$UCSYDIR
 10
0.0
 20
1.0
 30
0.0
  9
$PUCSNAME
  2

  9
$PUCSORG
 10
0.0
 20
0.0
 30
0.0
  9
$PUCSXDIR
 10
1.0
 20
0.0
 30
0.0
  9
$PUCSYDIR
 10
0.0
 20
1.0
 30
0.0
  9
$USERI1
 70
     0
  9
$USERI2
 70
     0
  9
$USERI3
 70
     0
  9
$USERI4
 70
     0
  9
$USERI5
 70
     0
  9
$USERR1
 40
0.0
  9
$USERR2
 40
0.0
  9
$USERR3
 40
0.0
  9
$USERR4
 40
0.0
  9
$USERR5
 40
0.0
  9
$WORLDVIEW
 70
     1
  9
$SHADEDGE
 70
     3
  9
$SHADEDIF
 70
    70
  9
$TILEMODE
 70
     1
  9
$MAXACTVP
 70
    64
  9
$PLIMCHECK
 70
     0
  9
$PEXTMIN
 10
1.000000000000000E+20
 20
1.000000000000000E+20
 30
1.000000000000000E+20
  9
$PEXTMAX
 10
-1.000000000000000E+20
 20
-1.000000000000000E+20
 30
-1.000000000000000E+20
  9
$PLIMMIN
 10
0.0
 20
0.0
  9
$PLIMMAX
 10
12.0
 20
9.0
  9
$UNITMODE
 70
     0
  9
$VISRETAIN
 70
     1
  9
$PLINEGEN
 70
     0
  9
$PSLTSCALE
 70
     1
  0
ENDSEC
  0
SECTION
  2
TABLES
  0
TABLE
  2
VPORT
 70
     1
  0
VPORT
  2
*ACTIVE
 70
     0
 10
0.0
 20
0.0
 11
1.0
 21
1.0
 12
10.42990654205607
 22
4.5
 13
0.0
 23
0.0
 14
0.5
 24
0.5
 15
0.5
 25
0.5
 16
0.0
 26
0.0
 36
1.0
 17
0.0
 27
0.0
 37
0.0
 40
9.0
 41
1.972972972850329
 42
50.0
 43
0.0
 44
0.0
 50
0.0
 51
0.0
 71
     0
 72
   100
 73
     1
 74
     3
 75
     0
 76
     0
 77
     0
 78
     0
  0
ENDTAB
  0
TABLE
  2
LTYPE
 70
     2
  0
LTYPE
  2
CONTINUOUS
 70
     0
  3
Solid line
 72
    65
 73
     0
 40
0.0
  0
LTYPE
  2
CONTINUOUS2
 70
     0
  3
Solid Line
 72
    65
 73
     0
 40
0.0
  0
ENDTAB
  0
TABLE
  2
LAYER
 70
     2
  0
LAYER
  2
0
 70
     0
 62
     7
  6
CONTINUOUS
  0
LAYER
  2
LAYER_1
 70
     0
 62
    18
  6
CONTINUOUS
  0
ENDTAB
  0
TABLE
  2
STYLE
 70
     1
  0
STYLE
  2
STANDARD
 70
     0
 40
0.0
 41
1.0
 50
0.0
 71
     0
 42
0.2
  3
txt
  4

  0
ENDTAB
  0
TABLE
  2
VIEW
 70
     0
  0
ENDTAB
  0
TABLE
  2
UCS
 70
     0
  0
ENDTAB
  0
TABLE
  2
APPID
 70
     1
  0
APPID
  2
ACAD
 70
     0
  0
ENDTAB
  0
TABLE
  2
DIMSTYLE
 70
     1
  0
DIMSTYLE
  2
STANDARD
 70
     0
  3

  4

  5

  6

  7

 40
1.0
 41
0.18
 42
0.0625
 43
0.38
 44
0.18
 45
0.0
 46
0.0
 47
0.0
 48
0.0
140
0.18
141
0.09
142
0.0
143
25.4
144
1.0
145
0.0
146
1.0
147
0.09
 71
     0
 72
     0
 73
     1
 74
     1
 75
     0
 76
     0
 77
     0
 78
     0
170
     0
171
     2
172
     0
173
     0
174
     0
175
     0
176
     0
177
     0
178
     0
  0
ENDTAB
  0
ENDSEC
  0
SECTION
  2
BLOCKS
  0
BLOCK
  8
0
  2
$MODEL_SPACE
 70
     0
 10
0.0
 20
0.0
 30
0.0
  3
$MODEL_SPACE
  1

  0
ENDBLK
  5
21
  8
0
  0
BLOCK
 67
     1
  8
0
  2
$PAPER_SPACE
 70
     0
 10
0.0
 20
0.0
 30
0.0
  3
$PAPER_SPACE
  1

  0
ENDBLK
  5
1D
 67
     1
  8
0
  0
ENDSEC
  0
SECTION
  2
ENTITIES
  0
POLYLINE
  5
70
  8
LAYER_1
 66
     1
 10
0.0
 20
0.0
 30
0.0
 70
     1
  0
VERTEX
  5
FF
  8
LAYER_1
 10
0.6169474327254763
 20
-20.32319513989316
 30
0.0
  0
VERTEX
  5
100
  8
LAYER_1
 10
0.6169474327254747
 20
-47.41671724126041
 30
0.0
  0
VERTEX
  5
101
  8
LAYER_1
 10
55.74194743272547
 20
-47.41671724126041
 30
0.0
  0
VERTEX
  5
102
  8
LAYER_1
 10
64.67944743247588
 20
-32.54171724131733
 30
0.0
  0
VERTEX
  5
103
  8
LAYER_1
 10
64.6891046252755
 20
-32.5247749955605
 30
0.0
  0
VERTEX
  5
104
  8
LAYER_1
 10
64.69795165835545
 20
-32.50748223021655
 30
0.0
  0
VERTEX
  5
105
  8
LAYER_1
 10
64.70601353354063
 20
-32.48985729399101
 30
0.0
  0
VERTEX
  5
106
  8
LAYER_1
 10
64.71331525265595
 20
-32.4719185355894
 30
0.0
  0
VERTEX
  5
107
  8
LAYER_1
 10
64.71988181752627
 20
-32.45368430371723
 30
0.0
  0
VERTEX
  5
108
  8
LAYER_1
 10
64.72573822997653
 20
-32.43517294708005
 30
0.0
  0
VERTEX
  5
109
  8
LAYER_1
 10
64.73090949183161
 20
-32.41640281438339
 30
0.0
  0
VERTEX
  5
10A
  8
LAYER_1
 10
64.73542060491641
 20
-32.39739225433274
 30
0.0
  0
VERTEX
  5
10B
  8
LAYER_1
 10
64.73929657105585
 20
-32.37815961563366
 30
0.0
  0
VERTEX
  5
10C
  8
LAYER_1
 10
64.74256239207477
 20
-32.35872324699164
 30
0.0
  0
VERTEX
  5
10D
  8
LAYER_1
 10
64.74524306979814
 20
-32.33910149711224
 30
0.0
  0
VERTEX
  5
10E
  8
LAYER_1
 10
64.74736360605081
 20
-32.31931271470097
 30
0.0
  0
VERTEX
  5
10F
  8
LAYER_1
 10
64.7489490026577
 20
-32.29937524846336
 30
0.0
  0
VERTEX
  5
110
  8
LAYER_1
 10
64.75002426144371
 20
-32.27930744710493
 30
0.0
  0
VERTEX
  5
111
  8
LAYER_1
 10
64.75061438423373
 20
-32.25912765933119
 30
0.0
  0
VERTEX
  5
112
  8
LAYER_1
 10
64.75074437285267
 20
-32.23885423384769
 30
0.0
  0
VERTEX
  5
113
  8
LAYER_1
 10
64.7504392291254
 20
-32.21850551935994
 30
0.0
  0
VERTEX
  5
114
  8
LAYER_1
 10
64.74972395487686
 20
-32.19809986457347
 30
0.0
  0
VERTEX
  5
115
  8
LAYER_1
 10
64.74862355193193
 20
-32.17765561819381
 30
0.0
  0
VERTEX
  5
116
  8
LAYER_1
 10
64.7471630221155
 20
-32.15719112892647
 30
0.0
  0
VERTEX
  5
117
  8
LAYER_1
 10
64.74536736725248
 20
-32.13672474547699
 30
0.0
  0
VERTEX
  5
118
  8
LAYER_1
 10
64.74326158916779
 20
-32.11627481655088
 30
0.0
  0
VERTEX
  5
119
  8
LAYER_1
 10
64.73821967063287
 20
-32.07549771709092
 30
0.0
  0
VERTEX
  5
11A
  8
LAYER_1
 10
64.73223728110997
 20
-32.03500662019076
 30
0.0
  0
VERTEX
  5
11B
  8
LAYER_1
 10
64.72551443519828
 20
-31.99494831549462
 30
0.0
  0
VERTEX
  5
11C
  8
LAYER_1
 10
64.718251147497
 20
-31.95546959264669
 30
0.0
  0
VERTEX
  5
11D
  8
LAYER_1
 10
64.71064743260527
 20
-31.91671724129117
 30
0.0
  0
VERTEX
  5
11E
  8
LAYER_1
 10
63.49194743257937
 20
-25.85421724131238
 30
0.0
  0
VERTEX
  5
11F
  8
LAYER_1
 10
63.48902442339621
 20
-25.84085911534229
 30
0.0
  0
VERTEX
  5
120
  8
LAYER_1
 10
63.48565339804633
 20
-25.82761003276118
 30
0.0
  0
VERTEX
  5
121
  8
LAYER_1
 10
63.48184327245666
 20
-25.81447323590269
 30
0.0
  0
VERTEX
  5
122
  8
LAYER_1
 10
63.47760296255417
 20
-25.80145196710049
 30
0.0
  0
VERTEX
  5
123
  8
LAYER_1
 10
63.47294138426577
 20
-25.78854946868826
 30
0.0
  0
VERTEX
  5
124
  8
LAYER_1
 10
63.46786745351842
 20
-25.77576898299965
 30
0.0
  0
VERTEX
  5
125
  8
LAYER_1
 10
63.46239008623905
 20
-25.76311375236833
 30
0.0
  0
VERTEX
  5
126
  8
LAYER_1
 10
63.45651819835461
 20
-25.75058701912797
 30
0.0
  0
VERTEX
  5
127
  8
LAYER_1
 10
63.45026070579204
 20
-25.73819202561224
 30
0.0
  0
VERTEX
  5
128
  8
LAYER_1
 10
63.44362652447828
 20
-25.72593201415479
 30
0.0
  0
VERTEX
  5
129
  8
LAYER_1
 10
63.43662457034026
 20
-25.7138102270893
 30
0.0
  0
VERTEX
  5
12A
  8
LAYER_1
 10
63.42926375930493
 20
-25.70182990674943
 30
0.0
  0
VERTEX
  5
12B
  8
LAYER_1
 10
63.42155300729923
 20
-25.68999429546885
 30
0.0
  0
VERTEX
  5
12C
  8
LAYER_1
 10
63.41350123025011
 20
-25.67830663558122
 30
0.0
  0
VERTEX
  5
12D
  8
LAYER_1
 10
63.40511734408449
 20
-25.6667701694202
 30
0.0
  0
VERTEX
  5
12E
  8
LAYER_1
 10
63.39641026472934
 20
-25.65538813931947
 30
0.0
  0
VERTEX
  5
12F
  8
LAYER_1
 10
63.38738890811158
 20
-25.64416378761269
 30
0.0
  0
VERTEX
  5
130
  8
LAYER_1
 10
63.37806219015816
 20
-25.63310035663353
 30
0.0
  0
VERTEX
  5
131
  8
LAYER_1
 10
63.36843902679601
 20
-25.62220108871565
 30
0.0
  0
VERTEX
  5
132
  8
LAYER_1
 10
63.35852833395208
 20
-25.61146922619271
 30
0.0
  0
VERTEX
  5
133
  8
LAYER_1
 10
63.34833902755331
 20
-25.60090801139839
 30
0.0
  0
VERTEX
  5
134
  8
LAYER_1
 10
63.33788002352664
 20
-25.59052068666634
 30
0.0
  0
VERTEX
  5
135
  8
LAYER_1
 10
63.32716023779901
 20
-25.58031049433024
 30
0.0
  0
VERTEX
  5
136
  8
LAYER_1
 10
63.31618858629736
 20
-25.57028067672375
 30
0.0
  0
VERTEX
  5
137
  8
LAYER_1
 10
63.29352534967977
 20
-25.55077513503427
 30
0.0
  0
VERTEX
  5
138
  8
LAYER_1
 10
63.26996164108941
 20
-25.53203000026721
 30
0.0
  0
VERTEX
  5
139
  8
LAYER_1
 10
63.2455687879418
 20
-25.51407121109191
 30
0.0
  0
VERTEX
  5
13A
  8
LAYER_1
 10
63.22041811765247
 20
-25.49692470617769
 30
0.0
  0
VERTEX
  5
13B
  8
LAYER_1
 10
63.19458095763694
 20
-25.48061642419388
 30
0.0
  0
VERTEX
  5
13C
  8
LAYER_1
 10
63.16812863531075
 20
-25.4651723038098
 30
0.0
  0
VERTEX
  5
13D
  8
LAYER_1
 10
63.1411324780894
 20
-25.45061828369479
 30
0.0
  0
VERTEX
  5
13E
  8
LAYER_1
 10
63.11366381338847
 20
-25.43698030251816
 30
0.0
  0
VERTEX
  5
13F
  8
LAYER_1
 10
63.08579396862343
 20
-25.42428429894925
 30
0.0
  0
VERTEX
  5
140
  8
LAYER_1
 10
63.05759427120987
 20
-25.41255621165737
 30
0.0
  0
VERTEX
  5
141
  8
LAYER_1
 10
63.02913604856326
 20
-25.40182197931187
 30
0.0
  0
VERTEX
  5
142
  8
LAYER_1
 10
63.00049062809916
 20
-25.39210754058205
 30
0.0
  0
VERTEX
  5
143
  8
LAYER_1
 10
62.97172933723309
 20
-25.38343883413725
 30
0.0
  0
VERTEX
  5
144
  8
LAYER_1
 10
62.94292350338058
 20
-25.37584179864679
 30
0.0
  0
VERTEX
  5
145
  8
LAYER_1
 10
62.91414445395715
 20
-25.36934237278001
 30
0.0
  0
VERTEX
  5
146
  8
LAYER_1
 10
62.88546351637834
 20
-25.36396649520622
 30
0.0
  0
VERTEX
  5
147
  8
LAYER_1
 10
62.85695201805967
 20
-25.35974010459476
 30
0.0
  0
VERTEX
  5
148
  8
LAYER_1
 10
62.82868128641667
 20
-25.35668913961495
 30
0.0
  0
VERTEX
  5
149
  8
LAYER_1
 10
62.80072264886488
 20
-25.35483953893611
 30
0.0
  0
VERTEX
  5
14A
  8
LAYER_1
 10
62.78688265519053
 20
-25.35437335604372
 30
0.0
  0
VERTEX
  5
14B
  8
LAYER_1
 10
62.7731474328198
 20
-25.35421724122757
 30
0.0
  0
VERTEX
  5
14C
  8
LAYER_1
 10
55.74194743298326
 20
-25.35421724115629
 30
0.0
  0
VERTEX
  5
14D
  8
LAYER_1
 10
55.72741974367113
 20
-25.35445000383334
 30
0.0
  0
VERTEX
  5
14E
  8
LAYER_1
 10
55.71287353667843
 20
-25.35514320140214
 30
0.0
  0
VERTEX
  5
14F
  8
LAYER_1
 10
55.69831552292489
 20
-25.35628919816874
 30
0.0
  0
VERTEX
  5
150
  8
LAYER_1
 10
55.68375241333027
 20
-25.35788035843917
 30
0.0
  0
VERTEX
  5
151
  8
LAYER_1
 10
55.66919091881428
 20
-25.35990904651949
 30
0.0
  0
VERTEX
  5
152
  8
LAYER_1
 10
55.65463775029666
 20
-25.36236762671573
 30
0.0
  0
VERTEX
  5
153
  8
LAYER_1
 10
55.64009961869717
 20
-25.36524846333394
 30
0.0
  0
VERTEX
  5
154
  8
LAYER_1
 10
55.62558323493551
 20
-25.36854392068015
 30
0.0
  0
VERTEX
  5
155
  8
LAYER_1
 10
55.61109530993144
 20
-25.37224636306042
 30
0.0
  0
VERTEX
  5
156
  8
LAYER_1
 10
55.59664255460469
 20
-25.37634815478077
 30
0.0
  0
VERTEX
  5
157
  8
LAYER_1
 10
55.58223167987499
 20
-25.38084166014726
 30
0.0
  0
VERTEX
  5
158
  8
LAYER_1
 10
55.56786939666208
 20
-25.38571924346593
 30
0.0
  0
VERTEX
  5
159
  8
LAYER_1
 10
55.55356241588571
 20
-25.39097326904281
 30
0.0
  0
VERTEX
  5
15A
  8
LAYER_1
 10
55.53931744846558
 20
-25.39659610118396
 30
0.0
  0
VERTEX
  5
15B
  8
LAYER_1
 10
55.52514120532145
 20
-25.40258010419541
 30
0.0
  0
VERTEX
  5
15C
  8
LAYER_1
 10
55.51104039737306
 20
-25.4089176423832
 30
0.0
  0
VERTEX
  5
15D
  8
LAYER_1
 10
55.49702173554014
 20
-25.41560108005338
 30
0.0
  0
VERTEX
  5
15E
  8
LAYER_1
 10
55.48309193074241
 20
-25.422622781512
 30
0.0
  0
VERTEX
  5
15F
  8
LAYER_1
 10
55.46925769389964
 20
-25.42997511106508
 30
0.0
  0
VERTEX
  5
160
  8
LAYER_1
 10
55.45552573593153
 20
-25.43765043301868
 30
0.0
  0
VERTEX
  5
161
  8
LAYER_1
 10
55.44190276775784
 20
-25.44564111167884
 30
0.0
  0
VERTEX
  5
162
  8
LAYER_1
 10
55.42839550029829
 20
-25.45393951135159
 30
0.0
  0
VERTEX
  5
163
  8
LAYER_1
 10
55.41501064447262
 20
-25.46253799634299
 30
0.0
  0
VERTEX
  5
164
  8
LAYER_1
 10
55.40175491120057
 20
-25.47142893095907
 30
0.0
  0
VERTEX
  5
165
  8
LAYER_1
 10
55.38863501140187
 20
-25.48060467950588
 30
0.0
  0
VERTEX
  5
166
  8
LAYER_1
 10
55.37565765599627
 20
-25.49005760628946
 30
0.0
  0
VERTEX
  5
167
  8
LAYER_1
 10
55.3628295559035
 20
-25.49978007561585
 30
0.0
  0
VERTEX
  5
168
  8
LAYER_1
 10
55.35015742204328
 20
-25.50976445179109
 30
0.0
  0
VERTEX
  5
169
  8
LAYER_1
 10
55.32530789669947
 20
-25.5304883819123
 30
0.0
  0
VERTEX
  5
16A
  8
LAYER_1
 10
55.30116276732272
 20
-25.55216831110143
 30
0.0
  0
VERTEX
  5
16B
  8
LAYER_1
 10
55.27777572127093
 20
-25.57474315380682
 30
0.0
  0
VERTEX
  5
16C
  8
LAYER_1
 10
55.25520044590199
 20
-25.5981518244768
 30
0.0
  0
VERTEX
  5
16D
  8
LAYER_1
 10
55.23349062857378
 20
-25.62233323755972
 30
0.0
  0
VERTEX
  5
16E
  8
LAYER_1
 10
55.21269995664418
 20
-25.64722630750391
 30
0.0
  0
VERTEX
  5
16F
  8
LAYER_1
 10
55.19288211747108
 20
-25.67276994875772
 30
0.0
  0
VERTEX
  5
170
  8
LAYER_1
 10
55.17409079841237
 20
-25.69890307576947
 30
0.0
  0
VERTEX
  5
171
  8
LAYER_1
 10
55.15637968682592
 20
-25.72556460298751
 30
0.0
  0
VERTEX
  5
172
  8
LAYER_1
 10
55.14794598613413
 20
-25.73907442743899
 30
0.0
  0
VERTEX
  5
173
  8
LAYER_1
 10
55.13980247006963
 20
-25.75269344486018
 30
0.0
  0
VERTEX
  5
174
  8
LAYER_1
 10
55.13195584955212
 20
-25.7664140195571
 30
0.0
  0
VERTEX
  5
175
  8
LAYER_1
 10
55.12441283550137
 20
-25.78022851583581
 30
0.0
  0
VERTEX
  5
176
  8
LAYER_1
 10
55.1171801388371
 20
-25.79412929800234
 30
0.0
  0
VERTEX
  5
177
  8
LAYER_1
 10
55.11026447047905
 20
-25.80810873036274
 30
0.0
  0
VERTEX
  5
178
  8
LAYER_1
 10
55.10367254134694
 20
-25.82215917722305
 30
0.0
  0
VERTEX
  5
179
  8
LAYER_1
 10
55.09741106236054
 20
-25.83627300288931
 30
0.0
  0
VERTEX
  5
17A
  8
LAYER_1
 10
55.09148674443954
 20
-25.85044257166757
 30
0.0
  0
VERTEX
  5
17B
  8
LAYER_1
 10
55.08590629850372
 20
-25.86466024786387
 30
0.0
  0
VERTEX
  5
17C
  8
LAYER_1
 10
55.08067643547278
 20
-25.87891839578424
 30
0.0
  0
VERTEX
  5
17D
  8
LAYER_1
 10
55.07580386626648
 20
-25.89320937973473
 30
0.0
  0
VERTEX
  5
17E
  8
LAYER_1
 10
55.07129530180455
 20
-25.90752556402139
 30
0.0
  0
VERTEX
  5
17F
  8
LAYER_1
 10
55.06715745300673
 20
-25.92185931295026
 30
0.0
  0
VERTEX
  5
180
  8
LAYER_1
 10
55.06339703079273
 20
-25.93620299082737
 30
0.0
  0
VERTEX
  5
181
  8
LAYER_1
 10
55.06002074608232
 20
-25.95054896195877
 30
0.0
  0
VERTEX
  5
182
  8
LAYER_1
 10
55.05703530979521
 20
-25.96488959065051
 30
0.0
  0
VERTEX
  5
183
  8
LAYER_1
 10
55.05444743285115
 20
-25.97921724120862
 30
0.0
  0
VERTEX
  5
184
  8
LAYER_1
 10
54.77314743276668
 20
-27.66671724124382
 30
0.0
  0
VERTEX
  5
185
  8
LAYER_1
 10
54.76845887312034
 20
-27.69167172155018
 30
0.0
  0
VERTEX
  5
186
  8
LAYER_1
 10
54.76275246857985
 20
-27.71647165293511
 30
0.0
  0
VERTEX
  5
187
  8
LAYER_1
 10
54.75605092083312
 20
-27.74110568228528
 30
0.0
  0
VERTEX
  5
188
  8
LAYER_1
 10
54.74837693156803
 20
-27.76556245648734
 30
0.0
  0
VERTEX
  5
189
  8
LAYER_1
 10
54.73975320247247
 20
-27.78983062242798
 30
0.0
  0
VERTEX
  5
18A
  8
LAYER_1
 10
54.73020243523432
 20
-27.81389882699384
 30
0.0
  0
VERTEX
  5
18B
  8
LAYER_1
 10
54.71974733154146
 20
-27.83775571707159
 30
0.0
  0
VERTEX
  5
18C
  8
LAYER_1
 10
54.70841059308177
 20
-27.86138993954789
 30
0.0
  0
VERTEX
  5
18D
  8
LAYER_1
 10
54.69621492154315
 20
-27.88479014130942
 30
0.0
  0
VERTEX
  5
18E
  8
LAYER_1
 10
54.68318301861348
 20
-27.90794496924282
 30
0.0
  0
VERTEX
  5
18F
  8
LAYER_1
 10
54.66933758598066
 20
-27.93084307023476
 30
0.0
  0
VERTEX
  5
190
  8
LAYER_1
 10
54.65470132533255
 20
-27.95347309117192
 30
0.0
  0
VERTEX
  5
191
  8
LAYER_1
 10
54.63929693835705
 20
-27.97582367894095
 30
0.0
  0
VERTEX
  5
192
  8
LAYER_1
 10
54.62314712674205
 20
-27.99788348042851
 30
0.0
  0
VERTEX
  5
193
  8
LAYER_1
 10
54.60627459217542
 20
-28.01964114252127
 30
0.0
  0
VERTEX
  5
194
  8
LAYER_1
 10
54.58870203634505
 20
-28.0410853121059
 30
0.0
  0
VERTEX
  5
195
  8
LAYER_1
 10
54.57045216093884
 20
-28.06220463606905
 30
0.0
  0
VERTEX
  5
196
  8
LAYER_1
 10
54.55154766764466
 20
-28.08298776129739
 30
0.0
  0
VERTEX
  5
197
  8
LAYER_1
 10
54.5320112581504
 20
-28.10342333467758
 30
0.0
  0
VERTEX
  5
198
  8
LAYER_1
 10
54.51186563414396
 20
-28.12350000309628
 30
0.0
  0
VERTEX
  5
199
  8
LAYER_1
 10
54.4911334973132
 20
-28.14320641344017
 30
0.0
  0
VERTEX
  5
19A
  8
LAYER_1
 10
54.46983754934602
 20
-28.1625312125959
 30
0.0
  0
VERTEX
  5
19B
  8
LAYER_1
 10
54.4480004919303
 20
-28.18146304745014
 30
0.0
  0
VERTEX
  5
19C
  8
LAYER_1
 10
54.42564502675394
 20
-28.19999056488954
 30
0.0
  0
VERTEX
  5
19D
  8
LAYER_1
 10
54.4027938555048
 20
-28.21810241180079
 30
0.0
  0
VERTEX
  5
19E
  8
LAYER_1
 10
54.37946967987079
 20
-28.23578723507053
 30
0.0
  0
VERTEX
  5
19F
  8
LAYER_1
 10
54.35569520153979
 20
-28.25303368158542
 30
0.0
  0
VERTEX
  5
1A0
  8
LAYER_1
 10
54.33149312219967
 20
-28.26983039823214
 30
0.0
  0
VERTEX
  5
1A1
  8
LAYER_1
 10
54.30688614353834
 20
-28.28616603189736
 30
0.0
  0
VERTEX
  5
1A2
  8
LAYER_1
 10
54.28189696724366
 20
-28.30202922946772
 30
0.0
  0
VERTEX
  5
1A3
  8
LAYER_1
 10
54.25654829500353
 20
-28.3174086378299
 30
0.0
  0
VERTEX
  5
1A4
  8
LAYER_1
 10
54.23086282850583
 20
-28.33229290387055
 30
0.0
  0
VERTEX
  5
1A5
  8
LAYER_1
 10
54.20486326943846
 20
-28.34667067447635
 30
0.0
  0
VERTEX
  5
1A6
  8
LAYER_1
 10
54.17857231948928
 20
-28.36053059653396
 30
0.0
  0
VERTEX
  5
1A7
  8
LAYER_1
 10
54.1520126803462
 20
-28.37386131693003
 30
0.0
  0
VERTEX
  5
1A8
  8
LAYER_1
 10
54.1252070536971
 20
-28.38665148255123
 30
0.0
  0
VERTEX
  5
1A9
  8
LAYER_1
 10
54.09817814122985
 20
-28.39888974028423
 30
0.0
  0
VERTEX
  5
1AA
  8
LAYER_1
 10
54.07094864463235
 20
-28.41056473701569
 30
0.0
  0
VERTEX
  5
1AB
  8
LAYER_1
 10
54.04354126559249
 20
-28.42166511963227
 30
0.0
  0
VERTEX
  5
1AC
  8
LAYER_1
 10
54.01597870579813
 20
-28.43217953502064
 30
0.0
  0
VERTEX
  5
1AD
  8
LAYER_1
 10
53.98828366693719
 20
-28.44209663006745
 30
0.0
  0
VERTEX
  5
1AE
  8
LAYER_1
 10
53.96047885069753
 20
-28.45140505165939
 30
0.0
  0
VERTEX
  5
1AF
  8
LAYER_1
 10
53.93258695876703
 20
-28.46009344668309
 30
0.0
  0
VERTEX
  5
1B0
  8
LAYER_1
 10
53.90463069283361
 20
-28.46815046202524
 30
0.0
  0
VERTEX
  5
1B1
  8
LAYER_1
 10
53.87663275458513
 20
-28.47556474457249
 30
0.0
  0
VERTEX
  5
1B2
  8
LAYER_1
 10
53.84861584570948
 20
-28.48232494121151
 30
0.0
  0
VERTEX
  5
1B3
  8
LAYER_1
 10
53.82060266789455
 20
-28.48841969882896
 30
0.0
  0
VERTEX
  5
1B4
  8
LAYER_1
 10
53.79261592282822
 20
-28.49383766431151
 30
0.0
  0
VERTEX
  5
1B5
  8
LAYER_1
 10
53.76467831219837
 20
-28.49856748454582
 30
0.0
  0
VERTEX
  5
1B6
  8
LAYER_1
 10
53.73681253769291
 20
-28.50259780641854
 30
0.0
  0
VERTEX
  5
1B7
  8
LAYER_1
 10
53.7090413009997
 20
-28.50591727681635
 30
0.0
  0
VERTEX
  5
1B8
  8
LAYER_1
 10
53.68138730380663
 20
-28.50851454262591
 30
0.0
  0
VERTEX
  5
1B9
  8
LAYER_1
 10
53.65387324780158
 20
-28.51037825073388
 30
0.0
  0
VERTEX
  5
1BA
  8
LAYER_1
 10
53.62652183467246
 20
-28.51149704802692
 30
0.0
  0
VERTEX
  5
1BB
  8
LAYER_1
 10
53.59935576610714
 20
-28.51185958139171
 30
0.0
  0
VERTEX
  5
1BC
  8
LAYER_1
 10
53.5723977437935
 20
-28.51145449771489
 30
0.0
  0
VERTEX
  5
1BD
  8
LAYER_1
 10
53.54567046941943
 20
-28.51027044388314
 30
0.0
  0
VERTEX
  5
1BE
  8
LAYER_1
 10
53.51919664467283
 20
-28.50829606678312
 30
0.0
  0
VERTEX
  5
1BF
  8
LAYER_1
 10
53.49299897124157
 20
-28.5055200133015
 30
0.0
  0
VERTEX
  5
1C0
  8
LAYER_1
 10
53.46710015081354
 20
-28.50193093032493
 30
0.0
  0
VERTEX
  5
1C1
  8
LAYER_1
 10
53.44152288507662
 20
-28.49751746474008
 30
0.0
  0
VERTEX
  5
1C2
  8
LAYER_1
 10
53.4162898757187
 20
-28.49226826343362
 30
0.0
  0
VERTEX
  5
1C3
  8
LAYER_1
 10
53.39142382442765
 20
-28.4861719732922
 30
0.0
  0
VERTEX
  5
1C4
  8
LAYER_1
 10
53.36694743289139
 20
-28.47921724120249
 30
0.0
  0
VERTEX
  5
1C5
  8
LAYER_1
 10
40.42944743277013
 20
-24.54171724123338
 30
0.0
  0
VERTEX
  5
1C6
  8
LAYER_1
 10
40.4122639234615
 20
-24.53627538303216
 30
0.0
  0
VERTEX
  5
1C7
  8
LAYER_1
 10
40.39516628188846
 20
-24.53043891071147
 30
0.0
  0
VERTEX
  5
1C8
  8
LAYER_1
 10
40.37815874756812
 20
-24.524214276388
 30
0.0
  0
VERTEX
  5
1C9
  8
LAYER_1
 10
40.36124556001759
 20
-24.51760793217844
 30
0.0
  0
VERTEX
  5
1CA
  8
LAYER_1
 10
40.34443095875397
 20
-24.51062633019949
 30
0.0
  0
VERTEX
  5
1CB
  8
LAYER_1
 10
40.32771918329438
 20
-24.50327592256783
 30
0.0
  0
VERTEX
  5
1CC
  8
LAYER_1
 10
40.31111447315592
 20
-24.49556316140015
 30
0.0
  0
VERTEX
  5
1CD
  8
LAYER_1
 10
40.2946210678557
 20
-24.48749449881313
 30
0.0
  0
VERTEX
  5
1CE
  8
LAYER_1
 10
40.27824320691082
 20
-24.47907638692348
 30
0.0
  0
VERTEX
  5
1CF
  8
LAYER_1
 10
40.26198512983839
 20
-24.47031527784788
 30
0.0
  0
VERTEX
  5
1D0
  8
LAYER_1
 10
40.24585107615553
 20
-24.46121762370302
 30
0.0
  0
VERTEX
  5
1D1
  8
LAYER_1
 10
40.22984528537933
 20
-24.45178987660558
 30
0.0
  0
VERTEX
  5
1D2
  8
LAYER_1
 10
40.2139719970269
 20
-24.44203848867227
 30
0.0
  0
VERTEX
  5
1D3
  8
LAYER_1
 10
40.19823545061534
 20
-24.43196991201976
 30
0.0
  0
VERTEX
  5
1D4
  8
LAYER_1
 10
40.18263988566178
 20
-24.42159059876474
 30
0.0
  0
VERTEX
  5
1D5
  8
LAYER_1
 10
40.16718954168331
 20
-24.41090700102392
 30
0.0
  0
VERTEX
  5
1D6
  8
LAYER_1
 10
40.15188865819704
 20
-24.39992557091397
 30
0.0
  0
VERTEX
  5
1D7
  8
LAYER_1
 10
40.13674147472008
 20
-24.38865276055158
 30
0.0
  0
VERTEX
  5
1D8
  8
LAYER_1
 10
40.12175223076954
 20
-24.37709502205345
 30
0.0
  0
VERTEX
  5
1D9
  8
LAYER_1
 10
40.10692516586252
 20
-24.36525880753626
 30
0.0
  0
VERTEX
  5
1DA
  8
LAYER_1
 10
40.09226451951614
 20
-24.35315056911671
 30
0.0
  0
VERTEX
  5
1DB
  8
LAYER_1
 10
40.07777453124748
 20
-24.34077675891148
 30
0.0
  0
VERTEX
  5
1DC
  8
LAYER_1
 10
40.06345944057367
 20
-24.32814382903727
 30
0.0
  0
VERTEX
  5
1DD
  8
LAYER_1
 10
40.0493234870118
 20
-24.31525823161075
 30
0.0
  0
VERTEX
  5
1DE
  8
LAYER_1
 10
40.035370910079
 20
-24.30212641874862
 30
0.0
  0
VERTEX
  5
1DF
  8
LAYER_1
 10
40.02160594929236
 20
-24.28875484256758
 30
0.0
  0
VERTEX
  5
1E0
  8
LAYER_1
 10
39.99465583422601
 20
-24.26131820871549
 30
0.0
  0
VERTEX
  5
1E1
  8
LAYER_1
 10
39.96850705794959
 20
-24.232999946988
 30
0.0
  0
VERTEX
  5
1E2
  8
LAYER_1
 10
39.94319353659998
 20
-24.20385167431862
 30
0.0
  0
VERTEX
  5
1E3
  8
LAYER_1
 10
39.91874918631403
 20
-24.17392500764087
 30
0.0
  0
VERTEX
  5
1E4
  8
LAYER_1
 10
39.8952079232286
 20
-24.14327156388826
 30
0.0
  0
VERTEX
  5
1E5
  8
LAYER_1
 10
39.87260366348053
 20
-24.11194295999432
 30
0.0
  0
VERTEX
  5
1E6
  8
LAYER_1
 10
39.85097032320669
 20
-24.07999081289254
 30
0.0
  0
VERTEX
  5
1E7
  8
LAYER_1
 10
39.83034181854393
 20
-24.04746673951646
 30
0.0
  0
VERTEX
  5
1E8
  8
LAYER_1
 10
39.81075206562912
 20
-24.01442235679959
 30
0.0
  0
VERTEX
  5
1E9
  8
LAYER_1
 10
39.79223498059909
 20
-23.98090928167543
 30
0.0
  0
VERTEX
  5
1EA
  8
LAYER_1
 10
39.77482447959072
 20
-23.94697913107752
 30
0.0
  0
VERTEX
  5
1EB
  8
LAYER_1
 10
39.75855447874086
 20
-23.91268352193936
 30
0.0
  0
VERTEX
  5
1EC
  8
LAYER_1
 10
39.75085776466814
 20
-23.89541480070941
 30
0.0
  0
VERTEX
  5
1ED
  8
LAYER_1
 10
39.74345889418638
 20
-23.87807407119447
 30
0.0
  0
VERTEX
  5
1EE
  8
LAYER_1
 10
39.73636210681266
 20
-23.86066778551122
 30
0.0
  0
VERTEX
  5
1EF
  8
LAYER_1
 10
39.72957164206412
 20
-23.84320239577636
 30
0.0
  0
VERTEX
  5
1F0
  8
LAYER_1
 10
39.72309173945783
 20
-23.82568435410657
 30
0.0
  0
VERTEX
  5
1F1
  8
LAYER_1
 10
39.71692663851093
 20
-23.80812011261855
 30
0.0
  0
VERTEX
  5
1F2
  8
LAYER_1
 10
39.71108057874051
 20
-23.79051612342899
 30
0.0
  0
VERTEX
  5
1F3
  8
LAYER_1
 10
39.70555779966368
 20
-23.77287883865456
 30
0.0
  0
VERTEX
  5
1F4
  8
LAYER_1
 10
39.70036254079754
 20
-23.75521471041197
 30
0.0
  0
VERTEX
  5
1F5
  8
LAYER_1
 10
39.69549904165922
 20
-23.7375301908179
 30
0.0
  0
VERTEX
  5
1F6
  8
LAYER_1
 10
39.6909715417658
 20
-23.71983173198905
 30
0.0
  0
VERTEX
  5
1F7
  8
LAYER_1
 10
39.68678428063441
 20
-23.70212578604209
 30
0.0
  0
VERTEX
  5
1F8
  8
LAYER_1
 10
39.68294149778214
 20
-23.68441880509372
 30
0.0
  0
VERTEX
  5
1F9
  8
LAYER_1
 10
39.67944743272611
 20
-23.66671724126064
 30
0.0
  0
VERTEX
  5
1FA
  8
LAYER_1
 10
38.64814743284491
 20
-18.16671724116969
 30
0.0
  0
VERTEX
  5
1FB
  8
LAYER_1
 10
38.64430471376012
 20
-18.14766875076277
 30
0.0
  0
VERTEX
  5
1FC
  8
LAYER_1
 10
38.63992694662309
 20
-18.12863000409351
 30
0.0
  0
VERTEX
  5
1FD
  8
LAYER_1
 10
38.63502342220991
 20
-18.1096102887966
 30
0.0
  0
VERTEX
  5
1FE
  8
LAYER_1
 10
38.62960343129665
 20
-18.09061889250671
 30
0.0
  0
VERTEX
  5
1FF
  8
LAYER_1
 10
38.6236762646594
 20
-18.0716651028585
 30
0.0
  0
VERTEX
  5
200
  8
LAYER_1
 10
38.61725121307424
 20
-18.05275820748664
 30
0.0
  0
VERTEX
  5
201
  8
LAYER_1
 10
38.61033756731726
 20
-18.03390749402581
 30
0.0
  0
VERTEX
  5
202
  8
LAYER_1
 10
38.60294461816453
 20
-18.01512225011067
 30
0.0
  0
VERTEX
  5
203
  8
LAYER_1
 10
38.59508165639214
 20
-17.9964117633759
 30
0.0
  0
VERTEX
  5
204
  8
LAYER_1
 10
38.58675797277617
 20
-17.97778532145617
 30
0.0
  0
VERTEX
  5
205
  8
LAYER_1
 10
38.5779828580927
 20
-17.95925221198614
 30
0.0
  0
VERTEX
  5
206
  8
LAYER_1
 10
38.56876560311782
 20
-17.9408217226005
 30
0.0
  0
VERTEX
  5
207
  8
LAYER_1
 10
38.55911549862762
 20
-17.92250314093391
 30
0.0
  0
VERTEX
  5
208
  8
LAYER_1
 10
38.54904183539817
 20
-17.90430575462103
 30
0.0
  0
VERTEX
  5
209
  8
LAYER_1
 10
38.53855390420556
 20
-17.88623885129655
 30
0.0
  0
VERTEX
  5
20A
  8
LAYER_1
 10
38.52766099582585
 20
-17.86831171859513
 30
0.0
  0
VERTEX
  5
20B
  8
LAYER_1
 10
38.51637240103516
 20
-17.85053364415144
 30
0.0
  0
VERTEX
  5
20C
  8
LAYER_1
 10
38.50469741060954
 20
-17.83291391560015
 30
0.0
  0
VERTEX
  5
20D
  8
LAYER_1
 10
38.49264531532509
 20
-17.81546182057594
 30
0.0
  0
VERTEX
  5
20E
  8
LAYER_1
 10
38.4802254059579
 20
-17.79818664671347
 30
0.0
  0
VERTEX
  5
20F
  8
LAYER_1
 10
38.46744697328403
 20
-17.78109768164742
 30
0.0
  0
VERTEX
  5
210
  8
LAYER_1
 10
38.45431930807956
 20
-17.76420421301245
 30
0.0
  0
VERTEX
  5
211
  8
LAYER_1
 10
38.4408517011206
 20
-17.74751552844324
 30
0.0
  0
VERTEX
  5
212
  8
LAYER_1
 10
38.42705344318323
 20
-17.73104091557445
 30
0.0
  0
VERTEX
  5
213
  8
LAYER_1
 10
38.41293382504351
 20
-17.71478966204077
 30
0.0
  0
VERTEX
  5
214
  8
LAYER_1
 10
38.39850213747754
 20
-17.69877105547685
 30
0.0
  0
VERTEX
  5
215
  8
LAYER_1
 10
38.38376767126139
 20
-17.68299438351738
 30
0.0
  0
VERTEX
  5
216
  8
LAYER_1
 10
38.36873971717115
 20
-17.66746893379701
 30
0.0
  0
VERTEX
  5
217
  8
LAYER_1
 10
38.35342756598291
 20
-17.65220399395043
 30
0.0
  0
VERTEX
  5
218
  8
LAYER_1
 10
38.33784050847274
 20
-17.63720885161229
 30
0.0
  0
VERTEX
  5
219
  8
LAYER_1
 10
38.32198783541672
 20
-17.62249279441728
 30
0.0
  0
VERTEX
  5
21A
  8
LAYER_1
 10
38.30587883759096
 20
-17.60806511000006
 30
0.0
  0
VERTEX
  5
21B
  8
LAYER_1
 10
38.28952280577152
 20
-17.59393508599531
 30
0.0
  0
VERTEX
  5
21C
  8
LAYER_1
 10
38.27292903073447
 20
-17.58011201003769
 30
0.0
  0
VERTEX
  5
21D
  8
LAYER_1
 10
38.25610680325592
 20
-17.56660516976188
 30
0.0
  0
VERTEX
  5
21E
  8
LAYER_1
 10
38.23906541411194
 20
-17.55342385280254
 30
0.0
  0
VERTEX
  5
21F
  8
LAYER_1
 10
38.22181415407861
 20
-17.54057734679434
 30
0.0
  0
VERTEX
  5
220
  8
LAYER_1
 10
38.20436231393202
 20
-17.52807493937197
 30
0.0
  0
VERTEX
  5
221
  8
LAYER_1
 10
38.18671918444825
 20
-17.51592591817008
 30
0.0
  0
VERTEX
  5
222
  8
LAYER_1
 10
38.16889405640338
 20
-17.50413957082336
 30
0.0
  0
VERTEX
  5
223
  8
LAYER_1
 10
38.1508962205735
 20
-17.49272518496646
 30
0.0
  0
VERTEX
  5
224
  8
LAYER_1
 10
38.13273496773468
 20
-17.48169204823406
 30
0.0
  0
VERTEX
  5
225
  8
LAYER_1
 10
38.11441958866301
 20
-17.47104944826083
 30
0.0
  0
VERTEX
  5
226
  8
LAYER_1
 10
38.09595937413458
 20
-17.46080667268144
 30
0.0
  0
VERTEX
  5
227
  8
LAYER_1
 10
38.07736361492546
 20
-17.45097300913057
 30
0.0
  0
VERTEX
  5
228
  8
LAYER_1
 10
38.05864160181174
 20
-17.44155774524287
 30
0.0
  0
VERTEX
  5
229
  8
LAYER_1
 10
38.0398026255695
 20
-17.43257016865304
 30
0.0
  0
VERTEX
  5
22A
  8
LAYER_1
 10
38.02085597697482
 20
-17.42401956699573
 30
0.0
  0
VERTEX
  5
22B
  8
LAYER_1
 10
38.00181094680379
 20
-17.41591522790561
 30
0.0
  0
VERTEX
  5
22C
  8
LAYER_1
 10
37.98267682583248
 20
-17.40826643901736
 30
0.0
  0
VERTEX
  5
22D
  8
LAYER_1
 10
37.96346290483699
 20
-17.40108248796565
 30
0.0
  0
VERTEX
  5
22E
  8
LAYER_1
 10
37.9441784745934
 20
-17.39437266238514
 30
0.0
  0
VERTEX
  5
22F
  8
LAYER_1
 10
37.92483282587779
 20
-17.38814624991051
 30
0.0
  0
VERTEX
  5
230
  8
LAYER_1
 10
37.90543524946622
 20
-17.38241253817643
 30
0.0
  0
VERTEX
  5
231
  8
LAYER_1
 10
37.8859950361348
 20
-17.37718081481757
 30
0.0
  0
VERTEX
  5
232
  8
LAYER_1
 10
37.86652147665961
 20
-17.3724603674686
 30
0.0
  0
VERTEX
  5
233
  8
LAYER_1
 10
37.84702386181672
 20
-17.36826048376419
 30
0.0
  0
VERTEX
  5
234
  8
LAYER_1
 10
37.82751148238222
 20
-17.36459045133901
 30
0.0
  0
VERTEX
  5
235
  8
LAYER_1
 10
37.8079936291322
 20
-17.36145955782773
 30
0.0
  0
VERTEX
  5
236
  8
LAYER_1
 10
37.78847959284273
 20
-17.35887709086503
 30
0.0
  0
VERTEX
  5
237
  8
LAYER_1
 10
37.76897866428989
 20
-17.35685233808557
 30
0.0
  0
VERTEX
  5
238
  8
LAYER_1
 10
37.74950013424979
 20
-17.35539458712402
 30
0.0
  0
VERTEX
  5
239
  8
LAYER_1
 10
37.73005329349849
 20
-17.35451312561506
 30
0.0
  0
VERTEX
  5
23A
  8
LAYER_1
 10
37.71064743281206
 20
-17.35421724119336
 30
0.0
  0
VERTEX
  5
23B
  8
LAYER_1
 10
31.92944743275014
 20
-17.3542172412373
 30
0.0
  0
VERTEX
  5
23C
  8
LAYER_1
 10
31.91110704836785
 20
-17.35455158565525
 30
0.0
  0
VERTEX
  5
23D
  8
LAYER_1
 10
31.89278705291565
 20
-17.35554297970972
 30
0.0
  0
VERTEX
  5
23E
  8
LAYER_1
 10
31.8744966156256
 20
-17.35717396460212
 30
0.0
  0
VERTEX
  5
23F
  8
LAYER_1
 10
31.85624490572975
 20
-17.35942708153382
 30
0.0
  0
VERTEX
  5
240
  8
LAYER_1
 10
31.83804109246012
 20
-17.36228487170623
 30
0.0
  0
VERTEX
  5
241
  8
LAYER_1
 10
31.81989434504877
 20
-17.36572987632071
 30
0.0
  0
VERTEX
  5
242
  8
LAYER_1
 10
31.80181383272773
 20
-17.36974463657866
 30
0.0
  0
VERTEX
  5
243
  8
LAYER_1
 10
31.78380872472904
 20
-17.37431169368148
 30
0.0
  0
VERTEX
  5
244
  8
LAYER_1
 10
31.76588819028475
 20
-17.37941358883054
 30
0.0
  0
VERTEX
  5
245
  8
LAYER_1
 10
31.74806139862689
 20
-17.38503286322723
 30
0.0
  0
VERTEX
  5
246
  8
LAYER_1
 10
31.73033751898751
 20
-17.39115205807295
 30
0.0
  0
VERTEX
  5
247
  8
LAYER_1
 10
31.71272572059865
 20
-17.39775371456908
 30
0.0
  0
VERTEX
  5
248
  8
LAYER_1
 10
31.69523517269235
 20
-17.40482037391701
 30
0.0
  0
VERTEX
  5
249
  8
LAYER_1
 10
31.67787504450065
 20
-17.41233457731812
 30
0.0
  0
VERTEX
  5
24A
  8
LAYER_1
 10
31.66065450525559
 20
-17.42027886597381
 30
0.0
  0
VERTEX
  5
24B
  8
LAYER_1
 10
31.64358272418921
 20
-17.42863578108546
 30
0.0
  0
VERTEX
  5
24C
  8
LAYER_1
 10
31.62666887053355
 20
-17.43738786385445
 30
0.0
  0
VERTEX
  5
24D
  8
LAYER_1
 10
31.60992211352066
 20
-17.44651765548219
 30
0.0
  0
VERTEX
  5
24E
  8
LAYER_1
 10
31.59335162238258
 20
-17.45600769717004
 30
0.0
  0
VERTEX
  5
24F
  8
LAYER_1
 10
31.57696656635134
 20
-17.46584053011942
 30
0.0
  0
VERTEX
  5
250
  8
LAYER_1
 10
31.56077611465899
 20
-17.47599869553168
 30
0.0
  0
VERTEX
  5
251
  8
LAYER_1
 10
31.54478943653757
 20
-17.48646473460824
 30
0.0
  0
VERTEX
  5
252
  8
LAYER_1
 10
31.52901570121912
 20
-17.49722118855047
 30
0.0
  0
VERTEX
  5
253
  8
LAYER_1
 10
31.51346407793567
 20
-17.50825059855976
 30
0.0
  0
VERTEX
  5
254
  8
LAYER_1
 10
31.49814373591929
 20
-17.5195355058375
 30
0.0
  0
VERTEX
  5
255
  8
LAYER_1
 10
31.48306384440199
 20
-17.53105845158509
 30
0.0
  0
VERTEX
  5
256
  8
LAYER_1
 10
31.46823357261582
 20
-17.5428019770039
 30
0.0
  0
VERTEX
  5
257
  8
LAYER_1
 10
31.45366208979284
 20
-17.55474862329532
 30
0.0
  0
VERTEX
  5
258
  8
LAYER_1
 10
31.43935856516507
 20
-17.56688093166075
 30
0.0
  0
VERTEX
  5
259
  8
LAYER_1
 10
31.42533216796455
 20
-17.57918144330156
 30
0.0
  0
VERTEX
  5
25A
  8
LAYER_1
 10
31.39814743277345
 20
-17.60421724121491
 30
0.0
  0
VERTEX
  5
25B
  8
LAYER_1
 10
28.83564743281306
 20
-20.04171724117607
 30
0.0
  0
VERTEX
  5
25C
  8
LAYER_1
 10
28.81791737951386
 20
-20.05812269737839
 30
0.0
  0
VERTEX
  5
25D
  8
LAYER_1
 10
28.79968713378251
 20
-20.07409313346806
 30
0.0
  0
VERTEX
  5
25E
  8
LAYER_1
 10
28.7809762031093
 20
-20.0896229235131
 30
0.0
  0
VERTEX
  5
25F
  8
LAYER_1
 10
28.76180409498454
 20
-20.10470644158157
 30
0.0
  0
VERTEX
  5
260
  8
LAYER_1
 10
28.74219031689852
 20
-20.11933806174149
 30
0.0
  0
VERTEX
  5
261
  8
LAYER_1
 10
28.72215437634151
 20
-20.13351215806089
 30
0.0
  0
VERTEX
  5
262
  8
LAYER_1
 10
28.70171578080384
 20
-20.14722310460781
 30
0.0
  0
VERTEX
  5
263
  8
LAYER_1
 10
28.6808940377758
 20
-20.1604652754503
 30
0.0
  0
VERTEX
  5
264
  8
LAYER_1
 10
28.65970865474767
 20
-20.17323304465637
 30
0.0
  0
VERTEX
  5
265
  8
LAYER_1
 10
28.63817913920975
 20
-20.18552078629408
 30
0.0
  0
VERTEX
  5
266
  8
LAYER_1
 10
28.61632499865234
 20
-20.19732287443145
 30
0.0
  0
VERTEX
  5
267
  8
LAYER_1
 10
28.59416574056574
 20
-20.20863368313652
 30
0.0
  0
VERTEX
  5
268
  8
LAYER_1
 10
28.57172087244022
 20
-20.21944758647733
 30
0.0
  0
VERTEX
  5
269
  8
LAYER_1
 10
28.54900990176611
 20
-20.2297589585219
 30
0.0
  0
VERTEX
  5
26A
  8
LAYER_1
 10
28.52605233603369
 20
-20.23956217333828
 30
0.0
  0
VERTEX
  5
26B
  8
LAYER_1
 10
28.50286768273325
 20
-20.2488516049945
 30
0.0
  0
VERTEX
  5
26C
  8
LAYER_1
 10
28.4794754493551
 20
-20.25762162755859
 30
0.0
  0
VERTEX
  5
26D
  8
LAYER_1
 10
28.45589514338952
 20
-20.2658666150986
 30
0.0
  0
VERTEX
  5
26E
  8
LAYER_1
 10
28.43214627232681
 20
-20.27358094168255
 30
0.0
  0
VERTEX
  5
26F
  8
LAYER_1
 10
28.40824834365727
 20
-20.28075898137849
 30
0.0
  0
VERTEX
  5
270
  8
LAYER_1
 10
28.3842208648712
 20
-20.28739510825445
 30
0.0
  0
VERTEX
  5
271
  8
LAYER_1
 10
28.36008334345888
 20
-20.29348369637846
 30
0.0
  0
VERTEX
  5
272
  8
LAYER_1
 10
28.33585528691061
 20
-20.29901911981855
 30
0.0
  0
VERTEX
  5
273
  8
LAYER_1
 10
28.31155620271669
 20
-20.30399575264277
 30
0.0
  0
VERTEX
  5
274
  8
LAYER_1
 10
28.28720559836742
 20
-20.30840796891915
 30
0.0
  0
VERTEX
  5
275
  8
LAYER_1
 10
28.26282298135309
 20
-20.31225014271572
 30
0.0
  0
VERTEX
  5
276
  8
LAYER_1
 10
28.23842785916399
 20
-20.31551664810053
 30
0.0
  0
VERTEX
  5
277
  8
LAYER_1
 10
28.21403973929043
 20
-20.31820185914159
 30
0.0
  0
VERTEX
  5
278
  8
LAYER_1
 10
28.18967812922268
 20
-20.32030014990696
 30
0.0
  0
VERTEX
  5
279
  8
LAYER_1
 10
28.16536253645107
 20
-20.32180589446466
 30
0.0
  0
VERTEX
  5
27A
  8
LAYER_1
 10
28.14111246846587
 20
-20.32271346688273
 30
0.0
  0
VERTEX
  5
27B
  8
LAYER_1
 10
28.11694743275738
 20
-20.32301724122921
 30
0.0
  0
VERTEX
  5
27C
  8
LAYER_1
 10
0.6169474327254763
 20
-20.32301724126041
 30
0.0
  0
SEQEND
  5
6DF
  8
LAYER_1
  0
POLYLINE
  5
71
  8
LAYER_1
 66
     1
 10
0.0
 20
0.0
 30
0.0
 70
     1
  0
VERTEX
  5
27D
  8
LAYER_1
 10
28.96255574906936
 20
-21.19801724126041
 30
0.0
  0
VERTEX
  5
27E
  8
LAYER_1
 10
0.6169474327254747
 20
-21.19801724126041
 30
0.0
 42
0.4142135623730951
  0
VERTEX
  5
27F
  8
LAYER_1
 10
0.4294474327254747
 20
-21.38551724126041
 30
0.0
 42
0.4142135623730951
  0
VERTEX
  5
280
  8
LAYER_1
 10
0.6169474327254747
 20
-21.57301724126041
 30
0.0
  0
VERTEX
  5
281
  8
LAYER_1
 10
2.026936144601375
 20
-21.57300103024944
 30
0.0
  0
VERTEX
  5
282
  8
LAYER_1
 10
2.026947432725475
 20
-46.6666802475045
 30
0.0
  0
VERTEX
  5
283
  8
LAYER_1
 10
2.026909346758348
 20
-46.66671724126041
 30
0.0
  0
VERTEX
  5
284
  8
LAYER_1
 10
0.6169474327254747
 20
-46.66671724126041
 30
0.0
 42
0.4142135623730951
  0
VERTEX
  5
285
  8
LAYER_1
 10
0.4294474327254747
 20
-46.85421724126041
 30
0.0
 42
0.4142135623730951
  0
VERTEX
  5
286
  8
LAYER_1
 10
0.6169474327254747
 20
-47.04171724126041
 30
0.0
  0
VERTEX
  5
287
  8
LAYER_1
 10
20.55444743272547
 20
-47.04171724126041
 30
0.0
 42
0.4142135623730951
  0
VERTEX
  5
288
  8
LAYER_1
 10
20.74194743272547
 20
-46.85421724126041
 30
0.0
 42
0.4142135623730951
  0
VERTEX
  5
289
  8
LAYER_1
 10
20.55444743272547
 20
-46.66671724126041
 30
0.0
  0
VERTEX
  5
28A
  8
LAYER_1
 10
2.401958467316742
 20
-46.66670480290919
 30
0.0
  0
VERTEX
  5
28B
  8
LAYER_1
 10
2.401947432725475
 20
-21.57297407094679
 30
0.0
  0
VERTEX
  5
28C
  8
LAYER_1
 10
2.401969644795268
 20
-21.57301724126041
 30
0.0
  0
VERTEX
  5
28D
  8
LAYER_1
 10
28.5736134885565
 20
-21.57301724126041
 30
0.0
  0
VERTEX
  5
28E
  8
LAYER_1
 10
28.57364973825299
 20
-21.57303863660936
 30
0.0
  0
VERTEX
  5
28F
  8
LAYER_1
 10
28.484364911253
 20
-21.65913471978793
 30
0.0
  0
VERTEX
  5
290
  8
LAYER_1
 10
28.48429956537919
 20
-21.65920009788461
 30
0.0
 42
0.1987842463420967
  0
VERTEX
  5
291
  8
LAYER_1
 10
28.42944743272547
 20
-21.79171724126041
 30
0.0
 42
0.4142135623730951
  0
VERTEX
  5
292
  8
LAYER_1
 10
28.61694743272547
 20
-21.97921724126041
 30
0.0
 42
0.1988105270647042
  0
VERTEX
  5
293
  8
LAYER_1
 10
28.74947798961872
 20
-21.92435170695303
 30
0.0
  0
VERTEX
  5
294
  8
LAYER_1
 10
28.74952995419795
 20
-21.92429976273289
 30
0.0
  0
VERTEX
  5
295
  8
LAYER_1
 10
32.19255331338608
 20
-18.60424152351576
 30
0.0
  0
VERTEX
  5
296
  8
LAYER_1
 10
32.1925946597841
 20
-18.60421724126041
 30
0.0
  0
VERTEX
  5
297
  8
LAYER_1
 10
36.80444743272547
 20
-18.60421724126041
 30
0.0
 42
0.4142135623730951
  0
VERTEX
  5
298
  8
LAYER_1
 10
36.99194743272547
 20
-18.41671724126041
 30
0.0
 42
0.4142135623730951
  0
VERTEX
  5
299
  8
LAYER_1
 10
36.80444743272547
 20
-18.22921724126041
 30
0.0
  0
VERTEX
  5
29A
  8
LAYER_1
 10
32.11694743272547
 20
-18.22921724126041
 30
0.0
 42
0.1987924590334218
  0
VERTEX
  5
29B
  8
LAYER_1
 10
31.98442609747992
 20
-18.28407356178515
 30
0.0
  0
VERTEX
  5
29C
  8
LAYER_1
 10
31.984364911253
 20
-18.28413471978793
 30
0.0
  0
VERTEX
  5
29D
  8
LAYER_1
 10
28.9625998440484
 20
-21.19797960602093
 30
0.0
  0
SEQEND
  5
6E0
  8
LAYER_1
  0
POLYLINE
  5
72
  8
LAYER_1
 66
     1
 10
0.0
 20
0.0
 30
0.0
 70
     1
  0
VERTEX
  5
29E
  8
LAYER_1
 10
38.02597438212799
 20
-24.7529772642973
 30
0.0
  0
VERTEX
  5
29F
  8
LAYER_1
 10
23.07186011676162
 20
-33.38863362638921
 30
0.0
  0
VERTEX
  5
2A0
  8
LAYER_1
 10
23.06939398054383
 20
-33.38991313175443
 30
0.0
 42
0.240351087668759
  0
VERTEX
  5
2A1
  8
LAYER_1
 10
22.99194743272547
 20
-33.54171724126041
 30
0.0
 42
0.4142135623730951
  0
VERTEX
  5
2A2
  8
LAYER_1
 10
23.17944743272547
 20
-33.72921724126041
 30
0.0
 42
0.1457763859209424
  0
VERTEX
  5
2A3
  8
LAYER_1
 10
23.28210328427166
 20
-33.69857527990164
 30
0.0
  0
VERTEX
  5
2A4
  8
LAYER_1
 10
38.21717990719653
 20
-25.07535357090014
 30
0.0
  0
VERTEX
  5
2A5
  8
LAYER_1
 10
38.21770232502833
 20
-25.07484599157811
 30
0.0
 42
0.2562724192425194
  0
VERTEX
  5
2A6
  8
LAYER_1
 10
38.30444743272547
 20
-24.91671724126041
 30
0.0
 42
0.4142135623730951
  0
VERTEX
  5
2A7
  8
LAYER_1
 10
38.11694743272547
 20
-24.72921724126041
 30
0.0
 42
0.1261083030764341
  0
VERTEX
  5
2A8
  8
LAYER_1
 10
38.02676167194186
 20
-24.75233117569559
 30
0.0
  0
SEQEND
  5
6E1
  8
LAYER_1
  0
POLYLINE
  5
73
  8
LAYER_1
 66
     1
 10
0.0
 20
0.0
 30
0.0
 70
     1
  0
VERTEX
  5
2A9
  8
LAYER_1
 10
53.33302721492893
 20
-42.29171724126041
 30
0.0
  0
VERTEX
  5
2AA
  8
LAYER_1
 10
48.17102143224449
 20
-42.29171724126041
 30
0.0
  0
VERTEX
  5
2AB
  8
LAYER_1
 10
48.17098049834109
 20
-42.29169838732075
 30
0.0
  0
VERTEX
  5
2AC
  8
LAYER_1
 10
47.43560971290928
 20
-41.01050487937189
 30
0.0
  0
VERTEX
  5
2AD
  8
LAYER_1
 10
47.43545517592489
 20
-41.01034260945016
 30
0.0
 42
0.2677434975691548
  0
VERTEX
  5
2AE
  8
LAYER_1
 10
47.27314743272547
 20
-40.91671724126041
 30
0.0
 42
0.4142135623730951
  0
VERTEX
  5
2AF
  8
LAYER_1
 10
47.08564743272547
 20
-41.10421724126041
 30
0.0
 42
0.1304893815669896
  0
VERTEX
  5
2B0
  8
LAYER_1
 10
47.1103405677151
 20
-41.19722355666691
 30
0.0
  0
VERTEX
  5
2B1
  8
LAYER_1
 10
47.11141355514942
 20
-41.19901993694396
 30
0.0
  0
VERTEX
  5
2B2
  8
LAYER_1
 10
48.07894215465394
 20
-42.88392317668408
 30
0.0
 42
0.2695546901740183
  0
VERTEX
  5
2B3
  8
LAYER_1
 10
48.24194743272547
 20
-42.97921724126041
 30
0.0
 42
0.4142135623730951
  0
VERTEX
  5
2B4
  8
LAYER_1
 10
48.42944743272547
 20
-42.79171724126041
 30
0.0
 42
0.13602653684768
  0
VERTEX
  5
2B5
  8
LAYER_1
 10
48.40269189214452
 20
-42.69519020480906
 30
0.0
  0
VERTEX
  5
2B6
  8
LAYER_1
 10
48.40103377788289
 20
-42.69250676055278
 30
0.0
  0
VERTEX
  5
2B7
  8
LAYER_1
 10
48.38624880455094
 20
-42.66673288791036
 30
0.0
  0
VERTEX
  5
2B8
  8
LAYER_1
 10
53.33564743272547
 20
-42.66671724126041
 30
0.0
 42
0.4142135623730951
  0
VERTEX
  5
2B9
  8
LAYER_1
 10
53.52314743272547
 20
-42.47921724126041
 30
0.0
 42
0.4142135623730951
  0
VERTEX
  5
2BA
  8
LAYER_1
 10
53.33564743272547
 20
-42.29171724126041
 30
0.0
  0
SEQEND
  5
6E2
  8
LAYER_1
  0
POLYLINE
  5
74
  8
LAYER_1
 66
     1
 10
0.0
 20
0.0
 30
0.0
 70
     1
  0
VERTEX
  5
2BB
  8
LAYER_1
 10
55.02814357734828
 20
-46.94979185620532
 30
0.0
  0
VERTEX
  5
2BC
  8
LAYER_1
 10
63.77912478298899
 20
-32.2921423266383
 30
0.0
 42
0.1316549679115833
  0
VERTEX
  5
2BD
  8
LAYER_1
 10
63.80444743272547
 20
-32.1980172412604
 30
0.0
 42
0.0676881934449577
  0
VERTEX
  5
2BE
  8
LAYER_1
 10
63.79763744095521
 20
-32.14794358625163
 30
0.0
  0
VERTEX
  5
2BF
  8
LAYER_1
 10
63.79494811741659
 20
-32.14384938519598
 30
0.0
  0
VERTEX
  5
2C0
  8
LAYER_1
 10
62.58393240360306
 20
-26.39886712541874
 30
0.0
 42
0.3591539208933515
  0
VERTEX
  5
2C1
  8
LAYER_1
 10
62.39814743272547
 20
-26.22921724126041
 30
0.0
 42
0.4142135623730951
  0
VERTEX
  5
2C2
  8
LAYER_1
 10
62.21064743272547
 20
-26.41671724126041
 30
0.0
 42
0.0439689055028252
  0
VERTEX
  5
2C3
  8
LAYER_1
 10
62.21353614959462
 20
-26.44950327701929
 30
0.0
  0
VERTEX
  5
2C4
  8
LAYER_1
 10
62.21360253730584
 20
-26.45039552270273
 30
0.0
  0
VERTEX
  5
2C5
  8
LAYER_1
 10
63.41678278438959
 20
-32.1682062439744
 30
0.0
  0
VERTEX
  5
2C6
  8
LAYER_1
 10
63.41677019375916
 20
-32.16826825390882
 30
0.0
  0
VERTEX
  5
2C7
  8
LAYER_1
 10
54.76716230057021
 20
-46.66666004280307
 30
0.0
  0
VERTEX
  5
2C8
  8
LAYER_1
 10
54.76709705571873
 20
-46.66671724126041
 30
0.0
  0
VERTEX
  5
2C9
  8
LAYER_1
 10
51.67944743272547
 20
-46.66671724126041
 30
0.0
 42
0.4142135623730951
  0
VERTEX
  5
2CA
  8
LAYER_1
 10
51.49194743272547
 20
-46.85421724126041
 30
0.0
 42
0.4142135623730951
  0
VERTEX
  5
2CB
  8
LAYER_1
 10
51.67944743272547
 20
-47.04171724126041
 30
0.0
  0
VERTEX
  5
2CC
  8
LAYER_1
 10
54.86694743272547
 20
-47.04171724126041
 30
0.0
 42
0.2633139310955953
  0
VERTEX
  5
2CD
  8
LAYER_1
 10
55.02767926948996
 20
-46.9507652948416
 30
0.0
  0
SEQEND
  5
6E3
  8
LAYER_1
  0
POLYLINE
  5
75
  8
LAYER_1
 66
     1
 10
0.0
 20
0.0
 30
0.0
 70
     1
  0
VERTEX
  5
2CE
  8
LAYER_1
 10
56.23943005722769
 20
-26.35359225716156
 30
0.0
  0
VERTEX
  5
2CF
  8
LAYER_1
 10
55.67272052403334
 20
-30.11961202623589
 30
0.0
 42
-0.3674247307283809
  0
VERTEX
  5
2D0
  8
LAYER_1
 10
55.49194743272547
 20
-30.26051724126041
 30
0.0
 42
-0.4142135623730951
  0
VERTEX
  5
2D1
  8
LAYER_1
 10
55.30444743272547
 20
-30.07301724126041
 30
0.0
  0
VERTEX
  5
2D2
  8
LAYER_1
 10
55.30492644595215
 20
-30.06221430496198
 30
0.0
  0
VERTEX
  5
2D3
  8
LAYER_1
 10
55.30614067279043
 20
-30.05144971691333
 30
0.0
  0
VERTEX
  5
2D4
  8
LAYER_1
 10
55.30943789025141
 20
-30.03000168622292
 30
0.0
  0
VERTEX
  5
2D5
  8
LAYER_1
 10
55.86909607197278
 20
-26.29469247952804
 30
0.0
 42
-0.3703410000485992
  0
VERTEX
  5
2D6
  8
LAYER_1
 10
56.05444743272547
 20
-26.13551724126041
 30
0.0
 42
-0.4142135623730951
  0
VERTEX
  5
2D7
  8
LAYER_1
 10
56.24194743272547
 20
-26.32301724126041
 30
0.0
 42
-0.040820790688983
  0
SEQEND
  5
6E4
  8
LAYER_1
  0
POLYLINE
  5
76
  8
LAYER_1
 66
     1
 10
0.0
 20
0.0
 30
0.0
 70
     1
  0
VERTEX
  5
2D8
  8
LAYER_1
 10
25.05444743272547
 20
-46.07251724126041
 30
0.0
 42
0.4142135623730951
  0
VERTEX
  5
2D9
  8
LAYER_1
 10
24.92894743272548
 20
-46.19801724126041
 30
0.0
 42
0.4142135623730951
  0
VERTEX
  5
2DA
  8
LAYER_1
 10
25.05444743272547
 20
-46.3235172412604
 30
0.0
 42
0.4142135623730951
  0
VERTEX
  5
2DB
  8
LAYER_1
 10
25.17994743272547
 20
-46.19801724126041
 30
0.0
 42
0.4142135623730951
  0
SEQEND
  5
6E5
  8
LAYER_1
  0
POLYLINE
  5
77
  8
LAYER_1
 66
     1
 10
0.0
 20
0.0
 30
0.0
 70
     1
  0
VERTEX
  5
2DC
  8
LAYER_1
 10
26.58564743272547
 20
-46.07251724126041
 30
0.0
 42
0.4142135623730951
  0
VERTEX
  5
2DD
  8
LAYER_1
 10
26.46014743272547
 20
-46.19801724126041
 30
0.0
 42
0.4142135623730951
  0
VERTEX
  5
2DE
  8
LAYER_1
 10
26.58564743272547
 20
-46.3235172412604
 30
0.0
 42
0.4142135623730951
  0
VERTEX
  5
2DF
  8
LAYER_1
 10
26.71114743272547
 20
-46.19801724126041
 30
0.0
 42
0.4142135623730951
  0
SEQEND
  5
6E6
  8
LAYER_1
  0
POLYLINE
  5
78
  8
LAYER_1
 66
     1
 10
0.0
 20
0.0
 30
0.0
 70
     1
  0
VERTEX
  5
2E0
  8
LAYER_1
 10
25.80444743272547
 20
-46.29121724126041
 30
0.0
 42
0.4142135623730951
  0
VERTEX
  5
2E1
  8
LAYER_1
 10
25.67894743272548
 20
-46.41671724126041
 30
0.0
 42
0.4142135623730951
  0
VERTEX
  5
2E2
  8
LAYER_1
 10
25.80444743272547
 20
-46.5422172412604
 30
0.0
 42
0.4142135623730951
  0
VERTEX
  5
2E3
  8
LAYER_1
 10
25.92994743272547
 20
-46.41671724126041
 30
0.0
 42
0.4142135623730951
  0
SEQEND
  5
6E7
  8
LAYER_1
  0
POLYLINE
  5
79
  8
LAYER_1
 66
     1
 10
0.0
 20
0.0
 30
0.0
 70
     1
  0
VERTEX
  5
2E4
  8
LAYER_1
 10
46.11694743272547
 20
-46.29121724126041
 30
0.0
 42
0.4142135623730951
  0
VERTEX
  5
2E5
  8
LAYER_1
 10
45.99144743272547
 20
-46.41671724126041
 30
0.0
 42
0.4142135623730951
  0
VERTEX
  5
2E6
  8
LAYER_1
 10
46.11694743272547
 20
-46.5422172412604
 30
0.0
 42
0.4142135623730951
  0
VERTEX
  5
2E7
  8
LAYER_1
 10
46.24244743272548
 20
-46.41671724126041
 30
0.0
 42
0.4142135623730951
  0
SEQEND
  5
6E8
  8
LAYER_1
  0
POLYLINE
  5
7A
  8
LAYER_1
 66
     1
 10
0.0
 20
0.0
 30
0.0
 70
     1
  0
VERTEX
  5
2E8
  8
LAYER_1
 10
45.36694743272547
 20
-46.07251724126041
 30
0.0
 42
0.4142135623730951
  0
VERTEX
  5
2E9
  8
LAYER_1
 10
45.24144743272547
 20
-46.19801724126041
 30
0.0
 42
0.4142135623730951
  0
VERTEX
  5
2EA
  8
LAYER_1
 10
45.36694743272547
 20
-46.3235172412604
 30
0.0
 42
0.4142135623730951
  0
VERTEX
  5
2EB
  8
LAYER_1
 10
45.49244743272548
 20
-46.19801724126041
 30
0.0
 42
0.4142135623730951
  0
SEQEND
  5
6E9
  8
LAYER_1
  0
POLYLINE
  5
7B
  8
LAYER_1
 66
     1
 10
0.0
 20
0.0
 30
0.0
 70
     1
  0
VERTEX
  5
2EC
  8
LAYER_1
 10
46.86694743272547
 20
-46.07251724126041
 30
0.0
 42
0.4142135623730951
  0
VERTEX
  5
2ED
  8
LAYER_1
 10
46.74144743272547
 20
-46.19801724126041
 30
0.0
 42
0.4142135623730951
  0
VERTEX
  5
2EE
  8
LAYER_1
 10
46.86694743272547
 20
-46.3235172412604
 30
0.0
 42
0.4142135623730951
  0
VERTEX
  5
2EF
  8
LAYER_1
 10
46.99244743272548
 20
-46.19801724126041
 30
0.0
 42
0.4142135623730951
  0
SEQEND
  5
6EA
  8
LAYER_1
  0
POLYLINE
  5
7C
  8
LAYER_1
 66
     1
 10
0.0
 20
0.0
 30
0.0
 70
     1
  0
VERTEX
  5
2F0
  8
LAYER_1
 10
37.36694743272547
 20
-19.26001724126041
 30
0.0
 42
0.4142135623730951
  0
VERTEX
  5
2F1
  8
LAYER_1
 10
37.24144743272547
 20
-19.38551724126041
 30
0.0
 42
0.4142135623730951
  0
VERTEX
  5
2F2
  8
LAYER_1
 10
37.36694743272547
 20
-19.51101724126041
 30
0.0
 42
0.4142135623730951
  0
VERTEX
  5
2F3
  8
LAYER_1
 10
37.49244743272548
 20
-19.38551724126041
 30
0.0
 42
0.4142135623730951
  0
SEQEND
  5
6EB
  8
LAYER_1
  0
POLYLINE
  5
7D
  8
LAYER_1
 66
     1
 10
0.0
 20
0.0
 30
0.0
 70
     1
  0
VERTEX
  5
2F4
  8
LAYER_1
 10
37.92944743272547
 20
-22.69751724126041
 30
0.0
 42
0.4142135623730951
  0
VERTEX
  5
2F5
  8
LAYER_1
 10
37.80394743272547
 20
-22.82301724126041
 30
0.0
 42
0.4142135623730951
  0
VERTEX
  5
2F6
  8
LAYER_1
 10
37.92944743272547
 20
-22.94851724126041
 30
0.0
 42
0.4142135623730951
  0
VERTEX
  5
2F7
  8
LAYER_1
 10
38.05494743272548
 20
-22.82301724126041
 30
0.0
 42
0.4142135623730951
  0
SEQEND
  5
6EC
  8
LAYER_1
  0
POLYLINE
  5
7E
  8
LAYER_1
 66
     1
 10
0.0
 20
0.0
 30
0.0
 70
     1
  0
VERTEX
  5
2F8
  8
LAYER_1
 10
27.67945932913772
 20
-46.6041972781429
 30
0.0
  0
VERTEX
  5
2F9
  8
LAYER_1
 10
28.80444743272547
 20
-46.60421724126041
 30
0.0
 42
-0.4142135623730951
  0
VERTEX
  5
2FA
  8
LAYER_1
 10
28.99194743272547
 20
-46.79171724126041
 30
0.0
  0
VERTEX
  5
2FB
  8
LAYER_1
 10
28.99194743272547
 20
-47.4917172412604
 30
0.0
  0
VERTEX
  5
2FC
  8
LAYER_1
 10
28.99155636058448
 20
-47.50421724126041
 30
0.0
  0
VERTEX
  5
2FD
  8
LAYER_1
 10
24.05444743272547
 20
-47.50421724126041
 30
0.0
  0
VERTEX
  5
2FE
  8
LAYER_1
 10
24.05444743272547
 20
-46.10421724126041
 30
0.0
 42
-0.4142135623730951
  0
VERTEX
  5
2FF
  8
LAYER_1
 10
23.86694743272547
 20
-45.91671724126041
 30
0.0
 42
-0.4142135623730951
  0
VERTEX
  5
300
  8
LAYER_1
 10
24.05444743272547
 20
-45.72921724126041
 30
0.0
  0
VERTEX
  5
301
  8
LAYER_1
 10
27.49194743272547
 20
-45.72921724126041
 30
0.0
 42
-0.4142135623730951
  0
VERTEX
  5
302
  8
LAYER_1
 10
27.67944743272547
 20
-45.91671724126041
 30
0.0
 42
-0.4142135623730951
  0
VERTEX
  5
303
  8
LAYER_1
 10
27.49194743272547
 20
-46.10421724126041
 30
0.0
  0
VERTEX
  5
304
  8
LAYER_1
 10
27.49194743272547
 20
-46.60421724126041
 30
0.0
  0
VERTEX
  5
305
  8
LAYER_1
 10
27.64194743272547
 20
-46.60421724126041
 30
0.0
  0
SEQEND
  5
6ED
  8
LAYER_1
  0
POLYLINE
  5
7F
  8
LAYER_1
 66
     1
 10
0.0
 20
0.0
 30
0.0
 70
     1
  0
VERTEX
  5
306
  8
LAYER_1
 10
44.55448161608825
 20
-47.4917172412604
 30
0.0
  0
VERTEX
  5
307
  8
LAYER_1
 10
49.30444743272547
 20
-47.4917172412604
 30
0.0
  0
VERTEX
  5
308
  8
LAYER_1
 10
49.30444743272547
 20
-46.79171724126041
 30
0.0
 42
0.4142135623730951
  0
VERTEX
  5
309
  8
LAYER_1
 10
49.11694743272547
 20
-46.60421724126041
 30
0.0
  0
VERTEX
  5
30A
  8
LAYER_1
 10
47.74196518093282
 20
-46.60421724126041
 30
0.0
  0
VERTEX
  5
30B
  8
LAYER_1
 10
47.74194743272547
 20
-46.10421724126041
 30
0.0
 42
0.4142135623730951
  0
VERTEX
  5
30C
  8
LAYER_1
 10
47.92944743272547
 20
-45.91671724126041
 30
0.0
 42
0.4142135623730951
  0
VERTEX
  5
30D
  8
LAYER_1
 10
47.74194743272547
 20
-45.72921724126041
 30
0.0
  0
VERTEX
  5
30E
  8
LAYER_1
 10
44.55444743272547
 20
-45.72921724126041
 30
0.0
 42
0.4142135623730951
  0
VERTEX
  5
30F
  8
LAYER_1
 10
44.36694743272547
 20
-45.91671724126041
 30
0.0
 42
0.4142135623730951
  0
VERTEX
  5
310
  8
LAYER_1
 10
44.55444743272547
 20
-46.10421724126041
 30
0.0
  0
VERTEX
  5
311
  8
LAYER_1
 10
44.55444743272547
 20
-47.49167282191209
 30
0.0
  0
SEQEND
  5
6EE
  8
LAYER_1
  0
POLYLINE
  5
80
  8
LAYER_1
 66
     1
 10
0.0
 20
0.0
 30
0.0
 70
     1
  0
VERTEX
  5
312
  8
LAYER_1
 10
0.744679117133737
 20
-18.93990916361481
 30
0.0
  0
VERTEX
  5
313
  8
LAYER_1
 10
24.24467911713374
 20
-18.93990916361481
 30
0.0
  0
VERTEX
  5
314
  8
LAYER_1
 10
24.24467911713374
 20
-16.93990916361481
 30
0.0
  0
VERTEX
  5
315
  8
LAYER_1
 10
0.744679117133737
 20
-16.93990916361481
 30
0.0
  0
SEQEND
  5
6EF
  8
LAYER_1
  0
POLYLINE
  5
81
  8
LAYER_1
 66
     1
 10
0.0
 20
0.0
 30
0.0
 70
     1
  0
VERTEX
  5
316
  8
LAYER_1
 10
0.619679117133737
 20
-19.06490916361481
 30
0.0
  0
VERTEX
  5
317
  8
LAYER_1
 10
0.994679117133737
 20
-19.06490916361481
 30
0.0
  0
VERTEX
  5
318
  8
LAYER_1
 10
0.994679117133737
 20
-16.81490916361481
 30
0.0
  0
VERTEX
  5
319
  8
LAYER_1
 10
0.619679117133737
 20
-16.81490916361481
 30
0.0
  0
SEQEND
  5
6F0
  8
LAYER_1
  0
POLYLINE
  5
82
  8
LAYER_1
 66
     1
 10
0.0
 20
0.0
 30
0.0
 70
     1
  0
VERTEX
  5
31A
  8
LAYER_1
 10
23.99467911713374
 20
-19.06490916361481
 30
0.0
  0
VERTEX
  5
31B
  8
LAYER_1
 10
24.36967911713374
 20
-19.06490916361481
 30
0.0
  0
VERTEX
  5
31C
  8
LAYER_1
 10
24.36967911713374
 20
-16.81490916361481
 30
0.0
  0
VERTEX
  5
31D
  8
LAYER_1
 10
23.99467911713374
 20
-16.81490916361481
 30
0.0
  0
SEQEND
  5
6F1
  8
LAYER_1
  0
POLYLINE
  5
83
  8
LAYER_1
 66
     1
 10
0.0
 20
0.0
 30
0.0
 70
     1
  0
VERTEX
  5
31E
  8
LAYER_1
 10
0.8077974640341736
 20
-15.13549463637624
 30
0.0
  0
VERTEX
  5
31F
  8
LAYER_1
 10
24.30779746403417
 20
-15.13549463637624
 30
0.0
  0
VERTEX
  5
320
  8
LAYER_1
 10
24.30779746403417
 20
-9.635494636376237
 30
0.0
  0
VERTEX
  5
321
  8
LAYER_1
 10
0.8077974640341736
 20
-9.635494636376237
 30
0.0
  0
SEQEND
  5
6F2
  8
LAYER_1
  0
POLYLINE
  5
84
  8
LAYER_1
 66
     1
 10
0.0
 20
0.0
 30
0.0
 70
     1
  0
VERTEX
  5
322
  8
LAYER_1
 10
0.6827974640341736
 20
-15.26049463637624
 30
0.0
  0
VERTEX
  5
323
  8
LAYER_1
 10
1.057797464034174
 20
-15.26049463637624
 30
0.0
  0
VERTEX
  5
324
  8
LAYER_1
 10
1.057797464034174
 20
-9.510494636376237
 30
0.0
  0
VERTEX
  5
325
  8
LAYER_1
 10
0.6827974640341736
 20
-9.510494636376237
 30
0.0
  0
SEQEND
  5
6F3
  8
LAYER_1
  0
POLYLINE
  5
85
  8
LAYER_1
 66
     1
 10
0.0
 20
0.0
 30
0.0
 70
     1
  0
VERTEX
  5
326
  8
LAYER_1
 10
24.05779746403417
 20
-15.26049463637624
 30
0.0
  0
VERTEX
  5
327
  8
LAYER_1
 10
24.43279746403417
 20
-15.26049463637624
 30
0.0
  0
VERTEX
  5
328
  8
LAYER_1
 10
24.43279746403417
 20
-9.510494636376237
 30
0.0
  0
VERTEX
  5
329
  8
LAYER_1
 10
24.05779746403417
 20
-9.510494636376237
 30
0.0
  0
SEQEND
  5
6F4
  8
LAYER_1
  0
POLYLINE
  5
86
  8
LAYER_1
 66
     1
 10
0.0
 20
0.0
 30
0.0
 70
     1
  0
VERTEX
  5
32A
  8
LAYER_1
 10
70.74045244211808
 20
-14.8477754754495
 30
0.0
  0
VERTEX
  5
32B
  8
LAYER_1
 10
93.67795244211808
 20
-14.8477754754495
 30
0.0
  0
VERTEX
  5
32C
  8
LAYER_1
 10
93.67795244211808
 20
-2.347775475449502
 30
0.0
  0
VERTEX
  5
32D
  8
LAYER_1
 10
70.74045244211808
 20
-2.347775475449502
 30
0.0
  0
SEQEND
  5
6F5
  8
LAYER_1
  0
POLYLINE
  5
87
  8
LAYER_1
 66
     1
 10
0.0
 20
0.0
 30
0.0
 70
     1
  0
VERTEX
  5
32E
  8
LAYER_1
 10
70.61545244211808
 20
-3.347775475449502
 30
0.0
  0
VERTEX
  5
32F
  8
LAYER_1
 10
93.86545244211808
 20
-3.347775475449502
 30
0.0
  0
VERTEX
  5
330
  8
LAYER_1
 10
93.86545244211808
 20
-2.222775475449502
 30
0.0
  0
VERTEX
  5
331
  8
LAYER_1
 10
70.61545244211808
 20
-2.222775475449502
 30
0.0
  0
SEQEND
  5
6F6
  8
LAYER_1
  0
POLYLINE
  5
88
  8
LAYER_1
 66
     1
 10
0.0
 20
0.0
 30
0.0
 70
     1
  0
VERTEX
  5
332
  8
LAYER_1
 10
80.8341524421181
 20
-10.2227754754495
 30
0.0
 42
0.4142135623730951
  0
VERTEX
  5
333
  8
LAYER_1
 10
81.0841524421181
 20
-10.4727754754495
 30
0.0
  0
VERTEX
  5
334
  8
LAYER_1
 10
83.2091524421181
 20
-10.4727754754495
 30
0.0
 42
0.4142135623730951
  0
VERTEX
  5
335
  8
LAYER_1
 10
83.4591524421181
 20
-10.2227754754495
 30
0.0
 42
0.4142135623730951
  0
VERTEX
  5
336
  8
LAYER_1
 10
83.2091524421181
 20
-9.972775475449502
 30
0.0
  0
VERTEX
  5
337
  8
LAYER_1
 10
81.0841524421181
 20
-9.972775475449502
 30
0.0
 42
0.4142135623730951
  0
SEQEND
  5
6F7
  8
LAYER_1
  0
POLYLINE
  5
89
  8
LAYER_1
 66
     1
 10
0.0
 20
0.0
 30
0.0
 70
     1
  0
VERTEX
  5
338
  8
LAYER_1
 10
80.8341524421181
 20
-6.222775475449502
 30
0.0
 42
0.4142135623730951
  0
VERTEX
  5
339
  8
LAYER_1
 10
81.0841524421181
 20
-6.472775475449502
 30
0.0
  0
VERTEX
  5
33A
  8
LAYER_1
 10
83.2091524421181
 20
-6.472775475449502
 30
0.0
 42
0.4142135623730951
  0
VERTEX
  5
33B
  8
LAYER_1
 10
83.4591524421181
 20
-6.222775475449502
 30
0.0
 42
0.4142135623730951
  0
VERTEX
  5
33C
  8
LAYER_1
 10
83.2091524421181
 20
-5.972775475449502
 30
0.0
  0
VERTEX
  5
33D
  8
LAYER_1
 10
81.0841524421181
 20
-5.972775475449502
 30
0.0
 42
0.4142135623730951
  0
SEQEND
  5
6F8
  8
LAYER_1
  0
POLYLINE
  5
8A
  8
LAYER_1
 66
     1
 10
0.0
 20
0.0
 30
0.0
 70
     1
  0
VERTEX
  5
33E
  8
LAYER_1
 10
79.8341524421181
 20
-9.222775475449502
 30
0.0
 42
0.4142135623730951
  0
VERTEX
  5
33F
  8
LAYER_1
 10
80.0841524421181
 20
-9.472775475449502
 30
0.0
  0
VERTEX
  5
340
  8
LAYER_1
 10
84.11535244211811
 20
-9.472775475449502
 30
0.0
 42
0.4142135623730951
  0
VERTEX
  5
341
  8
LAYER_1
 10
84.36535244211811
 20
-9.222775475449502
 30
0.0
 42
0.4142135623730951
  0
VERTEX
  5
342
  8
LAYER_1
 10
84.11535244211811
 20
-8.972775475449502
 30
0.0
  0
VERTEX
  5
343
  8
LAYER_1
 10
80.0841524421181
 20
-8.972775475449502
 30
0.0
 42
0.4142135623730951
  0
SEQEND
  5
6F9
  8
LAYER_1
  0
POLYLINE
  5
8B
  8
LAYER_1
 66
     1
 10
0.0
 20
0.0
 30
0.0
 70
     1
  0
VERTEX
  5
344
  8
LAYER_1
 10
79.8341524421181
 20
-7.222775475449502
 30
0.0
 42
0.4142135623730951
  0
VERTEX
  5
345
  8
LAYER_1
 10
80.0841524421181
 20
-7.472775475449502
 30
0.0
  0
VERTEX
  5
346
  8
LAYER_1
 10
84.11535244211811
 20
-7.472775475449502
 30
0.0
 42
0.4142135623730951
  0
VERTEX
  5
347
  8
LAYER_1
 10
84.36535244211811
 20
-7.222775475449502
 30
0.0
 42
0.4142135623730951
  0
VERTEX
  5
348
  8
LAYER_1
 10
84.11535244211811
 20
-6.972775475449502
 30
0.0
  0
VERTEX
  5
349
  8
LAYER_1
 10
80.0841524421181
 20
-6.972775475449502
 30
0.0
 42
0.4142135623730951
  0
SEQEND
  5
6FA
  8
LAYER_1
  0
POLYLINE
  5
8C
  8
LAYER_1
 66
     1
 10
0.0
 20
0.0
 30
0.0
 70
     1
  0
VERTEX
  5
34A
  8
LAYER_1
 10
79.61545244211808
 20
-8.222775475449502
 30
0.0
 42
0.4142135623730951
  0
VERTEX
  5
34B
  8
LAYER_1
 10
79.86545244211808
 20
-8.472775475449502
 30
0.0
  0
VERTEX
  5
34C
  8
LAYER_1
 10
84.3966524421181
 20
-8.472775475449502
 30
0.0
 42
0.4142135623730951
  0
VERTEX
  5
34D
  8
LAYER_1
 10
84.6466524421181
 20
-8.222775475449502
 30
0.0
 42
0.4142135623730951
  0
VERTEX
  5
34E
  8
LAYER_1
 10
84.3966524421181
 20
-7.972775475449502
 30
0.0
  0
VERTEX
  5
34F
  8
LAYER_1
 10
79.86545244211808
 20
-7.972775475449502
 30
0.0
 42
0.4142135623730951
  0
SEQEND
  5
6FB
  8
LAYER_1
  0
POLYLINE
  5
8D
  8
LAYER_1
 66
     1
 10
0.0
 20
0.0
 30
0.0
 70
     1
  0
VERTEX
  5
350
  8
LAYER_1
 10
70.89824743272547
 20
-47.50421724126041
 30
0.0
  0
VERTEX
  5
351
  8
LAYER_1
 10
93.80444743272548
 20
-47.50421724126041
 30
0.0
  0
VERTEX
  5
352
  8
LAYER_1
 10
93.80444743272548
 20
-16.25421724126041
 30
0.0
  0
VERTEX
  5
353
  8
LAYER_1
 10
70.89824743272547
 20
-16.25421724126041
 30
0.0
  0
SEQEND
  5
6FC
  8
LAYER_1
  0
POLYLINE
  5
8E
  8
LAYER_1
 66
     1
 10
0.0
 20
0.0
 30
0.0
 70
     1
  0
VERTEX
  5
354
  8
LAYER_1
 10
70.64824743272547
 20
-43.69171724126041
 30
0.0
  0
VERTEX
  5
355
  8
LAYER_1
 10
70.64824743272547
 20
-38.94171724126041
 30
0.0
 42
-0.4142135623730951
  0
VERTEX
  5
356
  8
LAYER_1
 10
70.89824743272547
 20
-38.69171724126041
 30
0.0
 42
-0.4142135623730951
  0
VERTEX
  5
357
  8
LAYER_1
 10
71.14824743272547
 20
-38.94171724126041
 30
0.0
  0
VERTEX
  5
358
  8
LAYER_1
 10
71.14824743272547
 20
-43.69171724126041
 30
0.0
 42
-0.4142135623730951
  0
VERTEX
  5
359
  8
LAYER_1
 10
70.89824743272547
 20
-43.94171724126041
 30
0.0
 42
-0.4142135623730951
  0
SEQEND
  5
6FD
  8
LAYER_1
  0
POLYLINE
  5
8F
  8
LAYER_1
 66
     1
 10
0.0
 20
0.0
 30
0.0
 70
     1
  0
VERTEX
  5
35A
  8
LAYER_1
 10
70.7069660028734
 20
-43.8134492190169
 30
0.0
 42
0.2571077354651504
  0
VERTEX
  5
35B
  8
LAYER_1
 10
70.89824743272547
 20
-43.94171724126041
 30
0.0
 42
0.4142135623730951
  0
VERTEX
  5
35C
  8
LAYER_1
 10
71.14824743272547
 20
-43.69171724126041
 30
0.0
  0
VERTEX
  5
35D
  8
LAYER_1
 10
71.14824743272547
 20
-40.69171724126041
 30
0.0
 42
0.4142135623730951
  0
VERTEX
  5
35E
  8
LAYER_1
 10
70.89824743272547
 20
-40.44171724126041
 30
0.0
 42
0.2203945514440484
  0
VERTEX
  5
35F
  8
LAYER_1
 10
70.70753543747043
 20
-40.53007277069047
 30
0.0
  0
SEQEND
  5
6FE
  8
LAYER_1
  0
POLYLINE
  5
90
  8
LAYER_1
 66
     1
 10
0.0
 20
0.0
 30
0.0
 70
     1
  0
VERTEX
  5
360
  8
LAYER_1
 10
71.52324743272547
 20
-42.6912172412604
 30
0.0
 42
0.4142135623730951
  0
VERTEX
  5
361
  8
LAYER_1
 10
71.39774743272548
 20
-42.81671724126041
 30
0.0
 42
0.4142135623730951
  0
VERTEX
  5
362
  8
LAYER_1
 10
71.52324743272547
 20
-42.94221724126041
 30
0.0
 42
0.4142135623730951
  0
VERTEX
  5
363
  8
LAYER_1
 10
71.64874743272549
 20
-42.81671724126041
 30
0.0
 42
0.4142135623730951
  0
SEQEND
  5
6FF
  8
LAYER_1
  0
POLYLINE
  5
91
  8
LAYER_1
 66
     1
 10
0.0
 20
0.0
 30
0.0
 70
     1
  0
VERTEX
  5
364
  8
LAYER_1
 10
71.52324743272547
 20
-41.8787172412604
 30
0.0
 42
0.4142135623730951
  0
VERTEX
  5
365
  8
LAYER_1
 10
71.39774743272548
 20
-42.00421724126041
 30
0.0
 42
0.4142135623730951
  0
VERTEX
  5
366
  8
LAYER_1
 10
71.52324743272547
 20
-42.12971724126041
 30
0.0
 42
0.4142135623730951
  0
VERTEX
  5
367
  8
LAYER_1
 10
71.64874743272549
 20
-42.00421724126041
 30
0.0
 42
0.4142135623730951
  0
SEQEND
  5
700
  8
LAYER_1
  0
POLYLINE
  5
92
  8
LAYER_1
 66
     1
 10
0.0
 20
0.0
 30
0.0
 70
     1
  0
VERTEX
  5
368
  8
LAYER_1
 10
71.52324743272547
 20
-41.16001724126041
 30
0.0
 42
0.4142135623730951
  0
VERTEX
  5
369
  8
LAYER_1
 10
71.39774743272548
 20
-41.28551724126041
 30
0.0
 42
0.4142135623730951
  0
VERTEX
  5
36A
  8
LAYER_1
 10
71.52324743272547
 20
-41.4110172412604
 30
0.0
 42
0.4142135623730951
  0
VERTEX
  5
36B
  8
LAYER_1
 10
71.64874743272549
 20
-41.28551724126041
 30
0.0
 42
0.4142135623730951
  0
SEQEND
  5
701
  8
LAYER_1
  0
POLYLINE
  5
93
  8
LAYER_1
 66
     1
 10
0.0
 20
0.0
 30
0.0
 70
     1
  0
VERTEX
  5
36C
  8
LAYER_1
 10
70.64819743272548
 20
-23.37921724126041
 30
0.0
  0
VERTEX
  5
36D
  8
LAYER_1
 10
70.64819743272548
 20
-18.62921724126041
 30
0.0
 42
-0.4142135623730951
  0
VERTEX
  5
36E
  8
LAYER_1
 10
70.89819743272548
 20
-18.37921724126041
 30
0.0
 42
-0.4142135623730951
  0
VERTEX
  5
36F
  8
LAYER_1
 10
71.14819743272548
 20
-18.62921724126041
 30
0.0
  0
VERTEX
  5
370
  8
LAYER_1
 10
71.14819743272548
 20
-23.37921724126041
 30
0.0
 42
-0.4142135623730951
  0
VERTEX
  5
371
  8
LAYER_1
 10
70.89819743272548
 20
-23.62921724126041
 30
0.0
 42
-0.4142135623730951
  0
SEQEND
  5
702
  8
LAYER_1
  0
POLYLINE
  5
94
  8
LAYER_1
 66
     1
 10
0.0
 20
0.0
 30
0.0
 70
     1
  0
VERTEX
  5
372
  8
LAYER_1
 10
70.70691600287341
 20
-23.5009492190169
 30
0.0
 42
0.2571077354651504
  0
VERTEX
  5
373
  8
LAYER_1
 10
70.89819743272548
 20
-23.62921724126041
 30
0.0
 42
0.4142135623730951
  0
VERTEX
  5
374
  8
LAYER_1
 10
71.14819743272548
 20
-23.37921724126041
 30
0.0
  0
VERTEX
  5
375
  8
LAYER_1
 10
71.14819743272548
 20
-20.37921724126041
 30
0.0
 42
0.4142135623730951
  0
VERTEX
  5
376
  8
LAYER_1
 10
70.89819743272548
 20
-20.12921724126041
 30
0.0
 42
0.2203945514440484
  0
VERTEX
  5
377
  8
LAYER_1
 10
70.70748543747041
 20
-20.21757277069047
 30
0.0
  0
SEQEND
  5
703
  8
LAYER_1
  0
POLYLINE
  5
95
  8
LAYER_1
 66
     1
 10
0.0
 20
0.0
 30
0.0
 70
     1
  0
VERTEX
  5
378
  8
LAYER_1
 10
71.52319743272548
 20
-22.37871724126041
 30
0.0
 42
0.4142135623730951
  0
VERTEX
  5
379
  8
LAYER_1
 10
71.39769743272547
 20
-22.50421724126041
 30
0.0
 42
0.4142135623730951
  0
VERTEX
  5
37A
  8
LAYER_1
 10
71.52319743272548
 20
-22.6297172412604
 30
0.0
 42
0.4142135623730951
  0
VERTEX
  5
37B
  8
LAYER_1
 10
71.64869743272547
 20
-22.50421724126041
 30
0.0
 42
0.4142135623730951
  0
SEQEND
  5
704
  8
LAYER_1
  0
POLYLINE
  5
96
  8
LAYER_1
 66
     1
 10
0.0
 20
0.0
 30
0.0
 70
     1
  0
VERTEX
  5
37C
  8
LAYER_1
 10
71.52319743272548
 20
-21.56621724126041
 30
0.0
 42
0.4142135623730951
  0
VERTEX
  5
37D
  8
LAYER_1
 10
71.39769743272547
 20
-21.69171724126041
 30
0.0
 42
0.4142135623730951
  0
VERTEX
  5
37E
  8
LAYER_1
 10
71.52319743272548
 20
-21.8172172412604
 30
0.0
 42
0.4142135623730951
  0
VERTEX
  5
37F
  8
LAYER_1
 10
71.64869743272547
 20
-21.69171724126041
 30
0.0
 42
0.4142135623730951
  0
SEQEND
  5
705
  8
LAYER_1
  0
POLYLINE
  5
97
  8
LAYER_1
 66
     1
 10
0.0
 20
0.0
 30
0.0
 70
     1
  0
VERTEX
  5
380
  8
LAYER_1
 10
71.52319743272548
 20
-20.84751724126041
 30
0.0
 42
0.4142135623730951
  0
VERTEX
  5
381
  8
LAYER_1
 10
71.39769743272547
 20
-20.97301724126041
 30
0.0
 42
0.4142135623730951
  0
VERTEX
  5
382
  8
LAYER_1
 10
71.52319743272548
 20
-21.09851724126041
 30
0.0
 42
0.4142135623730951
  0
VERTEX
  5
383
  8
LAYER_1
 10
71.64869743272547
 20
-20.97301724126041
 30
0.0
 42
0.4142135623730951
  0
SEQEND
  5
706
  8
LAYER_1
  0
POLYLINE
  5
98
  8
LAYER_1
 66
     1
 10
0.0
 20
0.0
 30
0.0
 70
     1
  0
VERTEX
  5
384
  8
LAYER_1
 10
72.21074743272547
 20
-39.7537172412604
 30
0.0
 42
0.4142135623730951
  0
VERTEX
  5
385
  8
LAYER_1
 10
72.08524743272548
 20
-39.87921724126041
 30
0.0
 42
0.4142135623730951
  0
VERTEX
  5
386
  8
LAYER_1
 10
72.21074743272547
 20
-40.00471724126041
 30
0.0
 42
0.4142135623730951
  0
VERTEX
  5
387
  8
LAYER_1
 10
72.33624743272549
 20
-39.87921724126041
 30
0.0
 42
0.4142135623730951
  0
SEQEND
  5
707
  8
LAYER_1
  0
POLYLINE
  5
99
  8
LAYER_1
 66
     1
 10
0.0
 20
0.0
 30
0.0
 70
     1
  0
VERTEX
  5
388
  8
LAYER_1
 10
72.21074743272547
 20
-24.75371724126041
 30
0.0
 42
0.4142135623730951
  0
VERTEX
  5
389
  8
LAYER_1
 10
72.08524743272548
 20
-24.87921724126041
 30
0.0
 42
0.4142135623730951
  0
VERTEX
  5
38A
  8
LAYER_1
 10
72.21074743272547
 20
-25.0047172412604
 30
0.0
 42
0.4142135623730951
  0
VERTEX
  5
38B
  8
LAYER_1
 10
72.33624743272549
 20
-24.87921724126041
 30
0.0
 42
0.4142135623730951
  0
SEQEND
  5
708
  8
LAYER_1
  0
POLYLINE
  5
9A
  8
LAYER_1
 66
     1
 10
0.0
 20
0.0
 30
0.0
 70
     1
  0
VERTEX
  5
38C
  8
LAYER_1
 10
73.39824743272547
 20
-42.8162172412604
 30
0.0
 42
0.4142135623730951
  0
VERTEX
  5
38D
  8
LAYER_1
 10
73.27274743272548
 20
-42.94171724126041
 30
0.0
 42
0.4142135623730951
  0
VERTEX
  5
38E
  8
LAYER_1
 10
73.39824743272547
 20
-43.06721724126041
 30
0.0
 42
0.4142135623730951
  0
VERTEX
  5
38F
  8
LAYER_1
 10
73.52374743272549
 20
-42.94171724126041
 30
0.0
 42
0.4142135623730951
  0
SEQEND
  5
709
  8
LAYER_1
  0
POLYLINE
  5
9B
  8
LAYER_1
 66
     1
 10
0.0
 20
0.0
 30
0.0
 70
     1
  0
VERTEX
  5
390
  8
LAYER_1
 10
73.77324743272547
 20
-47.0037172412604
 30
0.0
 42
0.4142135623730951
  0
VERTEX
  5
391
  8
LAYER_1
 10
73.64774743272548
 20
-47.12921724126041
 30
0.0
 42
0.4142135623730951
  0
VERTEX
  5
392
  8
LAYER_1
 10
73.77324743272547
 20
-47.25471724126041
 30
0.0
 42
0.4142135623730951
  0
VERTEX
  5
393
  8
LAYER_1
 10
73.89874743272549
 20
-47.12921724126041
 30
0.0
 42
0.4142135623730951
  0
SEQEND
  5
70A
  8
LAYER_1
  0
POLYLINE
  5
9C
  8
LAYER_1
 66
     1
 10
0.0
 20
0.0
 30
0.0
 70
     1
  0
VERTEX
  5
394
  8
LAYER_1
 10
82.96074743272547
 20
-47.0037172412604
 30
0.0
 42
0.4142135623730951
  0
VERTEX
  5
395
  8
LAYER_1
 10
82.83524743272548
 20
-47.12921724126041
 30
0.0
 42
0.4142135623730951
  0
VERTEX
  5
396
  8
LAYER_1
 10
82.96074743272547
 20
-47.25471724126041
 30
0.0
 42
0.4142135623730951
  0
VERTEX
  5
397
  8
LAYER_1
 10
83.08624743272549
 20
-47.12921724126041
 30
0.0
 42
0.4142135623730951
  0
SEQEND
  5
70B
  8
LAYER_1
  0
POLYLINE
  5
9D
  8
LAYER_1
 66
     1
 10
0.0
 20
0.0
 30
0.0
 70
     1
  0
VERTEX
  5
398
  8
LAYER_1
 10
90.77324743272547
 20
-35.1912172412604
 30
0.0
 42
0.4142135623730951
  0
VERTEX
  5
399
  8
LAYER_1
 10
90.64774743272548
 20
-35.31671724126041
 30
0.0
 42
0.4142135623730951
  0
VERTEX
  5
39A
  8
LAYER_1
 10
90.77324743272547
 20
-35.44221724126041
 30
0.0
 42
0.4142135623730951
  0
VERTEX
  5
39B
  8
LAYER_1
 10
90.89874743272549
 20
-35.31671724126041
 30
0.0
 42
0.4142135623730951
  0
SEQEND
  5
70C
  8
LAYER_1
  0
POLYLINE
  5
9E
  8
LAYER_1
 66
     1
 10
0.0
 20
0.0
 30
0.0
 70
     1
  0
VERTEX
  5
39C
  8
LAYER_1
 10
73.77324743272547
 20
-17.25371724126041
 30
0.0
 42
0.4142135623730951
  0
VERTEX
  5
39D
  8
LAYER_1
 10
73.64774743272548
 20
-17.37921724126041
 30
0.0
 42
0.4142135623730951
  0
VERTEX
  5
39E
  8
LAYER_1
 10
73.77324743272547
 20
-17.5047172412604
 30
0.0
 42
0.4142135623730951
  0
VERTEX
  5
39F
  8
LAYER_1
 10
73.89874743272549
 20
-17.37921724126041
 30
0.0
 42
0.4142135623730951
  0
SEQEND
  5
70D
  8
LAYER_1
  0
POLYLINE
  5
9F
  8
LAYER_1
 66
     1
 10
0.0
 20
0.0
 30
0.0
 70
     1
  0
VERTEX
  5
3A0
  8
LAYER_1
 10
90.77324743272547
 20
-17.25371724126041
 30
0.0
 42
0.4142135623730951
  0
VERTEX
  5
3A1
  8
LAYER_1
 10
90.64774743272548
 20
-17.37921724126041
 30
0.0
 42
0.4142135623730951
  0
VERTEX
  5
3A2
  8
LAYER_1
 10
90.77324743272547
 20
-17.5047172412604
 30
0.0
 42
0.4142135623730951
  0
VERTEX
  5
3A3
  8
LAYER_1
 10
90.89874743272549
 20
-17.37921724126041
 30
0.0
 42
0.4142135623730951
  0
SEQEND
  5
70E
  8
LAYER_1
  0
POLYLINE
  5
A0
  8
LAYER_1
 66
     1
 10
0.0
 20
0.0
 30
0.0
 70
     1
  0
VERTEX
  5
3A4
  8
LAYER_1
 10
92.58574743272547
 20
-31.31671724126041
 30
0.0
 42
0.4142135623730951
  0
VERTEX
  5
3A5
  8
LAYER_1
 10
92.02324743272547
 20
-31.87921724126041
 30
0.0
 42
0.4142135623730951
  0
VERTEX
  5
3A6
  8
LAYER_1
 10
92.58574743272547
 20
-32.44171724126041
 30
0.0
 42
0.4142135623730951
  0
VERTEX
  5
3A7
  8
LAYER_1
 10
93.14824743272547
 20
-31.87921724126041
 30
0.0
 42
0.4142135623730951
  0
SEQEND
  5
70F
  8
LAYER_1
  0
POLYLINE
  5
A1
  8
LAYER_1
 66
     1
 10
0.0
 20
0.0
 30
0.0
 70
     1
  0
VERTEX
  5
3A8
  8
LAYER_1
 10
92.58574743272547
 20
-31.50421724126041
 30
0.0
 42
0.4142135623730951
  0
VERTEX
  5
3A9
  8
LAYER_1
 10
92.21074743272547
 20
-31.87921724126041
 30
0.0
 42
0.4142135623730951
  0
VERTEX
  5
3AA
  8
LAYER_1
 10
92.58574743272547
 20
-32.25421724126041
 30
0.0
 42
0.4142135623730951
  0
VERTEX
  5
3AB
  8
LAYER_1
 10
92.96074743272547
 20
-31.87921724126041
 30
0.0
 42
0.4142135623730951
  0
SEQEND
  5
710
  8
LAYER_1
  0
POLYLINE
  5
A2
  8
LAYER_1
 66
     1
 10
0.0
 20
0.0
 30
0.0
 70
     1
  0
VERTEX
  5
3AC
  8
LAYER_1
 10
0.6815607702332969
 20
-7.631213171128898
 30
0.0
  0
VERTEX
  5
3AD
  8
LAYER_1
 10
24.1815607702333
 20
-7.631213171128898
 30
0.0
  0
VERTEX
  5
3AE
  8
LAYER_1
 10
24.1815607702333
 20
-3.506213171128898
 30
0.0
  0
VERTEX
  5
3AF
  8
LAYER_1
 10
0.6815607702332969
 20
-3.506213171128898
 30
0.0
  0
SEQEND
  5
711
  8
LAYER_1
  0
POLYLINE
  5
A3
  8
LAYER_1
 66
     1
 10
0.0
 20
0.0
 30
0.0
 70
     1
  0
VERTEX
  5
3B0
  8
LAYER_1
 10
0.5565607702332969
 20
-7.756213171128898
 30
0.0
  0
VERTEX
  5
3B1
  8
LAYER_1
 10
0.9315607702332969
 20
-7.756213171128898
 30
0.0
  0
VERTEX
  5
3B2
  8
LAYER_1
 10
0.9315607702332969
 20
-3.381213171128898
 30
0.0
  0
VERTEX
  5
3B3
  8
LAYER_1
 10
0.5565607702332969
 20
-3.381213171128898
 30
0.0
  0
SEQEND
  5
712
  8
LAYER_1
  0
POLYLINE
  5
A4
  8
LAYER_1
 66
     1
 10
0.0
 20
0.0
 30
0.0
 70
     1
  0
VERTEX
  5
3B4
  8
LAYER_1
 10
23.9315607702333
 20
-7.756213171128898
 30
0.0
  0
VERTEX
  5
3B5
  8
LAYER_1
 10
24.3065607702333
 20
-7.756213171128898
 30
0.0
  0
VERTEX
  5
3B6
  8
LAYER_1
 10
24.3065607702333
 20
-3.381213171128898
 30
0.0
  0
VERTEX
  5
3B7
  8
LAYER_1
 10
23.9315607702333
 20
-3.381213171128898
 30
0.0
  0
SEQEND
  5
713
  8
LAYER_1
  0
POLYLINE
  5
A5
  8
LAYER_1
 66
     1
 10
0.0
 20
0.0
 30
0.0
 70
     1
  0
VERTEX
  5
3B8
  8
LAYER_1
 10
45.8111788040467
 20
-24.07404000268807
 30
0.0
  0
VERTEX
  5
3B9
  8
LAYER_1
 10
69.3111788040467
 20
-24.07404000268807
 30
0.0
  0
VERTEX
  5
3BA
  8
LAYER_1
 10
69.3111788040467
 20
-4.449040002688072
 30
0.0
  0
VERTEX
  5
3BB
  8
LAYER_1
 10
45.8111788040467
 20
-4.449040002688072
 30
0.0
  0
SEQEND
  5
714
  8
LAYER_1
  0
POLYLINE
  5
A6
  8
LAYER_1
 66
     1
 10
0.0
 20
0.0
 30
0.0
 70
     1
  0
VERTEX
  5
3BC
  8
LAYER_1
 10
45.6861788040467
 20
-24.19904000268807
 30
0.0
  0
VERTEX
  5
3BD
  8
LAYER_1
 10
46.0611788040467
 20
-24.19904000268807
 30
0.0
  0
VERTEX
  5
3BE
  8
LAYER_1
 10
46.0611788040467
 20
-4.324040002688072
 30
0.0
  0
VERTEX
  5
3BF
  8
LAYER_1
 10
45.6861788040467
 20
-4.324040002688072
 30
0.0
  0
SEQEND
  5
715
  8
LAYER_1
  0
POLYLINE
  5
A7
  8
LAYER_1
 66
     1
 10
0.0
 20
0.0
 30
0.0
 70
     1
  0
VERTEX
  5
3C0
  8
LAYER_1
 10
69.0611788040467
 20
-24.19904000268807
 30
0.0
  0
VERTEX
  5
3C1
  8
LAYER_1
 10
69.4361788040467
 20
-24.19904000268807
 30
0.0
  0
VERTEX
  5
3C2
  8
LAYER_1
 10
69.4361788040467
 20
-4.324040002688072
 30
0.0
  0
VERTEX
  5
3C3
  8
LAYER_1
 10
69.0611788040467
 20
-4.324040002688072
 30
0.0
  0
SEQEND
  5
716
  8
LAYER_1
  0
POLYLINE
  5
A8
  8
LAYER_1
 66
     1
 10
0.0
 20
0.0
 30
0.0
 70
     1
  0
VERTEX
  5
3C4
  8
LAYER_1
 10
56.6861788040467
 20
-5.980340002688074
 30
0.0
 42
0.4142135623730951
  0
VERTEX
  5
3C5
  8
LAYER_1
 10
56.9361788040467
 20
-6.230340002688074
 30
0.0
  0
VERTEX
  5
3C6
  8
LAYER_1
 10
57.5611788040467
 20
-6.230340002688074
 30
0.0
 42
0.4142135623730951
  0
VERTEX
  5
3C7
  8
LAYER_1
 10
57.8111788040467
 20
-5.980340002688074
 30
0.0
  0
VERTEX
  5
3C8
  8
LAYER_1
 10
57.8111788040467
 20
-4.230340002688074
 30
0.0
 42
0.4142135623730951
  0
VERTEX
  5
3C9
  8
LAYER_1
 10
57.5611788040467
 20
-3.980340002688074
 30
0.0
  0
VERTEX
  5
3CA
  8
LAYER_1
 10
56.9361788040467
 20
-3.980340002688074
 30
0.0
 42
0.4142135623730951
  0
VERTEX
  5
3CB
  8
LAYER_1
 10
56.6861788040467
 20
-4.230340002688074
 30
0.0
  0
SEQEND
  5
717
  8
LAYER_1
  0
POLYLINE
  5
A9
  8
LAYER_1
 66
     1
 10
0.0
 20
0.0
 30
0.0
 70
     1
  0
VERTEX
  5
3CC
  8
LAYER_1
 10
64.3111788040467
 20
-6.324040002688072
 30
0.0
 42
0.4142135623730951
  0
VERTEX
  5
3CD
  8
LAYER_1
 10
61.7486788040467
 20
-8.886540002688072
 30
0.0
 42
0.4142135623730951
  0
VERTEX
  5
3CE
  8
LAYER_1
 10
64.3111788040467
 20
-11.44904000268807
 30
0.0
 42
0.4142135623730951
  0
VERTEX
  5
3CF
  8
LAYER_1
 10
66.8736788040467
 20
-8.886540002688072
 30
0.0
 42
0.4142135623730951
  0
SEQEND
  5
718
  8
LAYER_1
  0
POLYLINE
  5
AA
  8
LAYER_1
 66
     1
 10
0.0
 20
0.0
 30
0.0
 70
     1
  0
VERTEX
  5
3D0
  8
LAYER_1
 10
33.66063481531783
 20
-16.1843910045666
 30
0.0
  0
VERTEX
  5
3D1
  8
LAYER_1
 10
44.34813481531783
 20
-16.1843910045666
 30
0.0
  0
VERTEX
  5
3D2
  8
LAYER_1
 10
44.34813481531783
 20
-5.809391004566599
 30
0.0
  0
VERTEX
  5
3D3
  8
LAYER_1
 10
33.66063481531783
 20
-5.809391004566599
 30
0.0
  0
SEQEND
  5
719
  8
LAYER_1
  0
POLYLINE
  5
AB
  8
LAYER_1
 66
     1
 10
0.0
 20
0.0
 30
0.0
 70
     1
  0
VERTEX
  5
3D4
  8
LAYER_1
 10
36.03563481531783
 20
-16.3093910045666
 30
0.0
  0
VERTEX
  5
3D5
  8
LAYER_1
 10
36.41063481531783
 20
-16.3093910045666
 30
0.0
  0
VERTEX
  5
3D6
  8
LAYER_1
 10
36.41063481531783
 20
-5.684391004566599
 30
0.0
  0
VERTEX
  5
3D7
  8
LAYER_1
 10
36.03563481531783
 20
-5.684391004566599
 30
0.0
  0
SEQEND
  5
71A
  8
LAYER_1
  0
POLYLINE
  5
AC
  8
LAYER_1
 66
     1
 10
0.0
 20
0.0
 30
0.0
 70
     1
  0
VERTEX
  5
3D8
  8
LAYER_1
 10
43.56683481531783
 20
-16.3093910045666
 30
0.0
  0
VERTEX
  5
3D9
  8
LAYER_1
 10
43.94183481531783
 20
-16.3093910045666
 30
0.0
  0
VERTEX
  5
3DA
  8
LAYER_1
 10
43.94183481531783
 20
-5.684391004566599
 30
0.0
  0
VERTEX
  5
3DB
  8
LAYER_1
 10
43.56683481531783
 20
-5.684391004566599
 30
0.0
  0
SEQEND
  5
71B
  8
LAYER_1
  0
POLYLINE
  5
AD
  8
LAYER_1
 66
     1
 10
0.0
 20
0.0
 30
0.0
 70
     1
  0
VERTEX
  5
3DC
  8
LAYER_1
 10
37.41063481531783
 20
-7.746891004566599
 30
0.0
 42
0.4142135623730951
  0
VERTEX
  5
3DD
  8
LAYER_1
 10
37.66063481531783
 20
-7.996891004566599
 30
0.0
  0
VERTEX
  5
3DE
  8
LAYER_1
 10
38.53563481531783
 20
-7.996891004566599
 30
0.0
 42
0.4142135623730951
  0
VERTEX
  5
3DF
  8
LAYER_1
 10
38.78563481531783
 20
-7.746891004566599
 30
0.0
  0
VERTEX
  5
3E0
  8
LAYER_1
 10
38.78563481531783
 20
-6.871891004566599
 30
0.0
 42
0.4142135623730951
  0
VERTEX
  5
3E1
  8
LAYER_1
 10
38.53563481531783
 20
-6.621891004566599
 30
0.0
  0
VERTEX
  5
3E2
  8
LAYER_1
 10
37.66063481531783
 20
-6.621891004566599
 30
0.0
 42
0.4142135623730951
  0
VERTEX
  5
3E3
  8
LAYER_1
 10
37.41063481531783
 20
-6.871891004566599
 30
0.0
  0
SEQEND
  5
71C
  8
LAYER_1
  0
POLYLINE
  5
AE
  8
LAYER_1
 66
     1
 10
0.0
 20
0.0
 30
0.0
 70
     1
  0
VERTEX
  5
3E4
  8
LAYER_1
 10
39.91063481531783
 20
-7.746891004566599
 30
0.0
 42
0.4142135623730951
  0
VERTEX
  5
3E5
  8
LAYER_1
 10
40.16063481531783
 20
-7.996891004566599
 30
0.0
  0
VERTEX
  5
3E6
  8
LAYER_1
 10
40.84813481531783
 20
-7.996891004566599
 30
0.0
 42
0.4142135623730951
  0
VERTEX
  5
3E7
  8
LAYER_1
 10
41.09813481531783
 20
-7.746891004566599
 30
0.0
  0
VERTEX
  5
3E8
  8
LAYER_1
 10
41.09813481531783
 20
-6.871891004566599
 30
0.0
 42
0.4142135623730951
  0
VERTEX
  5
3E9
  8
LAYER_1
 10
40.84813481531783
 20
-6.621891004566599
 30
0.0
  0
VERTEX
  5
3EA
  8
LAYER_1
 10
40.16063481531783
 20
-6.621891004566599
 30
0.0
 42
0.4142135623730951
  0
VERTEX
  5
3EB
  8
LAYER_1
 10
39.91063481531783
 20
-6.871891004566599
 30
0.0
  0
SEQEND
  5
71D
  8
LAYER_1
  0
POLYLINE
  5
AF
  8
LAYER_1
 66
     1
 10
0.0
 20
0.0
 30
0.0
 70
     1
  0
VERTEX
  5
3EC
  8
LAYER_1
 10
48.93988888544934
 20
-3.225914173007425
 30
0.0
  0
VERTEX
  5
3ED
  8
LAYER_1
 10
66.93988888544934
 20
-3.225914173007425
 30
0.0
  0
VERTEX
  5
3EE
  8
LAYER_1
 10
66.93988888544934
 20
-1.725914173007425
 30
0.0
  0
VERTEX
  5
3EF
  8
LAYER_1
 10
48.93988888544934
 20
-1.725914173007425
 30
0.0
  0
SEQEND
  5
71E
  8
LAYER_1
  0
POLYLINE
  5
B0
  8
LAYER_1
 66
     1
 10
0.0
 20
0.0
 30
0.0
 70
     1
  0
VERTEX
  5
3F0
  8
LAYER_1
 10
26.34352069509241
 20
-4.425162764115747
 30
0.0
  0
VERTEX
  5
3F1
  8
LAYER_1
 10
44.34352069509241
 20
-4.425162764115747
 30
0.0
  0
VERTEX
  5
3F2
  8
LAYER_1
 10
44.34352069509241
 20
-2.925162764115747
 30
0.0
  0
VERTEX
  5
3F3
  8
LAYER_1
 10
26.34352069509241
 20
-2.925162764115747
 30
0.0
  0
SEQEND
  5
71F
  8
LAYER_1
  0
POLYLINE
  5
B1
  8
LAYER_1
 66
     1
 10
0.0
 20
0.0
 30
0.0
 70
     1
  0
VERTEX
  5
3F4
  8
LAYER_1
 10
61.6072221666015
 20
-47.15723461759102
 30
0.0
  0
VERTEX
  5
3F5
  8
LAYER_1
 10
69.2947221666015
 20
-47.15723461759102
 30
0.0
  0
VERTEX
  5
3F6
  8
LAYER_1
 10
69.2947221666015
 20
-39.46973461759102
 30
0.0
  0
VERTEX
  5
3F7
  8
LAYER_1
 10
61.6072221666015
 20
-39.46973461759102
 30
0.0
  0
SEQEND
  5
720
  8
LAYER_1
  0
POLYLINE
  5
B2
  8
LAYER_1
 66
     1
 10
0.0
 20
0.0
 30
0.0
 70
     1
  0
VERTEX
  5
3F8
  8
LAYER_1
 10
61.4822221666015
 20
-47.28223461759102
 30
0.0
  0
VERTEX
  5
3F9
  8
LAYER_1
 10
61.8572221666015
 20
-47.28223461759102
 30
0.0
  0
VERTEX
  5
3FA
  8
LAYER_1
 10
61.8572221666015
 20
-39.34473461759102
 30
0.0
  0
VERTEX
  5
3FB
  8
LAYER_1
 10
61.4822221666015
 20
-39.34473461759102
 30
0.0
  0
SEQEND
  5
721
  8
LAYER_1
  0
POLYLINE
  5
B3
  8
LAYER_1
 66
     1
 10
0.0
 20
0.0
 30
0.0
 70
     1
  0
VERTEX
  5
3FC
  8
LAYER_1
 10
69.0447221666015
 20
-47.28223461759102
 30
0.0
  0
VERTEX
  5
3FD
  8
LAYER_1
 10
69.4197221666015
 20
-47.28223461759102
 30
0.0
  0
VERTEX
  5
3FE
  8
LAYER_1
 10
69.4197221666015
 20
-39.34473461759102
 30
0.0
  0
VERTEX
  5
3FF
  8
LAYER_1
 10
69.0447221666015
 20
-39.34473461759102
 30
0.0
  0
SEQEND
  5
722
  8
LAYER_1
  0
POLYLINE
  5
B4
  8
LAYER_1
 66
     1
 10
0.0
 20
0.0
 30
0.0
 70
     1
  0
VERTEX
  5
400
  8
LAYER_1
 10
43.11326083285071
 20
-24.59335312103497
 30
0.0
  0
VERTEX
  5
401
  8
LAYER_1
 10
44.36326083285071
 20
-24.59335312103497
 30
0.0
  0
VERTEX
  5
402
  8
LAYER_1
 10
44.36326083285071
 20
-17.09335312103497
 30
0.0
  0
VERTEX
  5
403
  8
LAYER_1
 10
43.11326083285071
 20
-17.09335312103497
 30
0.0
  0
SEQEND
  5
723
  8
LAYER_1
  0
POLYLINE
  5
B5
  8
LAYER_1
 66
     1
 10
0.0
 20
0.0
 30
0.0
 70
     1
  0
VERTEX
  5
404
  8
LAYER_1
 10
66.23427929796438
 20
28.12150811994614
 30
0.0
  0
VERTEX
  5
405
  8
LAYER_1
 10
66.23427929796438
 20
1.027986018578893
 30
0.0
  0
VERTEX
  5
406
  8
LAYER_1
 10
11.10927929796437
 20
1.0279860185789
 30
0.0
  0
VERTEX
  5
407
  8
LAYER_1
 10
2.17177929821397
 20
15.90298601852198
 30
0.0
  0
VERTEX
  5
408
  8
LAYER_1
 10
2.162122105414346
 20
15.91992826427881
 30
0.0
  0
VERTEX
  5
409
  8
LAYER_1
 10
2.153275072334393
 20
15.93722102962276
 30
0.0
  0
VERTEX
  5
40A
  8
LAYER_1
 10
2.145213197149213
 20
15.9548459658483
 30
0.0
  0
VERTEX
  5
40B
  8
LAYER_1
 10
2.137911478033907
 20
15.97278472424992
 30
0.0
  0
VERTEX
  5
40C
  8
LAYER_1
 10
2.131344913163575
 20
15.99101895612208
 30
0.0
  0
VERTEX
  5
40D
  8
LAYER_1
 10
2.12548850071332
 20
16.00953031275925
 30
0.0
  0
VERTEX
  5
40E
  8
LAYER_1
 10
2.120317238858242
 20
16.02830044545593
 30
0.0
  0
VERTEX
  5
40F
  8
LAYER_1
 10
2.115806125773442
 20
16.04731100550656
 30
0.0
  0
VERTEX
  5
410
  8
LAYER_1
 10
2.111930159634021
 20
16.06654364420565
 30
0.0
  0
VERTEX
  5
411
  8
LAYER_1
 10
2.10866433861508
 20
16.08598001284766
 30
0.0
  0
VERTEX
  5
412
  8
LAYER_1
 10
2.105983660891721
 20
16.10560176272706
 30
0.0
  0
VERTEX
  5
413
  8
LAYER_1
 10
2.103863124639044
 20
16.12539054513833
 30
0.0
  0
VERTEX
  5
414
  8
LAYER_1
 10
2.102277728032152
 20
16.14532801137594
 30
0.0
  0
VERTEX
  5
415
  8
LAYER_1
 10
2.101202469246144
 20
16.16539581273438
 30
0.0
  0
VERTEX
  5
416
  8
LAYER_1
 10
2.100612346456121
 20
16.18557560050812
 30
0.0
  0
VERTEX
  5
417
  8
LAYER_1
 10
2.100482357837187
 20
16.20584902599162
 30
0.0
  0
VERTEX
  5
418
  8
LAYER_1
 10
2.10078750156444
 20
16.22619774047937
 30
0.0
  0
VERTEX
  5
419
  8
LAYER_1
 10
2.101502775812983
 20
16.24660339526584
 30
0.0
  0
VERTEX
  5
41A
  8
LAYER_1
 10
2.102603178757916
 20
16.2670476416455
 30
0.0
  0
VERTEX
  5
41B
  8
LAYER_1
 10
2.104063708574341
 20
16.28751213091284
 30
0.0
  0
VERTEX
  5
41C
  8
LAYER_1
 10
2.105859363437358
 20
16.30797851436232
 30
0.0
  0
VERTEX
  5
41D
  8
LAYER_1
 10
2.107965141522069
 20
16.32842844328842
 30
0.0
  0
VERTEX
  5
41E
  8
LAYER_1
 10
2.113007060056977
 20
16.36920554274839
 30
0.0
  0
VERTEX
  5
41F
  8
LAYER_1
 10
2.118989449579873
 20
16.40969663964854
 30
0.0
  0
VERTEX
  5
420
  8
LAYER_1
 10
2.125712295491566
 20
16.44975494434468
 30
0.0
  0
VERTEX
  5
421
  8
LAYER_1
 10
2.132975583192867
 20
16.48923366719261
 30
0.0
  0
VERTEX
  5
422
  8
LAYER_1
 10
2.140579298084582
 20
16.52798601854813
 30
0.0
  0
VERTEX
  5
423
  8
LAYER_1
 10
3.359279298110486
 20
22.59048601852693
 30
0.0
  0
VERTEX
  5
424
  8
LAYER_1
 10
3.362202307293648
 20
22.60384414449701
 30
0.0
  0
VERTEX
  5
425
  8
LAYER_1
 10
3.36557333264353
 20
22.61709322707813
 30
0.0
  0
VERTEX
  5
426
  8
LAYER_1
 10
3.369383458233191
 20
22.63023002393662
 30
0.0
  0
VERTEX
  5
427
  8
LAYER_1
 10
3.37362376813569
 20
22.64325129273881
 30
0.0
  0
VERTEX
  5
428
  8
LAYER_1
 10
3.378285346424087
 20
22.65615379115105
 30
0.0
  0
VERTEX
  5
429
  8
LAYER_1
 10
3.383359277171439
 20
22.66893427683966
 30
0.0
  0
VERTEX
  5
42A
  8
LAYER_1
 10
3.388836644450806
 20
22.68158950747097
 30
0.0
  0
VERTEX
  5
42B
  8
LAYER_1
 10
3.394708532335247
 20
22.69411624071133
 30
0.0
  0
VERTEX
  5
42C
  8
LAYER_1
 10
3.400966024897821
 20
22.70651123422707
 30
0.0
  0
VERTEX
  5
42D
  8
LAYER_1
 10
3.407600206211587
 20
22.71877124568451
 30
0.0
  0
VERTEX
  5
42E
  8
LAYER_1
 10
3.414602160349604
 20
22.73089303275
 30
0.0
  0
VERTEX
  5
42F
  8
LAYER_1
 10
3.421962971384931
 20
22.74287335308987
 30
0.0
  0
VERTEX
  5
430
  8
LAYER_1
 10
3.429673723390627
 20
22.75470896437046
 30
0.0
  0
VERTEX
  5
431
  8
LAYER_1
 10
3.43772550043975
 20
22.76639662425809
 30
0.0
  0
VERTEX
  5
432
  8
LAYER_1
 10
3.446109386605361
 20
22.7779330904191
 30
0.0
  0
VERTEX
  5
433
  8
LAYER_1
 10
3.454816465960517
 20
22.78931512051983
 30
0.0
  0
VERTEX
  5
434
  8
LAYER_1
 10
3.463837822578278
 20
22.80053947222661
 30
0.0
  0
VERTEX
  5
435
  8
LAYER_1
 10
3.473164540531704
 20
22.81160290320577
 30
0.0
  0
VERTEX
  5
436
  8
LAYER_1
 10
3.482787703893851
 20
22.82250217112366
 30
0.0
  0
VERTEX
  5
437
  8
LAYER_1
 10
3.492698396737781
 20
22.83323403364659
 30
0.0
  0
VERTEX
  5
438
  8
LAYER_1
 10
3.502887703136552
 20
22.84379524844091
 30
0.0
  0
VERTEX
  5
439
  8
LAYER_1
 10
3.513346707163222
 20
22.85418257317296
 30
0.0
  0
VERTEX
  5
43A
  8
LAYER_1
 10
3.524066492890851
 20
22.86439276550906
 30
0.0
  0
VERTEX
  5
43B
  8
LAYER_1
 10
3.535038144392498
 20
22.87442258311555
 30
0.0
  0
VERTEX
  5
43C
  8
LAYER_1
 10
3.55770138101008
 20
22.89392812480504
 30
0.0
  0
VERTEX
  5
43D
  8
LAYER_1
 10
3.581265089600441
 20
22.9126732595721
 30
0.0
  0
VERTEX
  5
43E
  8
LAYER_1
 10
3.605657942748054
 20
22.93063204874739
 30
0.0
  0
VERTEX
  5
43F
  8
LAYER_1
 10
3.630808613037388
 20
22.94777855366161
 30
0.0
  0
VERTEX
  5
440
  8
LAYER_1
 10
3.656645773052917
 20
22.96408683564542
 30
0.0
  0
VERTEX
  5
441
  8
LAYER_1
 10
3.683098095379112
 20
22.9795309560295
 30
0.0
  0
VERTEX
  5
442
  8
LAYER_1
 10
3.710094252600445
 20
22.99408497614451
 30
0.0
  0
VERTEX
  5
443
  8
LAYER_1
 10
3.737562917301389
 20
23.00772295732114
 30
0.0
  0
VERTEX
  5
444
  8
LAYER_1
 10
3.765432762066414
 20
23.02041896089005
 30
0.0
  0
VERTEX
  5
445
  8
LAYER_1
 10
3.793632459479993
 20
23.03214704818193
 30
0.0
  0
VERTEX
  5
446
  8
LAYER_1
 10
3.822090682126597
 20
23.04288128052744
 30
0.0
  0
VERTEX
  5
447
  8
LAYER_1
 10
3.8507361025907
 20
23.05259571925726
 30
0.0
  0
VERTEX
  5
448
  8
LAYER_1
 10
3.879497393456772
 20
23.06126442570206
 30
0.0
  0
VERTEX
  5
449
  8
LAYER_1
 10
3.908303227309284
 20
23.06886146119252
 30
0.0
  0
VERTEX
  5
44A
  8
LAYER_1
 10
3.937082276732711
 20
23.0753608870593
 30
0.0
  0
VERTEX
  5
44B
  8
LAYER_1
 10
3.965763214311521
 20
23.08073676463308
 30
0.0
  0
VERTEX
  5
44C
  8
LAYER_1
 10
3.994274712630189
 20
23.08496315524454
 30
0.0
  0
VERTEX
  5
44D
  8
LAYER_1
 10
4.022545444273186
 20
23.08801412022436
 30
0.0
  0
VERTEX
  5
44E
  8
LAYER_1
 10
4.050504081824984
 20
23.0898637209032
 30
0.0
  0
VERTEX
  5
44F
  8
LAYER_1
 10
4.064344075499331
 20
23.09032990379559
 30
0.0
  0
VERTEX
  5
450
  8
LAYER_1
 10
4.078079297870055
 20
23.09048601861173
 30
0.0
  0
VERTEX
  5
451
  8
LAYER_1
 10
11.10927929770659
 20
23.09048601868302
 30
0.0
  0
VERTEX
  5
452
  8
LAYER_1
 10
11.12380698701872
 20
23.09025325600597
 30
0.0
  0
VERTEX
  5
453
  8
LAYER_1
 10
11.13835319401142
 20
23.08956005843716
 30
0.0
  0
VERTEX
  5
454
  8
LAYER_1
 10
11.15291120776495
 20
23.08841406167056
 30
0.0
  0
VERTEX
  5
455
  8
LAYER_1
 10
11.16747431735958
 20
23.08682290140013
 30
0.0
  0
VERTEX
  5
456
  8
LAYER_1
 10
11.18203581187557
 20
23.08479421331981
 30
0.0
  0
VERTEX
  5
457
  8
LAYER_1
 10
11.19658898039318
 20
23.08233563312357
 30
0.0
  0
VERTEX
  5
458
  8
LAYER_1
 10
11.21112711199268
 20
23.07945479650537
 30
0.0
  0
VERTEX
  5
459
  8
LAYER_1
 10
11.22564349575434
 20
23.07615933915915
 30
0.0
  0
VERTEX
  5
45A
  8
LAYER_1
 10
11.24013142075841
 20
23.07245689677889
 30
0.0
  0
VERTEX
  5
45B
  8
LAYER_1
 10
11.25458417608516
 20
23.06835510505854
 30
0.0
  0
VERTEX
  5
45C
  8
LAYER_1
 10
11.26899505081486
 20
23.06386159969205
 30
0.0
  0
VERTEX
  5
45D
  8
LAYER_1
 10
11.28335733402777
 20
23.05898401637338
 30
0.0
  0
VERTEX
  5
45E
  8
LAYER_1
 10
11.29766431480415
 20
23.0537299907965
 30
0.0
  0
VERTEX
  5
45F
  8
LAYER_1
 10
11.31190928222427
 20
23.04810715865535
 30
0.0
  0
VERTEX
  5
460
  8
LAYER_1
 10
11.3260855253684
 20
23.0421231556439
 30
0.0
  0
VERTEX
  5
461
  8
LAYER_1
 10
11.34018633331679
 20
23.03578561745611
 30
0.0
  0
VERTEX
  5
462
  8
LAYER_1
 10
11.35420499514972
 20
23.02910217978592
 30
0.0
  0
VERTEX
  5
463
  8
LAYER_1
 10
11.36813479994744
 20
23.02208047832731
 30
0.0
  0
VERTEX
  5
464
  8
LAYER_1
 10
11.38196903679022
 20
23.01472814877423
 30
0.0
  0
VERTEX
  5
465
  8
LAYER_1
 10
11.39570099475833
 20
23.00705282682063
 30
0.0
  0
VERTEX
  5
466
  8
LAYER_1
 10
11.40932396293202
 20
22.99906214816047
 30
0.0
  0
VERTEX
  5
467
  8
LAYER_1
 10
11.42283123039157
 20
22.99076374848772
 30
0.0
  0
VERTEX
  5
468
  8
LAYER_1
 10
11.43621608621724
 20
22.98216526349632
 30
0.0
  0
VERTEX
  5
469
  8
LAYER_1
 10
11.44947181948929
 20
22.97327432888023
 30
0.0
  0
VERTEX
  5
46A
  8
LAYER_1
 10
11.46259171928798
 20
22.96409858033342
 30
0.0
  0
VERTEX
  5
46B
  8
LAYER_1
 10
11.47556907469358
 20
22.95464565354985
 30
0.0
  0
VERTEX
  5
46C
  8
LAYER_1
 10
11.48839717478636
 20
22.94492318422346
 30
0.0
  0
VERTEX
  5
46D
  8
LAYER_1
 10
11.50106930864658
 20
22.93493880804822
 30
0.0
  0
VERTEX
  5
46E
  8
LAYER_1
 10
11.5259188339904
 20
22.91421487792701
 30
0.0
  0
VERTEX
  5
46F
  8
LAYER_1
 10
11.55006396336714
 20
22.89253494873788
 30
0.0
  0
VERTEX
  5
470
  8
LAYER_1
 10
11.57345100941892
 20
22.86996010603249
 30
0.0
  0
VERTEX
  5
471
  8
LAYER_1
 10
11.59602628478786
 20
22.8465514353625
 30
0.0
  0
VERTEX
  5
472
  8
LAYER_1
 10
11.61773610211608
 20
22.82237002227959
 30
0.0
  0
VERTEX
  5
473
  8
LAYER_1
 10
11.63852677404568
 20
22.79747695233539
 30
0.0
  0
VERTEX
  5
474
  8
LAYER_1
 10
11.65834461321878
 20
22.77193331108159
 30
0.0
  0
VERTEX
  5
475
  8
LAYER_1
 10
11.67713593227749
 20
22.74580018406984
 30
0.0
  0
VERTEX
  5
476
  8
LAYER_1
 10
11.69484704386394
 20
22.7191386568518
 30
0.0
  0
VERTEX
  5
477
  8
LAYER_1
 10
11.70328074455572
 20
22.70562883240031
 30
0.0
  0
VERTEX
  5
478
  8
LAYER_1
 10
11.71142426062023
 20
22.69200981497913
 30
0.0
  0
VERTEX
  5
479
  8
LAYER_1
 10
11.71927088113773
 20
22.6782892402822
 30
0.0
  0
VERTEX
  5
47A
  8
LAYER_1
 10
11.72681389518849
 20
22.6644747440035
 30
0.0
  0
VERTEX
  5
47B
  8
LAYER_1
 10
11.73404659185275
 20
22.65057396183697
 30
0.0
  0
VERTEX
  5
47C
  8
LAYER_1
 10
11.74096226021081
 20
22.63659452947657
 30
0.0
  0
VERTEX
  5
47D
  8
LAYER_1
 10
11.74755418934291
 20
22.62254408261626
 30
0.0
  0
VERTEX
  5
47E
  8
LAYER_1
 10
11.75381566832932
 20
22.60843025694999
 30
0.0
  0
VERTEX
  5
47F
  8
LAYER_1
 10
11.75973998625031
 20
22.59426068817174
 30
0.0
  0
VERTEX
  5
480
  8
LAYER_1
 10
11.76532043218613
 20
22.58004301197544
 30
0.0
  0
VERTEX
  5
481
  8
LAYER_1
 10
11.77055029521707
 20
22.56578486405507
 30
0.0
  0
VERTEX
  5
482
  8
LAYER_1
 10
11.77542286442336
 20
22.55149388010457
 30
0.0
  0
VERTEX
  5
483
  8
LAYER_1
 10
11.7799314288853
 20
22.53717769581791
 30
0.0
  0
VERTEX
  5
484
  8
LAYER_1
 10
11.78406927768313
 20
22.52284394688905
 30
0.0
  0
VERTEX
  5
485
  8
LAYER_1
 10
11.78782969989712
 20
22.50850026901194
 30
0.0
  0
VERTEX
  5
486
  8
LAYER_1
 10
11.79120598460753
 20
22.49415429788053
 30
0.0
  0
VERTEX
  5
487
  8
LAYER_1
 10
11.79419142089464
 20
22.4798136691888
 30
0.0
  0
VERTEX
  5
488
  8
LAYER_1
 10
11.7967792978387
 20
22.46548601863068
 30
0.0
  0
VERTEX
  5
489
  8
LAYER_1
 10
12.07807929792317
 20
20.77798601859549
 30
0.0
  0
VERTEX
  5
48A
  8
LAYER_1
 10
12.08276785756952
 20
20.75303153828913
 30
0.0
  0
VERTEX
  5
48B
  8
LAYER_1
 10
12.08847426211
 20
20.7282316069042
 30
0.0
  0
VERTEX
  5
48C
  8
LAYER_1
 10
12.09517580985673
 20
20.70359757755403
 30
0.0
  0
VERTEX
  5
48D
  8
LAYER_1
 10
12.10284979912182
 20
20.67914080335196
 30
0.0
  0
VERTEX
  5
48E
  8
LAYER_1
 10
12.11147352821739
 20
20.65487263741133
 30
0.0
  0
VERTEX
  5
48F
  8
LAYER_1
 10
12.12102429545554
 20
20.63080443284547
 30
0.0
  0
VERTEX
  5
490
  8
LAYER_1
 10
12.13147939914841
 20
20.60694754276772
 30
0.0
  0
VERTEX
  5
491
  8
LAYER_1
 10
12.14281613760809
 20
20.58331332029141
 30
0.0
  0
VERTEX
  5
492
  8
LAYER_1
 10
12.15501180914671
 20
20.55991311852989
 30
0.0
  0
VERTEX
  5
493
  8
LAYER_1
 10
12.16804371207637
 20
20.53675829059649
 30
0.0
  0
VERTEX
  5
494
  8
LAYER_1
 10
12.1818891447092
 20
20.51386018960454
 30
0.0
  0
VERTEX
  5
495
  8
LAYER_1
 10
12.19652540535731
 20
20.49123016866739
 30
0.0
  0
VERTEX
  5
496
  8
LAYER_1
 10
12.21192979233281
 20
20.46887958089836
 30
0.0
  0
VERTEX
  5
497
  8
LAYER_1
 10
12.22807960394781
 20
20.4468197794108
 30
0.0
  0
VERTEX
  5
498
  8
LAYER_1
 10
12.24495213851444
 20
20.42506211731803
 30
0.0
  0
VERTEX
  5
499
  8
LAYER_1
 10
12.2625246943448
 20
20.40361794773341
 30
0.0
  0
VERTEX
  5
49A
  8
LAYER_1
 10
12.28077456975101
 20
20.38249862377026
 30
0.0
  0
VERTEX
  5
49B
  8
LAYER_1
 10
12.29967906304519
 20
20.36171549854192
 30
0.0
  0
VERTEX
  5
49C
  8
LAYER_1
 10
12.31921547253944
 20
20.34127992516173
 30
0.0
  0
VERTEX
  5
49D
  8
LAYER_1
 10
12.33936109654589
 20
20.32120325674302
 30
0.0
  0
VERTEX
  5
49E
  8
LAYER_1
 10
12.36009323337665
 20
20.30149684639914
 30
0.0
  0
VERTEX
  5
49F
  8
LAYER_1
 10
12.38138918134383
 20
20.28217204724341
 30
0.0
  0
VERTEX
  5
4A0
  8
LAYER_1
 10
12.40322623875954
 20
20.26324021238917
 30
0.0
  0
VERTEX
  5
4A1
  8
LAYER_1
 10
12.42558170393591
 20
20.24471269494976
 30
0.0
  0
VERTEX
  5
4A2
  8
LAYER_1
 10
12.44843287518504
 20
20.22660084803852
 30
0.0
  0
VERTEX
  5
4A3
  8
LAYER_1
 10
12.47175705081905
 20
20.20891602476878
 30
0.0
  0
VERTEX
  5
4A4
  8
LAYER_1
 10
12.49553152915006
 20
20.19166957825389
 30
0.0
  0
VERTEX
  5
4A5
  8
LAYER_1
 10
12.51973360849017
 20
20.17487286160716
 30
0.0
  0
VERTEX
  5
4A6
  8
LAYER_1
 10
12.54434058715151
 20
20.15853722794195
 30
0.0
  0
VERTEX
  5
4A7
  8
LAYER_1
 10
12.56932976344619
 20
20.14267403037159
 30
0.0
  0
VERTEX
  5
4A8
  8
LAYER_1
 10
12.59467843568632
 20
20.12729462200941
 30
0.0
  0
VERTEX
  5
4A9
  8
LAYER_1
 10
12.62036390218402
 20
20.11241035596876
 30
0.0
  0
VERTEX
  5
4AA
  8
LAYER_1
 10
12.64636346125139
 20
20.09803258536296
 30
0.0
  0
VERTEX
  5
4AB
  8
LAYER_1
 10
12.67265441120057
 20
20.08417266330535
 30
0.0
  0
VERTEX
  5
4AC
  8
LAYER_1
 10
12.69921405034365
 20
20.07084194290928
 30
0.0
  0
VERTEX
  5
4AD
  8
LAYER_1
 10
12.72601967699276
 20
20.05805177728808
 30
0.0
  0
VERTEX
  5
4AE
  8
LAYER_1
 10
12.75304858946001
 20
20.04581351955508
 30
0.0
  0
VERTEX
  5
4AF
  8
LAYER_1
 10
12.78027808605751
 20
20.03413852282362
 30
0.0
  0
VERTEX
  5
4B0
  8
LAYER_1
 10
12.80768546509738
 20
20.02303814020704
 30
0.0
  0
VERTEX
  5
4B1
  8
LAYER_1
 10
12.83524802489173
 20
20.01252372481867
 30
0.0
  0
VERTEX
  5
4B2
  8
LAYER_1
 10
12.86294306375267
 20
20.00260662977185
 30
0.0
  0
VERTEX
  5
4B3
  8
LAYER_1
 10
12.89074787999233
 20
19.99329820817992
 30
0.0
  0
VERTEX
  5
4B4
  8
LAYER_1
 10
12.91863977192282
 20
19.98460981315622
 30
0.0
  0
VERTEX
  5
4B5
  8
LAYER_1
 10
12.94659603785624
 20
19.97655279781407
 30
0.0
  0
VERTEX
  5
4B6
  8
LAYER_1
 10
12.97459397610472
 20
19.96913851526681
 30
0.0
  0
VERTEX
  5
4B7
  8
LAYER_1
 10
13.00261088498037
 20
19.9623783186278
 30
0.0
  0
VERTEX
  5
4B8
  8
LAYER_1
 10
13.03062406279531
 20
19.95628356101034
 30
0.0
  0
VERTEX
  5
4B9
  8
LAYER_1
 10
13.05861080786164
 20
19.9508655955278
 30
0.0
  0
VERTEX
  5
4BA
  8
LAYER_1
 10
13.08654841849148
 20
19.94613577529349
 30
0.0
  0
VERTEX
  5
4BB
  8
LAYER_1
 10
13.11441419299695
 20
19.94210545342077
 30
0.0
  0
VERTEX
  5
4BC
  8
LAYER_1
 10
13.14218542969016
 20
19.93878598302296
 30
0.0
  0
VERTEX
  5
4BD
  8
LAYER_1
 10
13.16983942688323
 20
19.9361887172134
 30
0.0
  0
VERTEX
  5
4BE
  8
LAYER_1
 10
13.19735348288827
 20
19.93432500910543
 30
0.0
  0
VERTEX
  5
4BF
  8
LAYER_1
 10
13.22470489601739
 20
19.93320621181238
 30
0.0
  0
VERTEX
  5
4C0
  8
LAYER_1
 10
13.25187096458272
 20
19.9328436784476
 30
0.0
  0
VERTEX
  5
4C1
  8
LAYER_1
 10
13.27882898689635
 20
19.93324876212441
 30
0.0
  0
VERTEX
  5
4C2
  8
LAYER_1
 10
13.30555626127042
 20
19.93443281595616
 30
0.0
  0
VERTEX
  5
4C3
  8
LAYER_1
 10
13.33203008601702
 20
19.93640719305618
 30
0.0
  0
VERTEX
  5
4C4
  8
LAYER_1
 10
13.35822775944829
 20
19.93918324653781
 30
0.0
  0
VERTEX
  5
4C5
  8
LAYER_1
 10
13.38412657987632
 20
19.94277232951438
 30
0.0
  0
VERTEX
  5
4C6
  8
LAYER_1
 10
13.40970384561325
 20
19.94718579509922
 30
0.0
  0
VERTEX
  5
4C7
  8
LAYER_1
 10
13.43493685497117
 20
19.95243499640569
 30
0.0
  0
VERTEX
  5
4C8
  8
LAYER_1
 10
13.45980290626221
 20
19.95853128654711
 30
0.0
  0
VERTEX
  5
4C9
  8
LAYER_1
 10
13.48427929779847
 20
19.96548601863682
 30
0.0
  0
VERTEX
  5
4CA
  8
LAYER_1
 10
26.42177929791972
 20
23.90298601860592
 30
0.0
  0
VERTEX
  5
4CB
  8
LAYER_1
 10
26.43896280722836
 20
23.90842787680715
 30
0.0
  0
VERTEX
  5
4CC
  8
LAYER_1
 10
26.4560604488014
 20
23.91426434912783
 30
0.0
  0
VERTEX
  5
4CD
  8
LAYER_1
 10
26.47306798312174
 20
23.9204889834513
 30
0.0
  0
VERTEX
  5
4CE
  8
LAYER_1
 10
26.48998117067227
 20
23.92709532766086
 30
0.0
  0
VERTEX
  5
4CF
  8
LAYER_1
 10
26.50679577193588
 20
23.93407692963981
 30
0.0
  0
VERTEX
  5
4D0
  8
LAYER_1
 10
26.52350754739548
 20
23.94142733727147
 30
0.0
  0
VERTEX
  5
4D1
  8
LAYER_1
 10
26.54011225753393
 20
23.94914009843916
 30
0.0
  0
VERTEX
  5
4D2
  8
LAYER_1
 10
26.55660566283415
 20
23.95720876102617
 30
0.0
  0
VERTEX
  5
4D3
  8
LAYER_1
 10
26.57298352377903
 20
23.96562687291582
 30
0.0
  0
VERTEX
  5
4D4
  8
LAYER_1
 10
26.58924160085146
 20
23.97438798199142
 30
0.0
  0
VERTEX
  5
4D5
  8
LAYER_1
 10
26.60537565453433
 20
23.98348563613628
 30
0.0
  0
VERTEX
  5
4D6
  8
LAYER_1
 10
26.62138144531053
 20
23.99291338323372
 30
0.0
  0
VERTEX
  5
4D7
  8
LAYER_1
 10
26.63725473366296
 20
24.00266477116703
 30
0.0
  0
VERTEX
  5
4D8
  8
LAYER_1
 10
26.65299128007451
 20
24.01273334781954
 30
0.0
  0
VERTEX
  5
4D9
  8
LAYER_1
 10
26.66858684502807
 20
24.02311266107456
 30
0.0
  0
VERTEX
  5
4DA
  8
LAYER_1
 10
26.68403718900654
 20
24.03379625881538
 30
0.0
  0
VERTEX
  5
4DB
  8
LAYER_1
 10
26.69933807249281
 20
24.04477768892533
 30
0.0
  0
VERTEX
  5
4DC
  8
LAYER_1
 10
26.71448525596976
 20
24.05605049928772
 30
0.0
  0
VERTEX
  5
4DD
  8
LAYER_1
 10
26.72947449992031
 20
24.06760823778585
 30
0.0
  0
VERTEX
  5
4DE
  8
LAYER_1
 10
26.74430156482733
 20
24.07944445230304
 30
0.0
  0
VERTEX
  5
4DF
  8
LAYER_1
 10
26.75896221117372
 20
24.09155269072259
 30
0.0
  0
VERTEX
  5
4E0
  8
LAYER_1
 10
26.77345219944237
 20
24.10392650092782
 30
0.0
  0
VERTEX
  5
4E1
  8
LAYER_1
 10
26.78776729011619
 20
24.11655943080203
 30
0.0
  0
VERTEX
  5
4E2
  8
LAYER_1
 10
26.80190324367805
 20
24.12944502822855
 30
0.0
  0
VERTEX
  5
4E3
  8
LAYER_1
 10
26.81585582061085
 20
24.14257684109068
 30
0.0
  0
VERTEX
  5
4E4
  8
LAYER_1
 10
26.82962078139749
 20
24.15594841727172
 30
0.0
  0
VERTEX
  5
4E5
  8
LAYER_1
 10
26.85657089646385
 20
24.18338505112381
 30
0.0
  0
VERTEX
  5
4E6
  8
LAYER_1
 10
26.88271967274026
 20
24.21170331285131
 30
0.0
  0
VERTEX
  5
4E7
  8
LAYER_1
 10
26.90803319408987
 20
24.24085158552068
 30
0.0
  0
VERTEX
  5
4E8
  8
LAYER_1
 10
26.93247754437582
 20
24.27077825219843
 30
0.0
  0
VERTEX
  5
4E9
  8
LAYER_1
 10
26.95601880746126
 20
24.30143169595104
 30
0.0
  0
VERTEX
  5
4EA
  8
LAYER_1
 10
26.97862306720933
 20
24.33276029984498
 30
0.0
  0
VERTEX
  5
4EB
  8
LAYER_1
 10
27.00025640748317
 20
24.36471244694676
 30
0.0
  0
VERTEX
  5
4EC
  8
LAYER_1
 10
27.02088491214592
 20
24.39723652032284
 30
0.0
  0
VERTEX
  5
4ED
  8
LAYER_1
 10
27.04047466506074
 20
24.43028090303972
 30
0.0
  0
VERTEX
  5
4EE
  8
LAYER_1
 10
27.05899175009076
 20
24.46379397816387
 30
0.0
  0
VERTEX
  5
4EF
  8
LAYER_1
 10
27.07640225109913
 20
24.49772412876178
 30
0.0
  0
VERTEX
  5
4F0
  8
LAYER_1
 10
27.09267225194899
 20
24.53201973789994
 30
0.0
  0
VERTEX
  5
4F1
  8
LAYER_1
 10
27.10036896602171
 20
24.54928845912989
 30
0.0
  0
VERTEX
  5
4F2
  8
LAYER_1
 10
27.10776783650348
 20
24.56662918864483
 30
0.0
  0
VERTEX
  5
4F3
  8
LAYER_1
 10
27.11486462387719
 20
24.58403547432808
 30
0.0
  0
VERTEX
  5
4F4
  8
LAYER_1
 10
27.12165508862574
 20
24.60150086406294
 30
0.0
  0
VERTEX
  5
4F5
  8
LAYER_1
 10
27.12813499123202
 20
24.61901890573273
 30
0.0
  0
VERTEX
  5
4F6
  8
LAYER_1
 10
27.13430009217893
 20
24.63658314722075
 30
0.0
  0
VERTEX
  5
4F7
  8
LAYER_1
 10
27.14014615194935
 20
24.65418713641031
 30
0.0
  0
VERTEX
  5
4F8
  8
LAYER_1
 10
27.14566893102618
 20
24.67182442118474
 30
0.0
  0
VERTEX
  5
4F9
  8
LAYER_1
 10
27.15086418989231
 20
24.68948854942733
 30
0.0
  0
VERTEX
  5
4FA
  8
LAYER_1
 10
27.15572768903063
 20
24.7071730690214
 30
0.0
  0
VERTEX
  5
4FB
  8
LAYER_1
 10
27.16025518892405
 20
24.72487152785025
 30
0.0
  0
VERTEX
  5
4FC
  8
LAYER_1
 10
27.16444245005544
 20
24.74257747379721
 30
0.0
  0
VERTEX
  5
4FD
  8
LAYER_1
 10
27.16828523290771
 20
24.76028445474557
 30
0.0
  0
VERTEX
  5
4FE
  8
LAYER_1
 10
27.17177929796375
 20
24.77798601857866
 30
0.0
  0
VERTEX
  5
4FF
  8
LAYER_1
 10
28.20307929784494
 20
30.27798601866962
 30
0.0
  0
VERTEX
  5
500
  8
LAYER_1
 10
28.20692201692973
 20
30.29703450907654
 30
0.0
  0
VERTEX
  5
501
  8
LAYER_1
 10
28.21129978406676
 20
30.31607325574579
 30
0.0
  0
VERTEX
  5
502
  8
LAYER_1
 10
28.21620330847994
 20
30.3350929710427
 30
0.0
  0
VERTEX
  5
503
  8
LAYER_1
 10
28.2216232993932
 20
30.3540843673326
 30
0.0
  0
VERTEX
  5
504
  8
LAYER_1
 10
28.22755046603045
 20
30.37303815698081
 30
0.0
  0
VERTEX
  5
505
  8
LAYER_1
 10
28.23397551761561
 20
30.39194505235267
 30
0.0
  0
VERTEX
  5
506
  8
LAYER_1
 10
28.24088916337259
 20
30.4107957658135
 30
0.0
  0
VERTEX
  5
507
  8
LAYER_1
 10
28.24828211252532
 20
30.42958100972864
 30
0.0
  0
VERTEX
  5
508
  8
LAYER_1
 10
28.25614507429771
 20
30.4482914964634
 30
0.0
  0
VERTEX
  5
509
  8
LAYER_1
 10
28.26446875791368
 20
30.46691793838314
 30
0.0
  0
VERTEX
  5
50A
  8
LAYER_1
 10
28.27324387259714
 20
30.48545104785316
 30
0.0
  0
VERTEX
  5
50B
  8
LAYER_1
 10
28.28246112757202
 20
30.50388153723881
 30
0.0
  0
VERTEX
  5
50C
  8
LAYER_1
 10
28.29211123206222
 20
30.5222001189054
 30
0.0
  0
VERTEX
  5
50D
  8
LAYER_1
 10
28.30218489529167
 20
30.54039750521828
 30
0.0
  0
VERTEX
  5
50E
  8
LAYER_1
 10
28.31267282648429
 20
30.55846440854276
 30
0.0
  0
VERTEX
  5
50F
  8
LAYER_1
 10
28.32356573486399
 20
30.57639154124418
 30
0.0
  0
VERTEX
  5
510
  8
LAYER_1
 10
28.33485432965469
 20
30.59416961568787
 30
0.0
  0
VERTEX
  5
511
  8
LAYER_1
 10
28.3465293200803
 20
30.61178934423916
 30
0.0
  0
VERTEX
  5
512
  8
LAYER_1
 10
28.35858141536475
 20
30.62924143926337
 30
0.0
  0
VERTEX
  5
513
  8
LAYER_1
 10
28.37100132473196
 20
30.64651661312584
 30
0.0
  0
VERTEX
  5
514
  8
LAYER_1
 10
28.38377975740583
 20
30.66360557819189
 30
0.0
  0
VERTEX
  5
515
  8
LAYER_1
 10
28.39690742261028
 20
30.68049904682686
 30
0.0
  0
VERTEX
  5
516
  8
LAYER_1
 10
28.41037502956924
 20
30.69718773139607
 30
0.0
  0
VERTEX
  5
517
  8
LAYER_1
 10
28.42417328750662
 20
30.71366234426485
 30
0.0
  0
VERTEX
  5
518
  8
LAYER_1
 10
28.43829290564634
 20
30.72991359779854
 30
0.0
  0
VERTEX
  5
519
  8
LAYER_1
 10
28.45272459321231
 20
30.74593220436245
 30
0.0
  0
VERTEX
  5
51A
  8
LAYER_1
 10
28.46745905942846
 20
30.76170887632193
 30
0.0
  0
VERTEX
  5
51B
  8
LAYER_1
 10
28.48248701351869
 20
30.7772343260423
 30
0.0
  0
VERTEX
  5
51C
  8
LAYER_1
 10
28.49779916470694
 20
30.79249926588888
 30
0.0
  0
VERTEX
  5
51D
  8
LAYER_1
 10
28.51338622221711
 20
30.80749440822702
 30
0.0
  0
VERTEX
  5
51E
  8
LAYER_1
 10
28.52923889527312
 20
30.82221046542203
 30
0.0
  0
VERTEX
  5
51F
  8
LAYER_1
 10
28.54534789309889
 20
30.83663814983925
 30
0.0
  0
VERTEX
  5
520
  8
LAYER_1
 10
28.56170392491833
 20
30.850768173844
 30
0.0
  0
VERTEX
  5
521
  8
LAYER_1
 10
28.57829769995537
 20
30.86459124980162
 30
0.0
  0
VERTEX
  5
522
  8
LAYER_1
 10
28.59511992743392
 20
30.87809809007743
 30
0.0
  0
VERTEX
  5
523
  8
LAYER_1
 10
28.6121613165779
 20
30.89127940703677
 30
0.0
  0
VERTEX
  5
524
  8
LAYER_1
 10
28.62941257661123
 20
30.90412591304496
 30
0.0
  0
VERTEX
  5
525
  8
LAYER_1
 10
28.64686441675782
 20
30.91662832046734
 30
0.0
  0
VERTEX
  5
526
  8
LAYER_1
 10
28.66450754624159
 20
30.92877734166922
 30
0.0
  0
VERTEX
  5
527
  8
LAYER_1
 10
28.68233267428646
 20
30.94056368901595
 30
0.0
  0
VERTEX
  5
528
  8
LAYER_1
 10
28.70033051011635
 20
30.95197807487285
 30
0.0
  0
VERTEX
  5
529
  8
LAYER_1
 10
28.71849176295516
 20
30.96301121160525
 30
0.0
  0
VERTEX
  5
52A
  8
LAYER_1
 10
28.73680714202683
 20
30.97365381157848
 30
0.0
  0
VERTEX
  5
52B
  8
LAYER_1
 10
28.75526735655527
 20
30.98389658715787
 30
0.0
  0
VERTEX
  5
52C
  8
LAYER_1
 10
28.77386311576439
 20
30.99373025070874
 30
0.0
  0
VERTEX
  5
52D
  8
LAYER_1
 10
28.79258512887811
 20
31.00314551459643
 30
0.0
  0
VERTEX
  5
52E
  8
LAYER_1
 10
28.81142410512035
 20
31.01213309118627
 30
0.0
  0
VERTEX
  5
52F
  8
LAYER_1
 10
28.83037075371502
 20
31.02068369284358
 30
0.0
  0
VERTEX
  5
530
  8
LAYER_1
 10
28.84941578388606
 20
31.02878803193369
 30
0.0
  0
VERTEX
  5
531
  8
LAYER_1
 10
28.86854990485736
 20
31.03643682082195
 30
0.0
  0
VERTEX
  5
532
  8
LAYER_1
 10
28.88776382585285
 20
31.04362077187366
 30
0.0
  0
VERTEX
  5
533
  8
LAYER_1
 10
28.90704825609645
 20
31.05033059745417
 30
0.0
  0
VERTEX
  5
534
  8
LAYER_1
 10
28.92639390481207
 20
31.0565570099288
 30
0.0
  0
VERTEX
  5
535
  8
LAYER_1
 10
28.94579148122363
 20
31.06229072166288
 30
0.0
  0
VERTEX
  5
536
  8
LAYER_1
 10
28.96523169455504
 20
31.06752244502174
 30
0.0
  0
VERTEX
  5
537
  8
LAYER_1
 10
28.98470525403024
 20
31.07224289237071
 30
0.0
  0
VERTEX
  5
538
  8
LAYER_1
 10
29.00420286887313
 20
31.07644277607512
 30
0.0
  0
VERTEX
  5
539
  8
LAYER_1
 10
29.02371524830762
 20
31.0801128085003
 30
0.0
  0
VERTEX
  5
53A
  8
LAYER_1
 10
29.04323310155765
 20
31.08324370201158
 30
0.0
  0
VERTEX
  5
53B
  8
LAYER_1
 10
29.06274713784712
 20
31.08582616897428
 30
0.0
  0
VERTEX
  5
53C
  8
LAYER_1
 10
29.08224806639995
 20
31.08785092175374
 30
0.0
  0
VERTEX
  5
53D
  8
LAYER_1
 10
29.10172659644006
 20
31.08930867271528
 30
0.0
  0
VERTEX
  5
53E
  8
LAYER_1
 10
29.12117343719136
 20
31.09019013422424
 30
0.0
  0
VERTEX
  5
53F
  8
LAYER_1
 10
29.14057929787779
 20
31.09048601864595
 30
0.0
  0
VERTEX
  5
540
  8
LAYER_1
 10
34.9217792979397
 20
31.090486018602
 30
0.0
  0
VERTEX
  5
541
  8
LAYER_1
 10
34.94011968232201
 20
31.09015167418406
 30
0.0
  0
VERTEX
  5
542
  8
LAYER_1
 10
34.9584396777742
 20
31.08916028012958
 30
0.0
  0
VERTEX
  5
543
  8
LAYER_1
 10
34.97673011506424
 20
31.08752929523718
 30
0.0
  0
VERTEX
  5
544
  8
LAYER_1
 10
34.9949818249601
 20
31.08527617830548
 30
0.0
  0
VERTEX
  5
545
  8
LAYER_1
 10
35.01318563822973
 20
31.08241838813308
 30
0.0
  0
VERTEX
  5
546
  8
LAYER_1
 10
35.03133238564108
 20
31.0789733835186
 30
0.0
  0
VERTEX
  5
547
  8
LAYER_1
 10
35.04941289796212
 20
31.07495862326064
 30
0.0
  0
VERTEX
  5
548
  8
LAYER_1
 10
35.06741800596081
 20
31.07039156615782
 30
0.0
  0
VERTEX
  5
549
  8
LAYER_1
 10
35.0853385404051
 20
31.06528967100876
 30
0.0
  0
VERTEX
  5
54A
  8
LAYER_1
 10
35.10316533206296
 20
31.05967039661207
 30
0.0
  0
VERTEX
  5
54B
  8
LAYER_1
 10
35.12088921170233
 20
31.05355120176635
 30
0.0
  0
VERTEX
  5
54C
  8
LAYER_1
 10
35.1385010100912
 20
31.04694954527022
 30
0.0
  0
VERTEX
  5
54D
  8
LAYER_1
 10
35.1559915579975
 20
31.03988288592229
 30
0.0
  0
VERTEX
  5
54E
  8
LAYER_1
 10
35.17335168618921
 20
31.03236868252118
 30
0.0
  0
VERTEX
  5
54F
  8
LAYER_1
 10
35.19057222543427
 20
31.02442439386549
 30
0.0
  0
VERTEX
  5
550
  8
LAYER_1
 10
35.20764400650064
 20
31.01606747875385
 30
0.0
  0
VERTEX
  5
551
  8
LAYER_1
 10
35.2245578601563
 20
31.00731539598485
 30
0.0
  0
VERTEX
  5
552
  8
LAYER_1
 10
35.24130461716919
 20
30.99818560435712
 30
0.0
  0
VERTEX
  5
553
  8
LAYER_1
 10
35.25787510830727
 20
30.98869556266926
 30
0.0
  0
VERTEX
  5
554
  8
LAYER_1
 10
35.27426016433851
 20
30.97886272971989
 30
0.0
  0
VERTEX
  5
555
  8
LAYER_1
 10
35.29045061603087
 20
30.96870456430763
 30
0.0
  0
VERTEX
  5
556
  8
LAYER_1
 10
35.30643729415229
 20
30.95823852523107
 30
0.0
  0
VERTEX
  5
557
  8
LAYER_1
 10
35.32221102947075
 20
30.94748207128884
 30
0.0
  0
VERTEX
  5
558
  8
LAYER_1
 10
35.33776265275419
 20
30.93645266127955
 30
0.0
  0
VERTEX
  5
559
  8
LAYER_1
 10
35.35308299477057
 20
30.92516775400181
 30
0.0
  0
VERTEX
  5
55A
  8
LAYER_1
 10
35.36816288628788
 20
30.91364480825422
 30
0.0
  0
VERTEX
  5
55B
  8
LAYER_1
 10
35.38299315807404
 20
30.90190128283541
 30
0.0
  0
VERTEX
  5
55C
  8
LAYER_1
 10
35.39756464089703
 20
30.88995463654399
 30
0.0
  0
VERTEX
  5
55D
  8
LAYER_1
 10
35.41186816552481
 20
30.87782232817856
 30
0.0
  0
VERTEX
  5
55E
  8
LAYER_1
 10
35.42589456272532
 20
30.86552181653775
 30
0.0
  0
VERTEX
  5
55F
  8
LAYER_1
 10
35.45307929791641
 20
30.8404860186244
 30
0.0
  0
VERTEX
  5
560
  8
LAYER_1
 10
38.01557929787679
 20
28.40298601866323
 30
0.0
  0
VERTEX
  5
561
  8
LAYER_1
 10
38.03330935117599
 20
28.38658056246091
 30
0.0
  0
VERTEX
  5
562
  8
LAYER_1
 10
38.05153959690733
 20
28.37061012637124
 30
0.0
  0
VERTEX
  5
563
  8
LAYER_1
 10
38.07025052758054
 20
28.3550803363262
 30
0.0
  0
VERTEX
  5
564
  8
LAYER_1
 10
38.0894226357053
 20
28.33999681825773
 30
0.0
  0
VERTEX
  5
565
  8
LAYER_1
 10
38.10903641379133
 20
28.32536519809781
 30
0.0
  0
VERTEX
  5
566
  8
LAYER_1
 10
38.12907235434832
 20
28.31119110177841
 30
0.0
  0
VERTEX
  5
567
  8
LAYER_1
 10
38.14951094988599
 20
28.29748015523149
 30
0.0
  0
VERTEX
  5
568
  8
LAYER_1
 10
38.17033269291404
 20
28.28423798438901
 30
0.0
  0
VERTEX
  5
569
  8
LAYER_1
 10
38.19151807594218
 20
28.27147021518293
 30
0.0
  0
VERTEX
  5
56A
  8
LAYER_1
 10
38.21304759148009
 20
28.25918247354522
 30
0.0
  0
VERTEX
  5
56B
  8
LAYER_1
 10
38.2349017320375
 20
28.24738038540785
 30
0.0
  0
VERTEX
  5
56C
  8
LAYER_1
 10
38.25706099012411
 20
28.23606957670278
 30
0.0
  0
VERTEX
  5
56D
  8
LAYER_1
 10
38.27950585824962
 20
28.22525567336197
 30
0.0
  0
VERTEX
  5
56E
  8
LAYER_1
 10
38.30221682892373
 20
28.2149443013174
 30
0.0
  0
VERTEX
  5
56F
  8
LAYER_1
 10
38.32517439465615
 20
28.20514108650102
 30
0.0
  0
VERTEX
  5
570
  8
LAYER_1
 10
38.34835904795659
 20
28.1958516548448
 30
0.0
  0
VERTEX
  5
571
  8
LAYER_1
 10
38.37175128133475
 20
28.1870816322807
 30
0.0
  0
VERTEX
  5
572
  8
LAYER_1
 10
38.39533158730033
 20
28.17883664474069
 30
0.0
  0
VERTEX
  5
573
  8
LAYER_1
 10
38.41908045836303
 20
28.17112231815674
 30
0.0
  0
VERTEX
  5
574
  8
LAYER_1
 10
38.44297838703258
 20
28.1639442784608
 30
0.0
  0
VERTEX
  5
575
  8
LAYER_1
 10
38.46700586581866
 20
28.15730815158484
 30
0.0
  0
VERTEX
  5
576
  8
LAYER_1
 10
38.49114338723098
 20
28.15121956346084
 30
0.0
  0
VERTEX
  5
577
  8
LAYER_1
 10
38.51537144377924
 20
28.14568414002074
 30
0.0
  0
VERTEX
  5
578
  8
LAYER_1
 10
38.53967052797316
 20
28.14070750719652
 30
0.0
  0
VERTEX
  5
579
  8
LAYER_1
 10
38.56402113232242
 20
28.13629529092015
 30
0.0
  0
VERTEX
  5
57A
  8
LAYER_1
 10
38.58840374933676
 20
28.13245311712357
 30
0.0
  0
VERTEX
  5
57B
  8
LAYER_1
 10
38.61279887152585
 20
28.12918661173877
 30
0.0
  0
VERTEX
  5
57C
  8
LAYER_1
 10
38.63718699139942
 20
28.12650140069771
 30
0.0
  0
VERTEX
  5
57D
  8
LAYER_1
 10
38.66154860146715
 20
28.12440310993235
 30
0.0
  0
VERTEX
  5
57E
  8
LAYER_1
 10
38.68586419423877
 20
28.12289736537464
 30
0.0
  0
VERTEX
  5
57F
  8
LAYER_1
 10
38.71011426222397
 20
28.12198979295657
 30
0.0
  0
VERTEX
  5
580
  8
LAYER_1
 10
38.73427929793245
 20
28.12168601861009
 30
0.0
  0
VERTEX
  5
581
  8
LAYER_1
 10
66.23427929796438
 20
28.12168601857889
 30
0.0
  0
SEQEND
  5
724
  8
LAYER_1
  0
POLYLINE
  5
B6
  8
LAYER_1
 66
     1
 10
0.0
 20
0.0
 30
0.0
 70
     1
  0
VERTEX
  5
582
  8
LAYER_1
 10
37.88867098162049
 20
27.2466860185789
 30
0.0
  0
VERTEX
  5
583
  8
LAYER_1
 10
66.23427929796438
 20
27.24668601857889
 30
0.0
 42
-0.4142135623730951
  0
VERTEX
  5
584
  8
LAYER_1
 10
66.42177929796438
 20
27.05918601857889
 30
0.0
 42
-0.4142135623730951
  0
VERTEX
  5
585
  8
LAYER_1
 10
66.23427929796438
 20
26.87168601857889
 30
0.0
  0
VERTEX
  5
586
  8
LAYER_1
 10
64.82429058608847
 20
26.87170222958986
 30
0.0
  0
VERTEX
  5
587
  8
LAYER_1
 10
64.82427929796438
 20
1.778023012334799
 30
0.0
  0
VERTEX
  5
588
  8
LAYER_1
 10
64.82431738393151
 20
1.777986018578893
 30
0.0
  0
VERTEX
  5
589
  8
LAYER_1
 10
66.23427929796438
 20
1.777986018578893
 30
0.0
 42
-0.4142135623730951
  0
VERTEX
  5
58A
  8
LAYER_1
 10
66.42177929796438
 20
1.590486018578893
 30
0.0
 42
-0.4142135623730951
  0
VERTEX
  5
58B
  8
LAYER_1
 10
66.23427929796438
 20
1.402986018578893
 30
0.0
  0
VERTEX
  5
58C
  8
LAYER_1
 10
46.29677929796437
 20
1.402986018578893
 30
0.0
 42
-0.4142135623730951
  0
VERTEX
  5
58D
  8
LAYER_1
 10
46.10927929796437
 20
1.590486018578893
 30
0.0
 42
-0.4142135623730951
  0
VERTEX
  5
58E
  8
LAYER_1
 10
46.29677929796437
 20
1.777986018578893
 30
0.0
  0
VERTEX
  5
58F
  8
LAYER_1
 10
64.44926826337311
 20
1.777998456930106
 30
0.0
  0
VERTEX
  5
590
  8
LAYER_1
 10
64.44927929796438
 20
26.87172918889252
 30
0.0
  0
VERTEX
  5
591
  8
LAYER_1
 10
64.4492570858946
 20
26.87168601857889
 30
0.0
  0
VERTEX
  5
592
  8
LAYER_1
 10
38.27761324213335
 20
26.8716860185789
 30
0.0
  0
VERTEX
  5
593
  8
LAYER_1
 10
38.27757699243687
 20
26.87166462322993
 30
0.0
  0
VERTEX
  5
594
  8
LAYER_1
 10
38.36686181943684
 20
26.78556854005137
 30
0.0
  0
VERTEX
  5
595
  8
LAYER_1
 10
38.36692716531066
 20
26.78550316195469
 30
0.0
 42
-0.1987842463420967
  0
VERTEX
  5
596
  8
LAYER_1
 10
38.42177929796437
 20
26.6529860185789
 30
0.0
 42
-0.4142135623730951
  0
VERTEX
  5
597
  8
LAYER_1
 10
38.23427929796437
 20
26.4654860185789
 30
0.0
 42
-0.1988105270647042
  0
VERTEX
  5
598
  8
LAYER_1
 10
38.10174874107113
 20
26.52035155288627
 30
0.0
  0
VERTEX
  5
599
  8
LAYER_1
 10
38.1016967764919
 20
26.52040349710641
 30
0.0
  0
VERTEX
  5
59A
  8
LAYER_1
 10
34.65867341730378
 20
29.84046173632355
 30
0.0
  0
VERTEX
  5
59B
  8
LAYER_1
 10
34.65863207090575
 20
29.8404860185789
 30
0.0
  0
VERTEX
  5
59C
  8
LAYER_1
 10
30.04677929796437
 20
29.8404860185789
 30
0.0
 42
-0.4142135623730951
  0
VERTEX
  5
59D
  8
LAYER_1
 10
29.85927929796437
 20
30.0279860185789
 30
0.0
 42
-0.4142135623730951
  0
VERTEX
  5
59E
  8
LAYER_1
 10
30.04677929796437
 20
30.2154860185789
 30
0.0
  0
VERTEX
  5
59F
  8
LAYER_1
 10
34.73427929796437
 20
30.2154860185789
 30
0.0
 42
-0.1987924590334218
  0
VERTEX
  5
5A0
  8
LAYER_1
 10
34.86680063320994
 20
30.16062969805415
 30
0.0
  0
VERTEX
  5
5A1
  8
LAYER_1
 10
34.86686181943684
 20
30.16056854005137
 30
0.0
  0
VERTEX
  5
5A2
  8
LAYER_1
 10
37.88862688664144
 20
27.24672365381836
 30
0.0
  0
SEQEND
  5
725
  8
LAYER_1
  0
POLYLINE
  5
B7
  8
LAYER_1
 66
     1
 10
0.0
 20
0.0
 30
0.0
 70
     1
  0
VERTEX
  5
5A3
  8
LAYER_1
 10
28.82525234856185
 20
23.691725995542
 30
0.0
  0
VERTEX
  5
5A4
  8
LAYER_1
 10
43.77936661392823
 20
15.05606963345009
 30
0.0
  0
VERTEX
  5
5A5
  8
LAYER_1
 10
43.781832750146
 20
15.05479012808487
 30
0.0
 42
-0.240351087668759
  0
VERTEX
  5
5A6
  8
LAYER_1
 10
43.85927929796437
 20
14.90298601857889
 30
0.0
 42
-0.4142135623730951
  0
VERTEX
  5
5A7
  8
LAYER_1
 10
43.67177929796437
 20
14.71548601857889
 30
0.0
 42
-0.1457763859209424
  0
VERTEX
  5
5A8
  8
LAYER_1
 10
43.56912344641818
 20
14.74612797993766
 30
0.0
  0
VERTEX
  5
5A9
  8
LAYER_1
 10
28.63404682349331
 20
23.36934968893917
 30
0.0
  0
VERTEX
  5
5AA
  8
LAYER_1
 10
28.63352440566151
 20
23.36985726826119
 30
0.0
 42
-0.2562724192425194
  0
VERTEX
  5
5AB
  8
LAYER_1
 10
28.54677929796437
 20
23.5279860185789
 30
0.0
 42
-0.4142135623730951
  0
VERTEX
  5
5AC
  8
LAYER_1
 10
28.73427929796437
 20
23.7154860185789
 30
0.0
 42
-0.1261083030764341
  0
VERTEX
  5
5AD
  8
LAYER_1
 10
28.82446505874798
 20
23.69237208414371
 30
0.0
  0
SEQEND
  5
726
  8
LAYER_1
  0
POLYLINE
  5
B8
  8
LAYER_1
 66
     1
 10
0.0
 20
0.0
 30
0.0
 70
     1
  0
VERTEX
  5
5AE
  8
LAYER_1
 10
13.51819951576092
 20
6.1529860185789
 30
0.0
  0
VERTEX
  5
5AF
  8
LAYER_1
 10
18.68020529844535
 20
6.1529860185789
 30
0.0
  0
VERTEX
  5
5B0
  8
LAYER_1
 10
18.68024623234876
 20
6.153004872518558
 30
0.0
  0
VERTEX
  5
5B1
  8
LAYER_1
 10
19.41561701778055
 20
7.434198380467421
 30
0.0
  0
VERTEX
  5
5B2
  8
LAYER_1
 10
19.41577155476495
 20
7.434360650389152
 30
0.0
 42
-0.2677434975691548
  0
VERTEX
  5
5B3
  8
LAYER_1
 10
19.57807929796437
 20
7.5279860185789
 30
0.0
 42
-0.4142135623730951
  0
VERTEX
  5
5B4
  8
LAYER_1
 10
19.76557929796437
 20
7.3404860185789
 30
0.0
 42
-0.1304893815669896
  0
VERTEX
  5
5B5
  8
LAYER_1
 10
19.74088616297475
 20
7.247479703172402
 30
0.0
  0
VERTEX
  5
5B6
  8
LAYER_1
 10
19.73981317554043
 20
7.245683322895353
 30
0.0
  0
VERTEX
  5
5B7
  8
LAYER_1
 10
18.77228457603589
 20
5.56078008315523
 30
0.0
 42
-0.2695546901740183
  0
VERTEX
  5
5B8
  8
LAYER_1
 10
18.60927929796437
 20
5.4654860185789
 30
0.0
 42
-0.4142135623730951
  0
VERTEX
  5
5B9
  8
LAYER_1
 10
18.42177929796437
 20
5.6529860185789
 30
0.0
 42
-0.13602653684768
  0
VERTEX
  5
5BA
  8
LAYER_1
 10
18.44853483854532
 20
5.749513055030249
 30
0.0
  0
VERTEX
  5
5BB
  8
LAYER_1
 10
18.45019295280695
 20
5.752196499286526
 30
0.0
  0
VERTEX
  5
5BC
  8
LAYER_1
 10
18.46497792613891
 20
5.777970371928944
 30
0.0
  0
VERTEX
  5
5BD
  8
LAYER_1
 10
13.51557929796437
 20
5.7779860185789
 30
0.0
 42
-0.4142135623730951
  0
VERTEX
  5
5BE
  8
LAYER_1
 10
13.32807929796437
 20
5.9654860185789
 30
0.0
 42
-0.4142135623730951
  0
VERTEX
  5
5BF
  8
LAYER_1
 10
13.51557929796437
 20
6.1529860185789
 30
0.0
  0
SEQEND
  5
727
  8
LAYER_1
  0
POLYLINE
  5
B9
  8
LAYER_1
 66
     1
 10
0.0
 20
0.0
 30
0.0
 70
     1
  0
VERTEX
  5
5C0
  8
LAYER_1
 10
11.82308315334156
 20
1.494911403633985
 30
0.0
  0
VERTEX
  5
5C1
  8
LAYER_1
 10
3.072101947700865
 20
16.15256093320101
 30
0.0
 42
-0.1316549679115833
  0
VERTEX
  5
5C2
  8
LAYER_1
 10
3.04677929796437
 20
16.24668601857891
 30
0.0
 42
-0.0676881934449577
  0
VERTEX
  5
5C3
  8
LAYER_1
 10
3.053589289734639
 20
16.29675967358768
 30
0.0
  0
VERTEX
  5
5C4
  8
LAYER_1
 10
3.056278613273257
 20
16.30085387464333
 30
0.0
  0
VERTEX
  5
5C5
  8
LAYER_1
 10
4.267294327086795
 20
22.04583613442057
 30
0.0
 42
-0.3591539208933515
  0
VERTEX
  5
5C6
  8
LAYER_1
 10
4.453079297964386
 20
22.2154860185789
 30
0.0
 42
-0.4142135623730951
  0
VERTEX
  5
5C7
  8
LAYER_1
 10
4.640579297964386
 20
22.0279860185789
 30
0.0
 42
-0.0439689055028252
  0
VERTEX
  5
5C8
  8
LAYER_1
 10
4.637690581095221
 20
21.99519998282002
 30
0.0
  0
VERTEX
  5
5C9
  8
LAYER_1
 10
4.637624193384021
 20
21.99430773713658
 30
0.0
  0
VERTEX
  5
5CA
  8
LAYER_1
 10
3.434443946300256
 20
16.27649701586491
 30
0.0
  0
VERTEX
  5
5CB
  8
LAYER_1
 10
3.434456536930689
 20
16.27643500593049
 30
0.0
  0
VERTEX
  5
5CC
  8
LAYER_1
 10
12.08406443011963
 20
1.778043217036242
 30
0.0
  0
VERTEX
  5
5CD
  8
LAYER_1
 10
12.08412967497112
 20
1.7779860185789
 30
0.0
  0
VERTEX
  5
5CE
  8
LAYER_1
 10
15.17177929796437
 20
1.7779860185789
 30
0.0
 42
-0.4142135623730951
  0
VERTEX
  5
5CF
  8
LAYER_1
 10
15.35927929796437
 20
1.5904860185789
 30
0.0
 42
-0.4142135623730951
  0
VERTEX
  5
5D0
  8
LAYER_1
 10
15.17177929796437
 20
1.4029860185789
 30
0.0
  0
VERTEX
  5
5D1
  8
LAYER_1
 10
11.98427929796437
 20
1.4029860185789
 30
0.0
 42
-0.2633139310955953
  0
VERTEX
  5
5D2
  8
LAYER_1
 10
11.82354746119989
 20
1.493937964997713
 30
0.0
  0
SEQEND
  5
728
  8
LAYER_1
  0
POLYLINE
  5
BA
  8
LAYER_1
 66
     1
 10
0.0
 20
0.0
 30
0.0
 70
     1
  0
VERTEX
  5
5D3
  8
LAYER_1
 10
10.61179667346216
 20
22.09111100267774
 30
0.0
  0
VERTEX
  5
5D4
  8
LAYER_1
 10
11.1785062066565
 20
18.32509123360342
 30
0.0
 42
0.3674247307283809
  0
VERTEX
  5
5D5
  8
LAYER_1
 10
11.35927929796437
 20
18.1841860185789
 30
0.0
 42
0.4142135623730951
  0
VERTEX
  5
5D6
  8
LAYER_1
 10
11.54677929796437
 20
18.3716860185789
 30
0.0
  0
VERTEX
  5
5D7
  8
LAYER_1
 10
11.5463002847377
 20
18.38248895487733
 30
0.0
  0
VERTEX
  5
5D8
  8
LAYER_1
 10
11.54508605789941
 20
18.39325354292598
 30
0.0
  0
VERTEX
  5
5D9
  8
LAYER_1
 10
11.54178884043844
 20
18.41470157361639
 30
0.0
  0
VERTEX
  5
5DA
  8
LAYER_1
 10
10.98213065871706
 20
22.15001078031127
 30
0.0
 42
0.3703410000485992
  0
VERTEX
  5
5DB
  8
LAYER_1
 10
10.79677929796437
 20
22.3091860185789
 30
0.0
 42
0.4142135623730951
  0
VERTEX
  5
5DC
  8
LAYER_1
 10
10.60927929796437
 20
22.1216860185789
 30
0.0
 42
0.040820790688983
  0
SEQEND
  5
729
  8
LAYER_1
  0
POLYLINE
  5
BB
  8
LAYER_1
 66
     1
 10
0.0
 20
0.0
 30
0.0
 70
     1
  0
VERTEX
  5
5DD
  8
LAYER_1
 10
29.48427929796437
 20
29.18468601857889
 30
0.0
 42
-0.4142135623730951
  0
VERTEX
  5
5DE
  8
LAYER_1
 10
29.60977929796439
 20
29.0591860185789
 30
0.0
 42
-0.4142135623730951
  0
VERTEX
  5
5DF
  8
LAYER_1
 10
29.48427929796437
 20
28.9336860185789
 30
0.0
 42
-0.4142135623730951
  0
VERTEX
  5
5E0
  8
LAYER_1
 10
29.35877929796438
 20
29.0591860185789
 30
0.0
 42
-0.4142135623730951
  0
SEQEND
  5
72A
  8
LAYER_1
  0
POLYLINE
  5
BC
  8
LAYER_1
 66
     1
 10
0.0
 20
0.0
 30
0.0
 70
     1
  0
VERTEX
  5
5E1
  8
LAYER_1
 10
28.92177929796437
 20
25.74718601857889
 30
0.0
 42
-0.4142135623730951
  0
VERTEX
  5
5E2
  8
LAYER_1
 10
29.04727929796439
 20
25.6216860185789
 30
0.0
 42
-0.4142135623730951
  0
VERTEX
  5
5E3
  8
LAYER_1
 10
28.92177929796437
 20
25.4961860185789
 30
0.0
 42
-0.4142135623730951
  0
VERTEX
  5
5E4
  8
LAYER_1
 10
28.79627929796438
 20
25.6216860185789
 30
0.0
 42
-0.4142135623730951
  0
SEQEND
  5
72B
  8
LAYER_1
  0
POLYLINE
  5
BD
  8
LAYER_1
 66
     1
 10
0.0
 20
0.0
 30
0.0
 70
     1
  0
VERTEX
  5
5E5
  8
LAYER_1
 10
67.86820308419914
 20
1.286404146318411
 30
0.0
  0
VERTEX
  5
5E6
  8
LAYER_1
 10
91.36820308419914
 20
1.286404146318411
 30
0.0
  0
VERTEX
  5
5E7
  8
LAYER_1
 10
91.36820308419914
 20
29.34890414631841
 30
0.0
  0
VERTEX
  5
5E8
  8
LAYER_1
 10
67.86820308419914
 20
29.34890414631841
 30
0.0
  0
SEQEND
  5
72C
  8
LAYER_1
  0
POLYLINE
  5
BE
  8
LAYER_1
 66
     1
 10
0.0
 20
0.0
 30
0.0
 70
     1
  0
VERTEX
  5
5E9
  8
LAYER_1
 10
67.74320308419914
 20
1.161404146318411
 30
0.0
  0
VERTEX
  5
5EA
  8
LAYER_1
 10
68.11820308419914
 20
1.161404146318411
 30
0.0
  0
VERTEX
  5
5EB
  8
LAYER_1
 10
68.11820308419914
 20
29.47390414631841
 30
0.0
  0
VERTEX
  5
5EC
  8
LAYER_1
 10
67.74320308419914
 20
29.47390414631841
 30
0.0
  0
SEQEND
  5
72D
  8
LAYER_1
  0
POLYLINE
  5
BF
  8
LAYER_1
 66
     1
 10
0.0
 20
0.0
 30
0.0
 70
     1
  0
VERTEX
  5
5ED
  8
LAYER_1
 10
91.11820308419914
 20
1.161404146318411
 30
0.0
  0
VERTEX
  5
5EE
  8
LAYER_1
 10
91.49320308419914
 20
1.161404146318411
 30
0.0
  0
VERTEX
  5
5EF
  8
LAYER_1
 10
91.49320308419914
 20
29.47390414631841
 30
0.0
  0
VERTEX
  5
5F0
  8
LAYER_1
 10
91.11820308419914
 20
29.47390414631841
 30
0.0
  0
SEQEND
  5
72E
  8
LAYER_1
  0
POLYLINE
  5
C0
  8
LAYER_1
 66
     1
 10
0.0
 20
0.0
 30
0.0
 70
     1
  0
VERTEX
  5
5F1
  8
LAYER_1
 10
76.02565308419912
 20
9.411454146318412
 30
0.0
 42
0.4142135623730951
  0
VERTEX
  5
5F2
  8
LAYER_1
 10
77.02565308419912
 20
8.411454146318412
 30
0.0
  0
VERTEX
  5
5F3
  8
LAYER_1
 10
82.21315308419912
 20
8.411454146318412
 30
0.0
 42
0.4142135623730951
  0
VERTEX
  5
5F4
  8
LAYER_1
 10
83.21315308419912
 20
9.411454146318412
 30
0.0
  0
VERTEX
  5
5F5
  8
LAYER_1
 10
83.21315308419912
 20
27.25515414631841
 30
0.0
 42
0.4142135623730951
  0
VERTEX
  5
5F6
  8
LAYER_1
 10
82.21315308419912
 20
28.25515414631841
 30
0.0
  0
VERTEX
  5
5F7
  8
LAYER_1
 10
77.02565308419912
 20
28.25515414631841
 30
0.0
 42
0.4142135623730951
  0
VERTEX
  5
5F8
  8
LAYER_1
 10
76.02565308419912
 20
27.25515414631841
 30
0.0
  0
SEQEND
  5
72F
  8
LAYER_1
  0
POLYLINE
  5
C1
  8
LAYER_1
 66
     1
 10
0.0
 20
0.0
 30
0.0
 70
     1
  0
VERTEX
  5
5F9
  8
LAYER_1
 10
42.55774597712334
 20
29.43152737737665
 30
0.0
  0
VERTEX
  5
5FA
  8
LAYER_1
 10
66.05774597712335
 20
29.43152737737665
 30
0.0
  0
VERTEX
  5
5FB
  8
LAYER_1
 10
66.05774597712335
 20
46.77522737737664
 30
0.0
  0
VERTEX
  5
5FC
  8
LAYER_1
 10
42.55774597712334
 20
46.77522737737664
 30
0.0
  0
SEQEND
  5
730
  8
LAYER_1
  0
POLYLINE
  5
C2
  8
LAYER_1
 66
     1
 10
0.0
 20
0.0
 30
0.0
 70
     1
  0
VERTEX
  5
5FD
  8
LAYER_1
 10
42.43274597712334
 20
29.30652737737665
 30
0.0
  0
VERTEX
  5
5FE
  8
LAYER_1
 10
42.80774597712334
 20
29.30652737737665
 30
0.0
  0
VERTEX
  5
5FF
  8
LAYER_1
 10
42.80774597712334
 20
46.90022737737664
 30
0.0
  0
VERTEX
  5
600
  8
LAYER_1
 10
42.43274597712334
 20
46.90022737737664
 30
0.0
  0
SEQEND
  5
731
  8
LAYER_1
  0
POLYLINE
  5
C3
  8
LAYER_1
 66
     1
 10
0.0
 20
0.0
 30
0.0
 70
     1
  0
VERTEX
  5
601
  8
LAYER_1
 10
65.80774597712335
 20
29.30652737737665
 30
0.0
  0
VERTEX
  5
602
  8
LAYER_1
 10
66.18274597712335
 20
29.30652737737665
 30
0.0
  0
VERTEX
  5
603
  8
LAYER_1
 10
66.18274597712335
 20
46.90022737737664
 30
0.0
  0
VERTEX
  5
604
  8
LAYER_1
 10
65.80774597712335
 20
46.90022737737664
 30
0.0
  0
SEQEND
  5
732
  8
LAYER_1
  0
POLYLINE
  5
C4
  8
LAYER_1
 66
     1
 10
0.0
 20
0.0
 30
0.0
 70
     1
  0
VERTEX
  5
605
  8
LAYER_1
 10
46.46394597712335
 20
32.61952737737665
 30
0.0
 42
0.4142135623730951
  0
VERTEX
  5
606
  8
LAYER_1
 10
46.33844597712334
 20
32.49402737737665
 30
0.0
 42
0.4142135623730951
  0
VERTEX
  5
607
  8
LAYER_1
 10
46.46394597712335
 20
32.36852737737664
 30
0.0
 42
0.4142135623730951
  0
VERTEX
  5
608
  8
LAYER_1
 10
46.58944597712334
 20
32.49402737737665
 30
0.0
 42
0.4142135623730951
  0
SEQEND
  5
733
  8
LAYER_1
  0
POLYLINE
  5
C5
  8
LAYER_1
 66
     1
 10
0.0
 20
0.0
 30
0.0
 70
     1
  0
VERTEX
  5
609
  8
LAYER_1
 10
46.46394597712335
 20
40.61952737737665
 30
0.0
 42
0.4142135623730951
  0
VERTEX
  5
60A
  8
LAYER_1
 10
46.33844597712334
 20
40.49402737737665
 30
0.0
 42
0.4142135623730951
  0
VERTEX
  5
60B
  8
LAYER_1
 10
46.46394597712335
 20
40.36852737737664
 30
0.0
 42
0.4142135623730951
  0
VERTEX
  5
60C
  8
LAYER_1
 10
46.58944597712334
 20
40.49402737737665
 30
0.0
 42
0.4142135623730951
  0
SEQEND
  5
734
  8
LAYER_1
  0
POLYLINE
  5
C6
  8
LAYER_1
 66
     1
 10
0.0
 20
0.0
 30
0.0
 70
     1
  0
VERTEX
  5
60D
  8
LAYER_1
 10
62.24524597712334
 20
40.61952737737665
 30
0.0
 42
0.4142135623730951
  0
VERTEX
  5
60E
  8
LAYER_1
 10
62.11974597712335
 20
40.49402737737665
 30
0.0
 42
0.4142135623730951
  0
VERTEX
  5
60F
  8
LAYER_1
 10
62.24524597712334
 20
40.36852737737664
 30
0.0
 42
0.4142135623730951
  0
VERTEX
  5
610
  8
LAYER_1
 10
62.37074597712336
 20
40.49402737737665
 30
0.0
 42
0.4142135623730951
  0
SEQEND
  5
735
  8
LAYER_1
  0
POLYLINE
  5
C7
  8
LAYER_1
 66
     1
 10
0.0
 20
0.0
 30
0.0
 70
     1
  0
VERTEX
  5
611
  8
LAYER_1
 10
62.24524597712334
 20
32.61952737737665
 30
0.0
 42
0.4142135623730951
  0
VERTEX
  5
612
  8
LAYER_1
 10
62.11974597712335
 20
32.49402737737665
 30
0.0
 42
0.4142135623730951
  0
VERTEX
  5
613
  8
LAYER_1
 10
62.24524597712334
 20
32.36852737737664
 30
0.0
 42
0.4142135623730951
  0
VERTEX
  5
614
  8
LAYER_1
 10
62.37074597712336
 20
32.49402737737665
 30
0.0
 42
0.4142135623730951
  0
SEQEND
  5
736
  8
LAYER_1
  0
POLYLINE
  5
C8
  8
LAYER_1
 66
     1
 10
0.0
 20
0.0
 30
0.0
 70
     1
  0
VERTEX
  5
615
  8
LAYER_1
 10
2.288240654643694
 20
24.38465477249249
 30
0.0
  0
VERTEX
  5
616
  8
LAYER_1
 10
25.78824065464369
 20
24.38465477249249
 30
0.0
  0
VERTEX
  5
617
  8
LAYER_1
 10
25.78824065464369
 20
27.60335477249249
 30
0.0
  0
VERTEX
  5
618
  8
LAYER_1
 10
2.288240654643694
 20
27.60335477249249
 30
0.0
  0
SEQEND
  5
737
  8
LAYER_1
  0
POLYLINE
  5
C9
  8
LAYER_1
 66
     1
 10
0.0
 20
0.0
 30
0.0
 70
     1
  0
VERTEX
  5
619
  8
LAYER_1
 10
2.163240654643694
 20
24.25965477249249
 30
0.0
  0
VERTEX
  5
61A
  8
LAYER_1
 10
2.538240654643694
 20
24.25965477249249
 30
0.0
  0
VERTEX
  5
61B
  8
LAYER_1
 10
2.538240654643694
 20
27.70965477249249
 30
0.0
  0
VERTEX
  5
61C
  8
LAYER_1
 10
2.163240654643694
 20
27.70965477249249
 30
0.0
  0
SEQEND
  5
738
  8
LAYER_1
  0
POLYLINE
  5
CA
  8
LAYER_1
 66
     1
 10
0.0
 20
0.0
 30
0.0
 70
     1
  0
VERTEX
  5
61D
  8
LAYER_1
 10
25.53824065464369
 20
24.25965477249249
 30
0.0
  0
VERTEX
  5
61E
  8
LAYER_1
 10
25.91324065464369
 20
24.25965477249249
 30
0.0
  0
VERTEX
  5
61F
  8
LAYER_1
 10
25.91324065464369
 20
27.70965477249249
 30
0.0
  0
VERTEX
  5
620
  8
LAYER_1
 10
25.53824065464369
 20
27.70965477249249
 30
0.0
  0
SEQEND
  5
739
  8
LAYER_1
  0
POLYLINE
  5
CB
  8
LAYER_1
 66
     1
 10
0.0
 20
0.0
 30
0.0
 70
     1
  0
VERTEX
  5
621
  8
LAYER_1
 10
23.47574065464369
 20
26.01015477249249
 30
0.0
 42
0.4142135623730951
  0
VERTEX
  5
622
  8
LAYER_1
 10
23.35024065464369
 20
25.88465477249249
 30
0.0
 42
0.4142135623730951
  0
VERTEX
  5
623
  8
LAYER_1
 10
23.47574065464369
 20
25.75915477249249
 30
0.0
 42
0.4142135623730951
  0
VERTEX
  5
624
  8
LAYER_1
 10
23.6012406546437
 20
25.88465477249249
 30
0.0
 42
0.4142135623730951
  0
SEQEND
  5
73A
  8
LAYER_1
  0
POLYLINE
  5
CC
  8
LAYER_1
 66
     1
 10
0.0
 20
0.0
 30
0.0
 70
     1
  0
VERTEX
  5
625
  8
LAYER_1
 10
24.66324065464369
 20
26.01015477249249
 30
0.0
 42
0.4142135623730951
  0
VERTEX
  5
626
  8
LAYER_1
 10
24.53774065464369
 20
25.88465477249249
 30
0.0
 42
0.4142135623730951
  0
VERTEX
  5
627
  8
LAYER_1
 10
24.66324065464369
 20
25.75915477249249
 30
0.0
 42
0.4142135623730951
  0
VERTEX
  5
628
  8
LAYER_1
 10
24.7887406546437
 20
25.88465477249249
 30
0.0
 42
0.4142135623730951
  0
SEQEND
  5
73B
  8
LAYER_1
  0
POLYLINE
  5
CD
  8
LAYER_1
 66
     1
 10
0.0
 20
0.0
 30
0.0
 70
     1
  0
VERTEX
  5
629
  8
LAYER_1
 10
3.381940654643692
 20
26.01015477249249
 30
0.0
 42
0.4142135623730951
  0
VERTEX
  5
62A
  8
LAYER_1
 10
3.25644065464369
 20
25.88465477249249
 30
0.0
 42
0.4142135623730951
  0
VERTEX
  5
62B
  8
LAYER_1
 10
3.381940654643692
 20
25.75915477249249
 30
0.0
 42
0.4142135623730951
  0
VERTEX
  5
62C
  8
LAYER_1
 10
3.507440654643695
 20
25.88465477249249
 30
0.0
 42
0.4142135623730951
  0
SEQEND
  5
73C
  8
LAYER_1
  0
POLYLINE
  5
CE
  8
LAYER_1
 66
     1
 10
0.0
 20
0.0
 30
0.0
 70
     1
  0
VERTEX
  5
62D
  8
LAYER_1
 10
4.538240654643694
 20
26.01015477249249
 30
0.0
 42
0.4142135623730951
  0
VERTEX
  5
62E
  8
LAYER_1
 10
4.412740654643692
 20
25.88465477249249
 30
0.0
 42
0.4142135623730951
  0
VERTEX
  5
62F
  8
LAYER_1
 10
4.538240654643694
 20
25.75915477249249
 30
0.0
 42
0.4142135623730951
  0
VERTEX
  5
630
  8
LAYER_1
 10
4.663740654643696
 20
25.88465477249249
 30
0.0
 42
0.4142135623730951
  0
SEQEND
  5
73D
  8
LAYER_1
  0
POLYLINE
  5
CF
  8
LAYER_1
 66
     1
 10
0.0
 20
0.0
 30
0.0
 70
     1
  0
VERTEX
  5
631
  8
LAYER_1
 10
2.288240654643694
 20
29.29154268733281
 30
0.0
  0
VERTEX
  5
632
  8
LAYER_1
 10
25.78824065464369
 20
29.29154268733281
 30
0.0
  0
VERTEX
  5
633
  8
LAYER_1
 10
25.78824065464369
 20
34.29154268733281
 30
0.0
  0
VERTEX
  5
634
  8
LAYER_1
 10
2.288240654643694
 20
34.29154268733281
 30
0.0
  0
SEQEND
  5
73E
  8
LAYER_1
  0
POLYLINE
  5
D0
  8
LAYER_1
 66
     1
 10
0.0
 20
0.0
 30
0.0
 70
     1
  0
VERTEX
  5
635
  8
LAYER_1
 10
2.163240654643694
 20
29.16654268733281
 30
0.0
  0
VERTEX
  5
636
  8
LAYER_1
 10
2.538240654643694
 20
29.16654268733281
 30
0.0
  0
VERTEX
  5
637
  8
LAYER_1
 10
2.538240654643694
 20
34.41654268733281
 30
0.0
  0
VERTEX
  5
638
  8
LAYER_1
 10
2.163240654643694
 20
34.41654268733281
 30
0.0
  0
SEQEND
  5
73F
  8
LAYER_1
  0
POLYLINE
  5
D1
  8
LAYER_1
 66
     1
 10
0.0
 20
0.0
 30
0.0
 70
     1
  0
VERTEX
  5
639
  8
LAYER_1
 10
25.53824065464369
 20
29.16654268733281
 30
0.0
  0
VERTEX
  5
63A
  8
LAYER_1
 10
25.91324065464369
 20
29.16654268733281
 30
0.0
  0
VERTEX
  5
63B
  8
LAYER_1
 10
25.91324065464369
 20
34.41654268733281
 30
0.0
  0
VERTEX
  5
63C
  8
LAYER_1
 10
25.53824065464369
 20
34.41654268733281
 30
0.0
  0
SEQEND
  5
740
  8
LAYER_1
  0
POLYLINE
  5
D2
  8
LAYER_1
 66
     1
 10
0.0
 20
0.0
 30
0.0
 70
     1
  0
VERTEX
  5
63D
  8
LAYER_1
 10
2.288240654643694
 20
36.04520580567971
 30
0.0
  0
VERTEX
  5
63E
  8
LAYER_1
 10
25.78824065464369
 20
36.04520580567971
 30
0.0
  0
VERTEX
  5
63F
  8
LAYER_1
 10
25.78824065464369
 20
41.04520580567971
 30
0.0
  0
VERTEX
  5
640
  8
LAYER_1
 10
2.288240654643694
 20
41.04520580567971
 30
0.0
  0
SEQEND
  5
741
  8
LAYER_1
  0
POLYLINE
  5
D3
  8
LAYER_1
 66
     1
 10
0.0
 20
0.0
 30
0.0
 70
     1
  0
VERTEX
  5
641
  8
LAYER_1
 10
2.163240654643694
 20
35.92020580567971
 30
0.0
  0
VERTEX
  5
642
  8
LAYER_1
 10
2.538240654643694
 20
35.92020580567971
 30
0.0
  0
VERTEX
  5
643
  8
LAYER_1
 10
2.538240654643694
 20
41.17020580567971
 30
0.0
  0
VERTEX
  5
644
  8
LAYER_1
 10
2.163240654643694
 20
41.17020580567971
 30
0.0
  0
SEQEND
  5
742
  8
LAYER_1
  0
POLYLINE
  5
D4
  8
LAYER_1
 66
     1
 10
0.0
 20
0.0
 30
0.0
 70
     1
  0
VERTEX
  5
645
  8
LAYER_1
 10
25.53824065464369
 20
35.92020580567971
 30
0.0
  0
VERTEX
  5
646
  8
LAYER_1
 10
25.91324065464369
 20
35.92020580567971
 30
0.0
  0
VERTEX
  5
647
  8
LAYER_1
 10
25.91324065464369
 20
41.17020580567971
 30
0.0
  0
VERTEX
  5
648
  8
LAYER_1
 10
25.53824065464369
 20
41.17020580567971
 30
0.0
  0
SEQEND
  5
743
  8
LAYER_1
  0
POLYLINE
  5
D5
  8
LAYER_1
 66
     1
 10
0.0
 20
0.0
 30
0.0
 70
     1
  0
VERTEX
  5
649
  8
LAYER_1
 10
32.60645057950281
 20
32.21724713316876
 30
0.0
  0
VERTEX
  5
64A
  8
LAYER_1
 10
41.29395057950281
 20
32.21724713316876
 30
0.0
  0
VERTEX
  5
64B
  8
LAYER_1
 10
41.29395057950281
 20
41.71724713316876
 30
0.0
  0
VERTEX
  5
64C
  8
LAYER_1
 10
32.60645057950281
 20
41.71724713316876
 30
0.0
  0
SEQEND
  5
744
  8
LAYER_1
  0
POLYLINE
  5
D6
  8
LAYER_1
 66
     1
 10
0.0
 20
0.0
 30
0.0
 70
     1
  0
VERTEX
  5
64D
  8
LAYER_1
 10
88.6583956327276
 20
30.6683507649784
 30
0.0
  0
VERTEX
  5
64E
  8
LAYER_1
 10
78.7833956327276
 20
30.6683507649784
 30
0.0
  0
VERTEX
  5
64F
  8
LAYER_1
 10
78.7833956327276
 20
46.0433507649784
 30
0.0
  0
VERTEX
  5
650
  8
LAYER_1
 10
88.6583956327276
 20
46.0433507649784
 30
0.0
  0
SEQEND
  5
745
  8
LAYER_1
  0
POLYLINE
  5
D7
  8
LAYER_1
 66
     1
 10
0.0
 20
0.0
 30
0.0
 70
     1
  0
VERTEX
  5
651
  8
LAYER_1
 10
88.7833956327276
 20
30.5433507649784
 30
0.0
  0
VERTEX
  5
652
  8
LAYER_1
 10
88.4083956327276
 20
30.5433507649784
 30
0.0
  0
VERTEX
  5
653
  8
LAYER_1
 10
88.4083956327276
 20
46.1683507649784
 30
0.0
  0
VERTEX
  5
654
  8
LAYER_1
 10
88.7833956327276
 20
46.1683507649784
 30
0.0
  0
SEQEND
  5
746
  8
LAYER_1
  0
POLYLINE
  5
D8
  8
LAYER_1
 66
     1
 10
0.0
 20
0.0
 30
0.0
 70
     1
  0
VERTEX
  5
655
  8
LAYER_1
 10
88.7833956327276
 20
36.6683507649784
 30
0.0
  0
VERTEX
  5
656
  8
LAYER_1
 10
78.6583956327276
 20
36.6683507649784
 30
0.0
  0
VERTEX
  5
657
  8
LAYER_1
 10
78.6583956327276
 20
37.0433507649784
 30
0.0
  0
VERTEX
  5
658
  8
LAYER_1
 10
88.7833956327276
 20
37.0433507649784
 30
0.0
  0
SEQEND
  5
747
  8
LAYER_1
  0
POLYLINE
  5
D9
  8
LAYER_1
 66
     1
 10
0.0
 20
0.0
 30
0.0
 70
     1
  0
VERTEX
  5
659
  8
LAYER_1
 10
67.80080327205135
 20
30.6683507649784
 30
0.0
  0
VERTEX
  5
65A
  8
LAYER_1
 10
77.67580327205135
 20
30.6683507649784
 30
0.0
  0
VERTEX
  5
65B
  8
LAYER_1
 10
77.67580327205135
 20
46.0433507649784
 30
0.0
  0
VERTEX
  5
65C
  8
LAYER_1
 10
67.80080327205135
 20
46.0433507649784
 30
0.0
  0
SEQEND
  5
748
  8
LAYER_1
  0
POLYLINE
  5
DA
  8
LAYER_1
 66
     1
 10
0.0
 20
0.0
 30
0.0
 70
     1
  0
VERTEX
  5
65D
  8
LAYER_1
 10
67.67580327205135
 20
30.5433507649784
 30
0.0
  0
VERTEX
  5
65E
  8
LAYER_1
 10
68.05080327205135
 20
30.5433507649784
 30
0.0
  0
VERTEX
  5
65F
  8
LAYER_1
 10
68.05080327205135
 20
46.1683507649784
 30
0.0
  0
VERTEX
  5
660
  8
LAYER_1
 10
67.67580327205135
 20
46.1683507649784
 30
0.0
  0
SEQEND
  5
749
  8
LAYER_1
  0
POLYLINE
  5
DB
  8
LAYER_1
 66
     1
 10
0.0
 20
0.0
 30
0.0
 70
     1
  0
VERTEX
  5
661
  8
LAYER_1
 10
67.67580327205135
 20
36.6683507649784
 30
0.0
  0
VERTEX
  5
662
  8
LAYER_1
 10
77.80080327205135
 20
36.6683507649784
 30
0.0
  0
VERTEX
  5
663
  8
LAYER_1
 10
77.80080327205135
 20
37.0433507649784
 30
0.0
  0
VERTEX
  5
664
  8
LAYER_1
 10
67.67580327205135
 20
37.0433507649784
 30
0.0
  0
SEQEND
  5
74A
  8
LAYER_1
  0
POLYLINE
  5
DC
  8
LAYER_1
 66
     1
 10
0.0
 20
0.0
 30
0.0
 70
     1
  0
VERTEX
  5
665
  8
LAYER_1
 10
97.61626577449199
 20
1.502854578007316
 30
0.0
  0
VERTEX
  5
666
  8
LAYER_1
 10
121.116265774492
 20
1.502854578007316
 30
0.0
  0
VERTEX
  5
667
  8
LAYER_1
 10
121.116265774492
 20
27.00285457800732
 30
0.0
  0
VERTEX
  5
668
  8
LAYER_1
 10
97.61626577449199
 20
27.00285457800732
 30
0.0
  0
SEQEND
  5
74B
  8
LAYER_1
  0
POLYLINE
  5
DD
  8
LAYER_1
 66
     1
 10
0.0
 20
0.0
 30
0.0
 70
     1
  0
VERTEX
  5
669
  8
LAYER_1
 10
97.49126577449199
 20
1.377854578007316
 30
0.0
  0
VERTEX
  5
66A
  8
LAYER_1
 10
97.86626577449199
 20
1.377854578007316
 30
0.0
  0
VERTEX
  5
66B
  8
LAYER_1
 10
97.86626577449199
 20
27.12785457800732
 30
0.0
  0
VERTEX
  5
66C
  8
LAYER_1
 10
97.49126577449199
 20
27.12785457800732
 30
0.0
  0
SEQEND
  5
74C
  8
LAYER_1
  0
POLYLINE
  5
DE
  8
LAYER_1
 66
     1
 10
0.0
 20
0.0
 30
0.0
 70
     1
  0
VERTEX
  5
66D
  8
LAYER_1
 10
120.866265774492
 20
1.377854578007316
 30
0.0
  0
VERTEX
  5
66E
  8
LAYER_1
 10
121.241265774492
 20
1.377854578007316
 30
0.0
  0
VERTEX
  5
66F
  8
LAYER_1
 10
121.241265774492
 20
27.12785457800732
 30
0.0
  0
VERTEX
  5
670
  8
LAYER_1
 10
120.866265774492
 20
27.12785457800732
 30
0.0
  0
SEQEND
  5
74D
  8
LAYER_1
  0
POLYLINE
  5
DF
  8
LAYER_1
 66
     1
 10
0.0
 20
0.0
 30
0.0
 70
     1
  0
VERTEX
  5
671
  8
LAYER_1
 10
97.49126577449199
 20
26.75285457800732
 30
0.0
  0
VERTEX
  5
672
  8
LAYER_1
 10
121.241265774492
 20
26.75285457800732
 30
0.0
  0
VERTEX
  5
673
  8
LAYER_1
 10
121.241265774492
 20
27.12785457800732
 30
0.0
  0
VERTEX
  5
674
  8
LAYER_1
 10
97.49126577449199
 20
27.12785457800732
 30
0.0
  0
SEQEND
  5
74E
  8
LAYER_1
  0
POLYLINE
  5
E0
  8
LAYER_1
 66
     1
 10
0.0
 20
0.0
 30
0.0
 70
     1
  0
VERTEX
  5
675
  8
LAYER_1
 10
97.49126577449199
 20
1.440354578007316
 30
0.0
  0
VERTEX
  5
676
  8
LAYER_1
 10
121.241265774492
 20
1.440354578007316
 30
0.0
  0
VERTEX
  5
677
  8
LAYER_1
 10
121.241265774492
 20
1.691354578007321
 30
0.0
  0
VERTEX
  5
678
  8
LAYER_1
 10
97.49126577449199
 20
1.691354578007321
 30
0.0
  0
SEQEND
  5
74F
  8
LAYER_1
  0
POLYLINE
  5
E1
  8
LAYER_1
 66
     1
 10
0.0
 20
0.0
 30
0.0
 70
     1
  0
VERTEX
  5
679
  8
LAYER_1
 10
101.741265774492
 20
9.503354578007318
 30
0.0
 42
0.4142135623730951
  0
VERTEX
  5
67A
  8
LAYER_1
 10
101.615765774492
 20
9.377854578007316
 30
0.0
 42
0.4142135623730951
  0
VERTEX
  5
67B
  8
LAYER_1
 10
101.741265774492
 20
9.252354578007314
 30
0.0
 42
0.4142135623730951
  0
VERTEX
  5
67C
  8
LAYER_1
 10
101.866765774492
 20
9.377854578007316
 30
0.0
 42
0.4142135623730951
  0
SEQEND
  5
750
  8
LAYER_1
  0
POLYLINE
  5
E2
  8
LAYER_1
 66
     1
 10
0.0
 20
0.0
 30
0.0
 70
     1
  0
VERTEX
  5
67D
  8
LAYER_1
 10
101.741265774492
 20
12.62835457800732
 30
0.0
 42
0.4142135623730951
  0
VERTEX
  5
67E
  8
LAYER_1
 10
101.615765774492
 20
12.50285457800732
 30
0.0
 42
0.4142135623730951
  0
VERTEX
  5
67F
  8
LAYER_1
 10
101.741265774492
 20
12.37735457800731
 30
0.0
 42
0.4142135623730951
  0
VERTEX
  5
680
  8
LAYER_1
 10
101.866765774492
 20
12.50285457800732
 30
0.0
 42
0.4142135623730951
  0
SEQEND
  5
751
  8
LAYER_1
  0
POLYLINE
  5
E3
  8
LAYER_1
 66
     1
 10
0.0
 20
0.0
 30
0.0
 70
     1
  0
VERTEX
  5
681
  8
LAYER_1
 10
116.991265774492
 20
12.62835457800732
 30
0.0
 42
0.4142135623730951
  0
VERTEX
  5
682
  8
LAYER_1
 10
116.865765774492
 20
12.50285457800732
 30
0.0
 42
0.4142135623730951
  0
VERTEX
  5
683
  8
LAYER_1
 10
116.991265774492
 20
12.37735457800731
 30
0.0
 42
0.4142135623730951
  0
VERTEX
  5
684
  8
LAYER_1
 10
117.116765774492
 20
12.50285457800732
 30
0.0
 42
0.4142135623730951
  0
SEQEND
  5
752
  8
LAYER_1
  0
POLYLINE
  5
E4
  8
LAYER_1
 66
     1
 10
0.0
 20
0.0
 30
0.0
 70
     1
  0
VERTEX
  5
685
  8
LAYER_1
 10
116.991265774492
 20
9.503354578007318
 30
0.0
 42
0.4142135623730951
  0
VERTEX
  5
686
  8
LAYER_1
 10
116.865765774492
 20
9.377854578007316
 30
0.0
 42
0.4142135623730951
  0
VERTEX
  5
687
  8
LAYER_1
 10
116.991265774492
 20
9.252354578007314
 30
0.0
 42
0.4142135623730951
  0
VERTEX
  5
688
  8
LAYER_1
 10
117.116765774492
 20
9.377854578007316
 30
0.0
 42
0.4142135623730951
  0
SEQEND
  5
753
  8
LAYER_1
  0
POLYLINE
  5
E5
  8
LAYER_1
 66
     1
 10
0.0
 20
0.0
 30
0.0
 70
     1
  0
VERTEX
  5
689
  8
LAYER_1
 10
102.8467487960932
 20
-25.76576916689457
 30
0.0
  0
VERTEX
  5
68A
  8
LAYER_1
 10
102.8467487960932
 20
-2.265769166894568
 30
0.0
  0
VERTEX
  5
68B
  8
LAYER_1
 10
96.72174879609317
 20
-2.265769166894568
 30
0.0
  0
VERTEX
  5
68C
  8
LAYER_1
 10
96.72174879609317
 20
-25.76576916689457
 30
0.0
  0
SEQEND
  5
754
  8
LAYER_1
  0
POLYLINE
  5
E6
  8
LAYER_1
 66
     1
 10
0.0
 20
0.0
 30
0.0
 70
     1
  0
VERTEX
  5
68D
  8
LAYER_1
 10
102.9717487960932
 20
-25.89076916689457
 30
0.0
  0
VERTEX
  5
68E
  8
LAYER_1
 10
102.9717487960932
 20
-25.51576916689457
 30
0.0
  0
VERTEX
  5
68F
  8
LAYER_1
 10
96.59674879609317
 20
-25.51576916689457
 30
0.0
  0
VERTEX
  5
690
  8
LAYER_1
 10
96.59674879609317
 20
-25.89076916689457
 30
0.0
  0
SEQEND
  5
755
  8
LAYER_1
  0
POLYLINE
  5
E7
  8
LAYER_1
 66
     1
 10
0.0
 20
0.0
 30
0.0
 70
     1
  0
VERTEX
  5
691
  8
LAYER_1
 10
102.9717487960932
 20
-2.515769166894568
 30
0.0
  0
VERTEX
  5
692
  8
LAYER_1
 10
102.9717487960932
 20
-2.140769166894568
 30
0.0
  0
VERTEX
  5
693
  8
LAYER_1
 10
96.59674879609317
 20
-2.140769166894568
 30
0.0
  0
VERTEX
  5
694
  8
LAYER_1
 10
96.59674879609317
 20
-2.515769166894568
 30
0.0
  0
SEQEND
  5
756
  8
LAYER_1
  0
POLYLINE
  5
E8
  8
LAYER_1
 66
     1
 10
0.0
 20
0.0
 30
0.0
 70
     1
  0
VERTEX
  5
695
  8
LAYER_1
 10
99.72124879609316
 20
-24.64076916689457
 30
0.0
 42
0.4142135623730951
  0
VERTEX
  5
696
  8
LAYER_1
 10
99.84674879609318
 20
-24.76626916689457
 30
0.0
 42
0.4142135623730951
  0
VERTEX
  5
697
  8
LAYER_1
 10
99.97224879609317
 20
-24.64076916689457
 30
0.0
 42
0.4142135623730951
  0
VERTEX
  5
698
  8
LAYER_1
 10
99.84674879609318
 20
-24.51526916689457
 30
0.0
 42
0.4142135623730951
  0
SEQEND
  5
757
  8
LAYER_1
  0
POLYLINE
  5
E9
  8
LAYER_1
 66
     1
 10
0.0
 20
0.0
 30
0.0
 70
     1
  0
VERTEX
  5
699
  8
LAYER_1
 10
99.72124879609316
 20
-23.48456916689457
 30
0.0
 42
0.4142135623730951
  0
VERTEX
  5
69A
  8
LAYER_1
 10
99.84674879609318
 20
-23.61006916689457
 30
0.0
 42
0.4142135623730951
  0
VERTEX
  5
69B
  8
LAYER_1
 10
99.97224879609317
 20
-23.48456916689457
 30
0.0
 42
0.4142135623730951
  0
VERTEX
  5
69C
  8
LAYER_1
 10
99.84674879609318
 20
-23.35906916689457
 30
0.0
 42
0.4142135623730951
  0
SEQEND
  5
758
  8
LAYER_1
  0
POLYLINE
  5
EA
  8
LAYER_1
 66
     1
 10
0.0
 20
0.0
 30
0.0
 70
     1
  0
VERTEX
  5
69D
  8
LAYER_1
 10
99.72124879609316
 20
-4.515769166894568
 30
0.0
 42
0.4142135623730951
  0
VERTEX
  5
69E
  8
LAYER_1
 10
99.84674879609318
 20
-4.641269166894563
 30
0.0
 42
0.4142135623730951
  0
VERTEX
  5
69F
  8
LAYER_1
 10
99.97224879609317
 20
-4.515769166894568
 30
0.0
 42
0.4142135623730951
  0
VERTEX
  5
6A0
  8
LAYER_1
 10
99.84674879609318
 20
-4.390269166894573
 30
0.0
 42
0.4142135623730951
  0
SEQEND
  5
759
  8
LAYER_1
  0
POLYLINE
  5
EB
  8
LAYER_1
 66
     1
 10
0.0
 20
0.0
 30
0.0
 70
     1
  0
VERTEX
  5
6A1
  8
LAYER_1
 10
99.72124879609316
 20
-3.328269166894568
 30
0.0
 42
0.4142135623730951
  0
VERTEX
  5
6A2
  8
LAYER_1
 10
99.84674879609318
 20
-3.453769166894563
 30
0.0
 42
0.4142135623730951
  0
VERTEX
  5
6A3
  8
LAYER_1
 10
99.97224879609317
 20
-3.328269166894568
 30
0.0
 42
0.4142135623730951
  0
VERTEX
  5
6A4
  8
LAYER_1
 10
99.84674879609318
 20
-3.202769166894573
 30
0.0
 42
0.4142135623730951
  0
SEQEND
  5
75A
  8
LAYER_1
  0
POLYLINE
  5
EC
  8
LAYER_1
 66
     1
 10
0.0
 20
0.0
 30
0.0
 70
     1
  0
VERTEX
  5
6A5
  8
LAYER_1
 10
97.74214241819894
 20
28.63270742709938
 30
0.0
  0
VERTEX
  5
6A6
  8
LAYER_1
 10
121.2421424181989
 20
28.63270742709938
 30
0.0
  0
VERTEX
  5
6A7
  8
LAYER_1
 10
121.2421424181989
 20
46.63270742709938
 30
0.0
  0
VERTEX
  5
6A8
  8
LAYER_1
 10
97.74214241819894
 20
46.63270742709938
 30
0.0
  0
SEQEND
  5
75B
  8
LAYER_1
  0
POLYLINE
  5
ED
  8
LAYER_1
 66
     1
 10
0.0
 20
0.0
 30
0.0
 70
     1
  0
VERTEX
  5
6A9
  8
LAYER_1
 10
97.61714241819894
 20
28.50770742709938
 30
0.0
  0
VERTEX
  5
6AA
  8
LAYER_1
 10
97.99214241819894
 20
28.50770742709938
 30
0.0
  0
VERTEX
  5
6AB
  8
LAYER_1
 10
97.99214241819894
 20
46.75770742709938
 30
0.0
  0
VERTEX
  5
6AC
  8
LAYER_1
 10
97.61714241819894
 20
46.75770742709938
 30
0.0
  0
SEQEND
  5
75C
  8
LAYER_1
  0
POLYLINE
  5
EE
  8
LAYER_1
 66
     1
 10
0.0
 20
0.0
 30
0.0
 70
     1
  0
VERTEX
  5
6AD
  8
LAYER_1
 10
120.9921424181989
 20
28.50770742709938
 30
0.0
  0
VERTEX
  5
6AE
  8
LAYER_1
 10
121.3671424181989
 20
28.50770742709938
 30
0.0
  0
VERTEX
  5
6AF
  8
LAYER_1
 10
121.3671424181989
 20
46.75770742709938
 30
0.0
  0
VERTEX
  5
6B0
  8
LAYER_1
 10
120.9921424181989
 20
46.75770742709938
 30
0.0
  0
SEQEND
  5
75D
  8
LAYER_1
  0
POLYLINE
  5
EF
  8
LAYER_1
 66
     1
 10
0.0
 20
0.0
 30
0.0
 70
     1
  0
VERTEX
  5
6B1
  8
LAYER_1
 10
99.05464241819894
 20
34.50770742709938
 30
0.0
 42
0.4142135623730951
  0
VERTEX
  5
6B2
  8
LAYER_1
 10
99.55464241819894
 20
34.00770742709938
 30
0.0
  0
VERTEX
  5
6B3
  8
LAYER_1
 10
107.5546424181989
 20
34.00770742709938
 30
0.0
 42
0.4142135623730951
  0
VERTEX
  5
6B4
  8
LAYER_1
 10
108.0546424181989
 20
34.50770742709938
 30
0.0
  0
VERTEX
  5
6B5
  8
LAYER_1
 10
108.0546424181989
 20
35.50770742709938
 30
0.0
 42
0.4142135623730951
  0
VERTEX
  5
6B6
  8
LAYER_1
 10
107.5546424181989
 20
36.00770742709938
 30
0.0
  0
VERTEX
  5
6B7
  8
LAYER_1
 10
99.55464241819894
 20
36.00770742709938
 30
0.0
 42
0.4142135623730951
  0
VERTEX
  5
6B8
  8
LAYER_1
 10
99.05464241819894
 20
35.50770742709938
 30
0.0
  0
SEQEND
  5
75E
  8
LAYER_1
  0
POLYLINE
  5
F0
  8
LAYER_1
 66
     1
 10
0.0
 20
0.0
 30
0.0
 70
     1
  0
VERTEX
  5
6B9
  8
LAYER_1
 10
110.9921424181989
 20
34.50770742709938
 30
0.0
 42
0.4142135623730951
  0
VERTEX
  5
6BA
  8
LAYER_1
 10
111.4921424181989
 20
34.00770742709938
 30
0.0
  0
VERTEX
  5
6BB
  8
LAYER_1
 10
119.4921424181989
 20
34.00770742709938
 30
0.0
 42
0.4142135623730951
  0
VERTEX
  5
6BC
  8
LAYER_1
 10
119.9921424181989
 20
34.50770742709938
 30
0.0
  0
VERTEX
  5
6BD
  8
LAYER_1
 10
119.9921424181989
 20
35.50770742709938
 30
0.0
 42
0.4142135623730951
  0
VERTEX
  5
6BE
  8
LAYER_1
 10
119.4921424181989
 20
36.00770742709938
 30
0.0
  0
VERTEX
  5
6BF
  8
LAYER_1
 10
111.4921424181989
 20
36.00770742709938
 30
0.0
 42
0.4142135623730951
  0
VERTEX
  5
6C0
  8
LAYER_1
 10
110.9921424181989
 20
35.50770742709938
 30
0.0
  0
SEQEND
  5
75F
  8
LAYER_1
  0
POLYLINE
  5
F1
  8
LAYER_1
 66
     1
 10
0.0
 20
0.0
 30
0.0
 70
     1
  0
VERTEX
  5
6C1
  8
LAYER_1
 10
99.17964241819894
 20
33.13320742709938
 30
0.0
 42
0.4142135623730951
  0
VERTEX
  5
6C2
  8
LAYER_1
 10
99.05414241819894
 20
33.00770742709938
 30
0.0
 42
0.4142135623730951
  0
VERTEX
  5
6C3
  8
LAYER_1
 10
99.17964241819894
 20
32.88220742709937
 30
0.0
 42
0.4142135623730951
  0
VERTEX
  5
6C4
  8
LAYER_1
 10
99.30514241819894
 20
33.00770742709938
 30
0.0
 42
0.4142135623730951
  0
SEQEND
  5
760
  8
LAYER_1
  0
POLYLINE
  5
F2
  8
LAYER_1
 66
     1
 10
0.0
 20
0.0
 30
0.0
 70
     1
  0
VERTEX
  5
6C5
  8
LAYER_1
 10
109.4921424181989
 20
33.13320742709938
 30
0.0
 42
0.4142135623730951
  0
VERTEX
  5
6C6
  8
LAYER_1
 10
109.3666424181989
 20
33.00770742709938
 30
0.0
 42
0.4142135623730951
  0
VERTEX
  5
6C7
  8
LAYER_1
 10
109.4921424181989
 20
32.88220742709937
 30
0.0
 42
0.4142135623730951
  0
VERTEX
  5
6C8
  8
LAYER_1
 10
109.6176424181989
 20
33.00770742709938
 30
0.0
 42
0.4142135623730951
  0
SEQEND
  5
761
  8
LAYER_1
  0
POLYLINE
  5
F3
  8
LAYER_1
 66
     1
 10
0.0
 20
0.0
 30
0.0
 70
     1
  0
VERTEX
  5
6C9
  8
LAYER_1
 10
119.8046424181989
 20
33.13320742709938
 30
0.0
 42
0.4142135623730951
  0
VERTEX
  5
6CA
  8
LAYER_1
 10
119.6791424181989
 20
33.00770742709938
 30
0.0
 42
0.4142135623730951
  0
VERTEX
  5
6CB
  8
LAYER_1
 10
119.8046424181989
 20
32.88220742709937
 30
0.0
 42
0.4142135623730951
  0
VERTEX
  5
6CC
  8
LAYER_1
 10
119.9301424181989
 20
33.00770742709938
 30
0.0
 42
0.4142135623730951
  0
SEQEND
  5
762
  8
LAYER_1
  0
POLYLINE
  5
F4
  8
LAYER_1
 66
     1
 10
0.0
 20
0.0
 30
0.0
 70
     1
  0
VERTEX
  5
6CD
  8
LAYER_1
 10
119.8046424181989
 20
37.13320742709938
 30
0.0
 42
0.4142135623730951
  0
VERTEX
  5
6CE
  8
LAYER_1
 10
119.6791424181989
 20
37.00770742709938
 30
0.0
 42
0.4142135623730951
  0
VERTEX
  5
6CF
  8
LAYER_1
 10
119.8046424181989
 20
36.88220742709937
 30
0.0
 42
0.4142135623730951
  0
VERTEX
  5
6D0
  8
LAYER_1
 10
119.9301424181989
 20
37.00770742709938
 30
0.0
 42
0.4142135623730951
  0
SEQEND
  5
763
  8
LAYER_1
  0
POLYLINE
  5
F5
  8
LAYER_1
 66
     1
 10
0.0
 20
0.0
 30
0.0
 70
     1
  0
VERTEX
  5
6D1
  8
LAYER_1
 10
109.4921424181989
 20
37.13320742709938
 30
0.0
 42
0.4142135623730951
  0
VERTEX
  5
6D2
  8
LAYER_1
 10
109.3666424181989
 20
37.00770742709938
 30
0.0
 42
0.4142135623730951
  0
VERTEX
  5
6D3
  8
LAYER_1
 10
109.4921424181989
 20
36.88220742709937
 30
0.0
 42
0.4142135623730951
  0
VERTEX
  5
6D4
  8
LAYER_1
 10
109.6176424181989
 20
37.00770742709938
 30
0.0
 42
0.4142135623730951
  0
SEQEND
  5
764
  8
LAYER_1
  0
POLYLINE
  5
F6
  8
LAYER_1
 66
     1
 10
0.0
 20
0.0
 30
0.0
 70
     1
  0
VERTEX
  5
6D5
  8
LAYER_1
 10
99.17964241819894
 20
37.13320742709938
 30
0.0
 42
0.4142135623730951
  0
VERTEX
  5
6D6
  8
LAYER_1
 10
99.05414241819894
 20
37.00770742709938
 30
0.0
 42
0.4142135623730951
  0
VERTEX
  5
6D7
  8
LAYER_1
 10
99.17964241819894
 20
36.88220742709937
 30
0.0
 42
0.4142135623730951
  0
VERTEX
  5
6D8
  8
LAYER_1
 10
99.30514241819894
 20
37.00770742709938
 30
0.0
 42
0.4142135623730951
  0
SEQEND
  5
765
  8
LAYER_1
  0
POLYLINE
  5
F7
  8
LAYER_1
 66
     1
 10
0.0
 20
0.0
 30
0.0
 70
     1
  0
VERTEX
  5
6D9
  8
LAYER_1
 10
118.2421424181989
 20
39.72645742709938
 30
0.0
 42
0.4142135623730951
  0
VERTEX
  5
6DA
  8
LAYER_1
 10
117.3983924181989
 20
38.88270742709938
 30
0.0
 42
0.4142135623730951
  0
VERTEX
  5
6DB
  8
LAYER_1
 10
118.2421424181989
 20
38.03895742709938
 30
0.0
 42
0.4142135623730951
  0
VERTEX
  5
6DC
  8
LAYER_1
 10
119.0858924181989
 20
38.88270742709938
 30
0.0
 42
0.4142135623730951
  0
SEQEND
  5
766
  8
LAYER_1
  0
ENDSEC
  0
EOF
