  0
SECTION
  2
HEADER
  9
$ACADVER
  1
AC1009
  9
$DWGCODEPAGE
  3
ansi_1252
  9
$INSBASE
 10
0.0
 20
0.0
 30
0.0
  9
$EXTMIN
 10
0.0
 20
0.0
 30
0.0
  9
$EXTMAX
 10
16.89072916228043
 20
15.83549120688145
 30
0.0
  9
$LIMMIN
 10
0.0
 20
0.0
  9
$LIMMAX
 10
12.0
 20
9.0
  9
$ORTHOMODE
 70
     0
  9
$REGENMODE
 70
     1
  9
$FILLMODE
 70
     1
  9
$QTEXTMODE
 70
     0
  9
$MIRRTEXT
 70
     1
  9
$DRAGMODE
 70
     2
  9
$LTSCALE
 40
1.0
  9
$OSMODE
 70
    37
  9
$ATTMODE
 70
     1
  9
$TEXTSIZE
 40
0.2
  9
$TRACEWID
 40
0.05
  9
$TEXTSTYLE
  7
STANDARD
  9
$CLAYER
  8
0
  9
$CELTYPE
  6
BYLAYER
  9
$CECOLOR
 62
   256
  9
$DIMSCALE
 40
1.0
  9
$DIMASZ
 40
0.18
  9
$DIMEXO
 40
0.0625
  9
$DIMDLI
 40
0.38
  9
$DIMRND
 40
0.0
  9
$DIMDLE
 40
0.0
  9
$DIMEXE
 40
0.18
  9
$DIMTP
 40
0.0
  9
$DIMTM
 40
0.0
  9
$DIMTXT
 40
0.18
  9
$DIMCEN
 40
0.09
  9
$DIMTSZ
 40
0.0
  9
$DIMTOL
 70
     0
  9
$DIMLIM
 70
     0
  9
$DIMTIH
 70
     1
  9
$DIMTOH
 70
     1
  9
$DIMSE1
 70
     0
  9
$DIMSE2
 70
     0
  9
$DIMTAD
 70
     0
  9
$DIMZIN
 70
     0
  9
$DIMBLK
  1

  9
$DIMASO
 70
     1
  9
$DIMSHO
 70
     1
  9
$DIMPOST
  1

  9
$DIMAPOST
  1

  9
$DIMALT
 70
     0
  9
$DIMALTD
 70
     2
  9
$DIMALTF
 40
25.4
  9
$DIMLFAC
 40
1.0
  9
$DIMTOFL
 70
     0
  9
$DIMTVP
 40
0.0
  9
$DIMTIX
 70
     0
  9
$DIMSOXD
 70
     0
  9
$DIMSAH
 70
     0
  9
$DIMBLK1
  1

  9
$DIMBLK2
  1

  9
$DIMSTYLE
  2
STANDARD
  9
$DIMCLRD
 70
     0
  9
$DIMCLRE
 70
     0
  9
$DIMCLRT
 70
     0
  9
$DIMTFAC
 40
1.0
  9
$DIMGAP
 40
0.09
  9
$LUNITS
 70
     2
  9
$LUPREC
 70
     4
  9
$SKETCHINC
 40
0.1
  9
$FILLETRAD
 40
0.5
  9
$AUNITS
 70
     0
  9
$AUPREC
 70
     0
  9
$MENU
  1
.
  9
$ELEVATION
 40
0.0
  9
$PELEVATION
 40
0.0
  9
$THICKNESS
 40
0.0
  9
$LIMCHECK
 70
     0
  9
$CHAMFERA
 40
0.0
  9
$CHAMFERB
 40
0.0
  9
$SKPOLY
 70
     0
  9
$TDCREATE
 40
2454910.5
  9
$TDUPDATE
 40
2458504.961206481
  9
$TDINDWG
 40
0.0000000116
  9
$TDUSRTIMER
 40
0.0000000116
  9
$USRTIMER
 70
     1
  9
$ANGBASE
 50
0.0
  9
$ANGDIR
 70
     0
  9
$PDMODE
 70
     0
  9
$PDSIZE
 40
0.0
  9
$PLINEWID
 40
0.0
  9
$COORDS
 70
     1
  9
$SPLFRAME
 70
     0
  9
$SPLINETYPE
 70
     6
  9
$SPLINESEGS
 70
     8
  9
$ATTDIA
 70
     0
  9
$ATTREQ
 70
     1
  9
$HANDLING
 70
     1
  9
$HANDSEED
  5
C7B
  9
$SURFTAB1
 70
     6
  9
$SURFTAB2
 70
     6
  9
$SURFTYPE
 70
     6
  9
$SURFU
 70
     6
  9
$SURFV
 70
     6
  9
$UCSNAME
  2

  9
$UCSORG
 10
0.0
 20
0.0
 30
0.0
  9
$UCSXDIR
 10
1.0
 20
0.0
 30
0.0
  9
$UCSYDIR
 10
0.0
 20
1.0
 30
0.0
  9
$PUCSNAME
  2

  9
$PUCSORG
 10
0.0
 20
0.0
 30
0.0
  9
$PUCSXDIR
 10
1.0
 20
0.0
 30
0.0
  9
$PUCSYDIR
 10
0.0
 20
1.0
 30
0.0
  9
$USERI1
 70
     0
  9
$USERI2
 70
     0
  9
$USERI3
 70
     0
  9
$USERI4
 70
     0
  9
$USERI5
 70
     0
  9
$USERR1
 40
0.0
  9
$USERR2
 40
0.0
  9
$USERR3
 40
0.0
  9
$USERR4
 40
0.0
  9
$USERR5
 40
0.0
  9
$WORLDVIEW
 70
     1
  9
$SHADEDGE
 70
     3
  9
$SHADEDIF
 70
    70
  9
$TILEMODE
 70
     1
  9
$MAXACTVP
 70
    64
  9
$PLIMCHECK
 70
     0
  9
$PEXTMIN
 10
1.000000000000000E+20
 20
1.000000000000000E+20
 30
1.000000000000000E+20
  9
$PEXTMAX
 10
-1.000000000000000E+20
 20
-1.000000000000000E+20
 30
-1.000000000000000E+20
  9
$PLIMMIN
 10
0.0
 20
0.0
  9
$PLIMMAX
 10
12.0
 20
9.0
  9
$UNITMODE
 70
     0
  9
$VISRETAIN
 70
     1
  9
$PLINEGEN
 70
     0
  9
$PSLTSCALE
 70
     1
  0
ENDSEC
  0
SECTION
  2
TABLES
  0
TABLE
  2
VPORT
 70
     1
  0
VPORT
  2
*ACTIVE
 70
     0
 10
0.0
 20
0.0
 11
1.0
 21
1.0
 12
10.42990654205607
 22
4.5
 13
0.0
 23
0.0
 14
0.5
 24
0.5
 15
0.5
 25
0.5
 16
0.0
 26
0.0
 36
1.0
 17
0.0
 27
0.0
 37
0.0
 40
9.0
 41
1.972972972850329
 42
50.0
 43
0.0
 44
0.0
 50
0.0
 51
0.0
 71
     0
 72
   100
 73
     1
 74
     3
 75
     0
 76
     0
 77
     0
 78
     0
  0
ENDTAB
  0
TABLE
  2
LTYPE
 70
     2
  0
LTYPE
  2
CONTINUOUS
 70
     0
  3
Solid line
 72
    65
 73
     0
 40
0.0
  0
LTYPE
  2
CONTINUOUS2
 70
     0
  3
Solid Line
 72
    65
 73
     0
 40
0.0
  0
ENDTAB
  0
TABLE
  2
LAYER
 70
     2
  0
LAYER
  2
0
 70
     0
 62
     7
  6
CONTINUOUS
  0
LAYER
  2
LAYER_1
 70
     0
 62
    18
  6
CONTINUOUS
  0
ENDTAB
  0
TABLE
  2
STYLE
 70
     1
  0
STYLE
  2
STANDARD
 70
     0
 40
0.0
 41
1.0
 50
0.0
 71
     0
 42
0.2
  3
txt
  4

  0
ENDTAB
  0
TABLE
  2
VIEW
 70
     0
  0
ENDTAB
  0
TABLE
  2
UCS
 70
     0
  0
ENDTAB
  0
TABLE
  2
APPID
 70
     1
  0
APPID
  2
ACAD
 70
     0
  0
ENDTAB
  0
TABLE
  2
DIMSTYLE
 70
     1
  0
DIMSTYLE
  2
STANDARD
 70
     0
  3

  4

  5

  6

  7

 40
1.0
 41
0.18
 42
0.0625
 43
0.38
 44
0.18
 45
0.0
 46
0.0
 47
0.0
 48
0.0
140
0.18
141
0.09
142
0.0
143
25.4
144
1.0
145
0.0
146
1.0
147
0.09
 71
     0
 72
     0
 73
     1
 74
     1
 75
     0
 76
     0
 77
     0
 78
     0
170
     0
171
     2
172
     0
173
     0
174
     0
175
     0
176
     0
177
     0
178
     0
  0
ENDTAB
  0
ENDSEC
  0
SECTION
  2
BLOCKS
  0
BLOCK
  8
0
  2
$MODEL_SPACE
 70
     0
 10
0.0
 20
0.0
 30
0.0
  3
$MODEL_SPACE
  1

  0
ENDBLK
  5
21
  8
0
  0
BLOCK
 67
     1
  8
0
  2
$PAPER_SPACE
 70
     0
 10
0.0
 20
0.0
 30
0.0
  3
$PAPER_SPACE
  1

  0
ENDBLK
  5
1D
 67
     1
  8
0
  0
ENDSEC
  0
SECTION
  2
ENTITIES
  0
POLYLINE
  5
6C
  8
LAYER_1
 66
     1
 10
0.0
 20
0.0
 30
0.0
 70
     1
  0
VERTEX
  5
DF
  8
LAYER_1
 10
0.0
 20
0.0
 30
0.0
  0
VERTEX
  5
E0
  8
LAYER_1
 10
16.875
 20
0.0
 30
0.0
  0
VERTEX
  5
E1
  8
LAYER_1
 10
16.875
 20
6.8125
 30
0.0
  0
VERTEX
  5
E2
  8
LAYER_1
 10
0.0
 20
6.8125
 30
0.0
  0
SEQEND
  5
C0F
  8
LAYER_1
  0
POLYLINE
  5
6D
  8
LAYER_1
 66
     1
 10
0.0
 20
0.0
 30
0.0
 70
     1
  0
VERTEX
  5
E3
  8
LAYER_1
 10
4.0
 20
4.25
 30
0.0
 42
0.4142135623730951
  0
VERTEX
  5
E4
  8
LAYER_1
 10
3.3
 20
3.55
 30
0.0
 42
0.4142135623730951
  0
VERTEX
  5
E5
  8
LAYER_1
 10
4.0
 20
2.85
 30
0.0
 42
0.4142135623730951
  0
VERTEX
  5
E6
  8
LAYER_1
 10
4.7
 20
3.55
 30
0.0
 42
0.4142135623730951
  0
SEQEND
  5
C10
  8
LAYER_1
  0
POLYLINE
  5
6E
  8
LAYER_1
 66
     1
 10
0.0
 20
0.0
 30
0.0
 70
     1
  0
VERTEX
  5
E7
  8
LAYER_1
 10
12.875
 20
4.25
 30
0.0
 42
0.4142135623730951
  0
VERTEX
  5
E8
  8
LAYER_1
 10
12.175
 20
3.55
 30
0.0
 42
0.4142135623730951
  0
VERTEX
  5
E9
  8
LAYER_1
 10
12.875
 20
2.85
 30
0.0
 42
0.4142135623730951
  0
VERTEX
  5
EA
  8
LAYER_1
 10
13.575
 20
3.55
 30
0.0
 42
0.4142135623730951
  0
SEQEND
  5
C11
  8
LAYER_1
  0
POLYLINE
  5
6F
  8
LAYER_1
 66
     1
 10
0.0
 20
0.0
 30
0.0
 70
     1
  0
VERTEX
  5
EB
  8
LAYER_1
 10
4.0
 20
5.3
 30
0.0
 42
0.4142135623730951
  0
VERTEX
  5
EC
  8
LAYER_1
 10
2.25
 20
3.55
 30
0.0
 42
0.4142135623730951
  0
VERTEX
  5
ED
  8
LAYER_1
 10
4.0
 20
1.8
 30
0.0
 42
0.4142135623730951
  0
VERTEX
  5
EE
  8
LAYER_1
 10
5.75
 20
3.55
 30
0.0
 42
0.4142135623730951
  0
SEQEND
  5
C12
  8
LAYER_1
  0
POLYLINE
  5
70
  8
LAYER_1
 66
     1
 10
0.0
 20
0.0
 30
0.0
 70
     1
  0
VERTEX
  5
EF
  8
LAYER_1
 10
12.875
 20
5.3
 30
0.0
 42
0.4142135623730951
  0
VERTEX
  5
F0
  8
LAYER_1
 10
11.125
 20
3.55
 30
0.0
 42
0.4142135623730951
  0
VERTEX
  5
F1
  8
LAYER_1
 10
12.875
 20
1.8
 30
0.0
 42
0.4142135623730951
  0
VERTEX
  5
F2
  8
LAYER_1
 10
14.625
 20
3.55
 30
0.0
 42
0.4142135623730951
  0
SEQEND
  5
C13
  8
LAYER_1
  0
POLYLINE
  5
71
  8
LAYER_1
 66
     1
 10
0.0
 20
0.0
 30
0.0
 70
     1
  0
VERTEX
  5
F3
  8
LAYER_1
 10
1.725
 20
5.42
 30
0.0
  0
VERTEX
  5
F4
  8
LAYER_1
 10
1.725
 20
1.68
 30
0.0
 42
0.4142135623731029
  0
VERTEX
  5
F5
  8
LAYER_1
 10
1.855
 20
1.55
 30
0.0
  0
VERTEX
  5
F6
  8
LAYER_1
 10
6.145
 20
1.55
 30
0.0
 42
0.4142135623732953
  0
VERTEX
  5
F7
  8
LAYER_1
 10
6.275
 20
1.68
 30
0.0
  0
VERTEX
  5
F8
  8
LAYER_1
 10
6.275
 20
5.42
 30
0.0
 42
0.4142135623731057
  0
VERTEX
  5
F9
  8
LAYER_1
 10
6.145
 20
5.55
 30
0.0
  0
VERTEX
  5
FA
  8
LAYER_1
 10
1.855
 20
5.55
 30
0.0
 42
0.4142135623731695
  0
SEQEND
  5
C14
  8
LAYER_1
  0
POLYLINE
  5
72
  8
LAYER_1
 66
     1
 10
0.0
 20
0.0
 30
0.0
 70
     1
  0
VERTEX
  5
FB
  8
LAYER_1
 10
10.73000000000001
 20
1.55
 30
0.0
  0
VERTEX
  5
FC
  8
LAYER_1
 10
15.02000000000001
 20
1.55
 30
0.0
 42
0.4142135623731214
  0
VERTEX
  5
FD
  8
LAYER_1
 10
15.15000000000001
 20
1.68
 30
0.0
  0
VERTEX
  5
FE
  8
LAYER_1
 10
15.15000000000001
 20
5.42
 30
0.0
 42
0.4142135623723561
  0
VERTEX
  5
FF
  8
LAYER_1
 10
15.02000000000001
 20
5.55
 30
0.0
  0
VERTEX
  5
100
  8
LAYER_1
 10
10.73000000000001
 20
5.55
 30
0.0
 42
0.4142135623726295
  0
VERTEX
  5
101
  8
LAYER_1
 10
10.60000000000001
 20
5.42
 30
0.0
  0
VERTEX
  5
102
  8
LAYER_1
 10
10.60000000000001
 20
1.68
 30
0.0
 42
0.4142135623730877
  0
SEQEND
  5
C15
  8
LAYER_1
  0
POLYLINE
  5
73
  8
LAYER_1
 66
     1
 10
0.0
 20
0.0
 30
0.0
 70
     1
  0
VERTEX
  5
103
  8
LAYER_1
 10
11.375
 20
5.2
 30
0.0
 42
0.4142135623730951
  0
VERTEX
  5
104
  8
LAYER_1
 10
11.0
 20
4.825
 30
0.0
 42
0.4142135623730951
  0
VERTEX
  5
105
  8
LAYER_1
 10
11.375
 20
4.45
 30
0.0
 42
0.4142135623730951
  0
VERTEX
  5
106
  8
LAYER_1
 10
11.75
 20
4.825
 30
0.0
 42
0.4142135623730951
  0
SEQEND
  5
C16
  8
LAYER_1
  0
POLYLINE
  5
74
  8
LAYER_1
 66
     1
 10
0.0
 20
0.0
 30
0.0
 70
     1
  0
VERTEX
  5
107
  8
LAYER_1
 10
14.375
 20
5.2
 30
0.0
 42
0.4142135623730951
  0
VERTEX
  5
108
  8
LAYER_1
 10
14.0
 20
4.825
 30
0.0
 42
0.4142135623730951
  0
VERTEX
  5
109
  8
LAYER_1
 10
14.375
 20
4.45
 30
0.0
 42
0.4142135623730951
  0
VERTEX
  5
10A
  8
LAYER_1
 10
14.75
 20
4.825
 30
0.0
 42
0.4142135623730951
  0
SEQEND
  5
C17
  8
LAYER_1
  0
POLYLINE
  5
75
  8
LAYER_1
 66
     1
 10
0.0
 20
0.0
 30
0.0
 70
     1
  0
VERTEX
  5
10B
  8
LAYER_1
 10
14.375
 20
2.65
 30
0.0
 42
0.4142135623730951
  0
VERTEX
  5
10C
  8
LAYER_1
 10
14.0
 20
2.275
 30
0.0
 42
0.4142135623730951
  0
VERTEX
  5
10D
  8
LAYER_1
 10
14.375
 20
1.9
 30
0.0
 42
0.4142135623730951
  0
VERTEX
  5
10E
  8
LAYER_1
 10
14.75
 20
2.275
 30
0.0
 42
0.4142135623730951
  0
SEQEND
  5
C18
  8
LAYER_1
  0
POLYLINE
  5
76
  8
LAYER_1
 66
     1
 10
0.0
 20
0.0
 30
0.0
 70
     1
  0
VERTEX
  5
10F
  8
LAYER_1
 10
11.375
 20
2.65
 30
0.0
 42
0.4142135623730951
  0
VERTEX
  5
110
  8
LAYER_1
 10
11.0
 20
2.275
 30
0.0
 42
0.4142135623730951
  0
VERTEX
  5
111
  8
LAYER_1
 10
11.375
 20
1.9
 30
0.0
 42
0.4142135623730951
  0
VERTEX
  5
112
  8
LAYER_1
 10
11.75
 20
2.275
 30
0.0
 42
0.4142135623730951
  0
SEQEND
  5
C19
  8
LAYER_1
  0
POLYLINE
  5
77
  8
LAYER_1
 66
     1
 10
0.0
 20
0.0
 30
0.0
 70
     1
  0
VERTEX
  5
113
  8
LAYER_1
 10
2.5
 20
5.200000000000001
 30
0.0
 42
0.4142135623730951
  0
VERTEX
  5
114
  8
LAYER_1
 10
2.125
 20
4.825000000000001
 30
0.0
 42
0.4142135623730951
  0
VERTEX
  5
115
  8
LAYER_1
 10
2.5
 20
4.450000000000001
 30
0.0
 42
0.4142135623730951
  0
VERTEX
  5
116
  8
LAYER_1
 10
2.875
 20
4.825000000000001
 30
0.0
 42
0.4142135623730951
  0
SEQEND
  5
C1A
  8
LAYER_1
  0
POLYLINE
  5
78
  8
LAYER_1
 66
     1
 10
0.0
 20
0.0
 30
0.0
 70
     1
  0
VERTEX
  5
117
  8
LAYER_1
 10
2.5
 20
2.65
 30
0.0
 42
0.4142135623730951
  0
VERTEX
  5
118
  8
LAYER_1
 10
2.125
 20
2.275
 30
0.0
 42
0.4142135623730951
  0
VERTEX
  5
119
  8
LAYER_1
 10
2.5
 20
1.9
 30
0.0
 42
0.4142135623730951
  0
VERTEX
  5
11A
  8
LAYER_1
 10
2.875
 20
2.275
 30
0.0
 42
0.4142135623730951
  0
SEQEND
  5
C1B
  8
LAYER_1
  0
POLYLINE
  5
79
  8
LAYER_1
 66
     1
 10
0.0
 20
0.0
 30
0.0
 70
     1
  0
VERTEX
  5
11B
  8
LAYER_1
 10
5.5
 20
2.65
 30
0.0
 42
0.4142135623730951
  0
VERTEX
  5
11C
  8
LAYER_1
 10
5.125
 20
2.275
 30
0.0
 42
0.4142135623730951
  0
VERTEX
  5
11D
  8
LAYER_1
 10
5.5
 20
1.9
 30
0.0
 42
0.4142135623730951
  0
VERTEX
  5
11E
  8
LAYER_1
 10
5.875
 20
2.275
 30
0.0
 42
0.4142135623730951
  0
SEQEND
  5
C1C
  8
LAYER_1
  0
POLYLINE
  5
7A
  8
LAYER_1
 66
     1
 10
0.0
 20
0.0
 30
0.0
 70
     1
  0
VERTEX
  5
11F
  8
LAYER_1
 10
5.5
 20
5.200000000000001
 30
0.0
 42
0.4142135623730951
  0
VERTEX
  5
120
  8
LAYER_1
 10
5.125
 20
4.825000000000001
 30
0.0
 42
0.4142135623730951
  0
VERTEX
  5
121
  8
LAYER_1
 10
5.5
 20
4.450000000000001
 30
0.0
 42
0.4142135623730951
  0
VERTEX
  5
122
  8
LAYER_1
 10
5.875
 20
4.825000000000001
 30
0.0
 42
0.4142135623730951
  0
SEQEND
  5
C1D
  8
LAYER_1
  0
POLYLINE
  5
7B
  8
LAYER_1
 66
     1
 10
0.0
 20
0.0
 30
0.0
 70
     1
  0
VERTEX
  5
123
  8
LAYER_1
 10
1.5
 20
0.975
 30
0.0
 42
0.4142135623730951
  0
VERTEX
  5
124
  8
LAYER_1
 10
1.125
 20
0.6
 30
0.0
 42
0.4142135623730951
  0
VERTEX
  5
125
  8
LAYER_1
 10
1.5
 20
0.225
 30
0.0
 42
0.4142135623730951
  0
VERTEX
  5
126
  8
LAYER_1
 10
1.875
 20
0.6
 30
0.0
 42
0.4142135623730951
  0
SEQEND
  5
C1E
  8
LAYER_1
  0
POLYLINE
  5
7C
  8
LAYER_1
 66
     1
 10
0.0
 20
0.0
 30
0.0
 70
     1
  0
VERTEX
  5
127
  8
LAYER_1
 10
8.4375
 20
0.975
 30
0.0
 42
0.4142135623730951
  0
VERTEX
  5
128
  8
LAYER_1
 10
8.0625
 20
0.6
 30
0.0
 42
0.4142135623730951
  0
VERTEX
  5
129
  8
LAYER_1
 10
8.4375
 20
0.225
 30
0.0
 42
0.4142135623730951
  0
VERTEX
  5
12A
  8
LAYER_1
 10
8.8125
 20
0.6
 30
0.0
 42
0.4142135623730951
  0
SEQEND
  5
C1F
  8
LAYER_1
  0
POLYLINE
  5
7D
  8
LAYER_1
 66
     1
 10
0.0
 20
0.0
 30
0.0
 70
     1
  0
VERTEX
  5
12B
  8
LAYER_1
 10
15.375
 20
0.975
 30
0.0
 42
0.4142135623730951
  0
VERTEX
  5
12C
  8
LAYER_1
 10
15.0
 20
0.6
 30
0.0
 42
0.4142135623730951
  0
VERTEX
  5
12D
  8
LAYER_1
 10
15.375
 20
0.225
 30
0.0
 42
0.4142135623730951
  0
VERTEX
  5
12E
  8
LAYER_1
 10
15.75
 20
0.6
 30
0.0
 42
0.4142135623730951
  0
SEQEND
  5
C20
  8
LAYER_1
  0
POLYLINE
  5
7E
  8
LAYER_1
 66
     1
 10
0.0
 20
0.0
 30
0.0
 70
     1
  0
VERTEX
  5
12F
  8
LAYER_1
 10
7.25
 20
5.5125
 30
0.0
 42
0.4142135623730951
  0
VERTEX
  5
130
  8
LAYER_1
 10
6.875
 20
5.1375
 30
0.0
 42
0.4142135623730951
  0
VERTEX
  5
131
  8
LAYER_1
 10
7.25
 20
4.7625
 30
0.0
 42
0.4142135623730951
  0
VERTEX
  5
132
  8
LAYER_1
 10
7.625
 20
5.1375
 30
0.0
 42
0.4142135623730951
  0
SEQEND
  5
C21
  8
LAYER_1
  0
POLYLINE
  5
7F
  8
LAYER_1
 66
     1
 10
0.0
 20
0.0
 30
0.0
 70
     1
  0
VERTEX
  5
133
  8
LAYER_1
 10
9.625
 20
5.5125
 30
0.0
 42
0.4142135623730951
  0
VERTEX
  5
134
  8
LAYER_1
 10
9.25
 20
5.1375
 30
0.0
 42
0.4142135623730951
  0
VERTEX
  5
135
  8
LAYER_1
 10
9.625
 20
4.7625
 30
0.0
 42
0.4142135623730951
  0
VERTEX
  5
136
  8
LAYER_1
 10
10.0
 20
5.1375
 30
0.0
 42
0.4142135623730951
  0
SEQEND
  5
C22
  8
LAYER_1
  0
POLYLINE
  5
80
  8
LAYER_1
 66
     1
 10
0.0
 20
0.0
 30
0.0
 70
     1
  0
VERTEX
  5
137
  8
LAYER_1
 10
7.25
 20
5.7125
 30
0.0
 42
0.4142135623730951
  0
VERTEX
  5
138
  8
LAYER_1
 10
6.675
 20
5.1375
 30
0.0
 42
0.4142135623730951
  0
VERTEX
  5
139
  8
LAYER_1
 10
7.25
 20
4.5625
 30
0.0
 42
0.4142135623730951
  0
VERTEX
  5
13A
  8
LAYER_1
 10
7.825
 20
5.1375
 30
0.0
 42
0.4142135623730951
  0
SEQEND
  5
C23
  8
LAYER_1
  0
POLYLINE
  5
81
  8
LAYER_1
 66
     1
 10
0.0
 20
0.0
 30
0.0
 70
     1
  0
VERTEX
  5
13B
  8
LAYER_1
 10
9.625
 20
5.7125
 30
0.0
 42
0.4142135623730951
  0
VERTEX
  5
13C
  8
LAYER_1
 10
9.05
 20
5.1375
 30
0.0
 42
0.4142135623730951
  0
VERTEX
  5
13D
  8
LAYER_1
 10
9.625
 20
4.5625
 30
0.0
 42
0.4142135623730951
  0
VERTEX
  5
13E
  8
LAYER_1
 10
10.2
 20
5.1375
 30
0.0
 42
0.4142135623730951
  0
SEQEND
  5
C24
  8
LAYER_1
  0
POLYLINE
  5
82
  8
LAYER_1
 66
     1
 10
0.0
 20
0.0
 30
0.0
 70
     1
  0
VERTEX
  5
13F
  8
LAYER_1
 10
0.8
 20
4.8375
 30
0.0
 42
0.4142135623730951
  0
VERTEX
  5
140
  8
LAYER_1
 10
0.425
 20
4.4625
 30
0.0
 42
0.4142135623730951
  0
VERTEX
  5
141
  8
LAYER_1
 10
0.8
 20
4.0875
 30
0.0
 42
0.4142135623730951
  0
VERTEX
  5
142
  8
LAYER_1
 10
1.175
 20
4.4625
 30
0.0
 42
0.4142135623730951
  0
SEQEND
  5
C25
  8
LAYER_1
  0
POLYLINE
  5
83
  8
LAYER_1
 66
     1
 10
0.0
 20
0.0
 30
0.0
 70
     1
  0
VERTEX
  5
143
  8
LAYER_1
 10
0.8
 20
6.0375
 30
0.0
 42
0.4142135623730951
  0
VERTEX
  5
144
  8
LAYER_1
 10
0.425
 20
5.6625
 30
0.0
 42
0.4142135623730951
  0
VERTEX
  5
145
  8
LAYER_1
 10
0.8
 20
5.2875
 30
0.0
 42
0.4142135623730951
  0
VERTEX
  5
146
  8
LAYER_1
 10
1.175
 20
5.6625
 30
0.0
 42
0.4142135623730951
  0
SEQEND
  5
C26
  8
LAYER_1
  0
POLYLINE
  5
84
  8
LAYER_1
 66
     1
 10
0.0
 20
0.0
 30
0.0
 70
     1
  0
VERTEX
  5
147
  8
LAYER_1
 10
16.075
 20
6.0375
 30
0.0
 42
0.4142135623730951
  0
VERTEX
  5
148
  8
LAYER_1
 10
15.7
 20
5.6625
 30
0.0
 42
0.4142135623730951
  0
VERTEX
  5
149
  8
LAYER_1
 10
16.075
 20
5.2875
 30
0.0
 42
0.4142135623730951
  0
VERTEX
  5
14A
  8
LAYER_1
 10
16.45
 20
5.6625
 30
0.0
 42
0.4142135623730951
  0
SEQEND
  5
C27
  8
LAYER_1
  0
POLYLINE
  5
85
  8
LAYER_1
 66
     1
 10
0.0
 20
0.0
 30
0.0
 70
     1
  0
VERTEX
  5
14B
  8
LAYER_1
 10
16.075
 20
4.8375
 30
0.0
 42
0.4142135623730951
  0
VERTEX
  5
14C
  8
LAYER_1
 10
15.7
 20
4.4625
 30
0.0
 42
0.4142135623730951
  0
VERTEX
  5
14D
  8
LAYER_1
 10
16.075
 20
4.0875
 30
0.0
 42
0.4142135623730951
  0
VERTEX
  5
14E
  8
LAYER_1
 10
16.45
 20
4.4625
 30
0.0
 42
0.4142135623730951
  0
SEQEND
  5
C28
  8
LAYER_1
  0
POLYLINE
  5
86
  8
LAYER_1
 66
     1
 10
0.0
 20
0.0
 30
0.0
 70
     1
  0
VERTEX
  5
14F
  8
LAYER_1
 10
0.0
 20
0.0
 30
0.0
  0
VERTEX
  5
150
  8
LAYER_1
 10
16.875
 20
0.0
 30
0.0
  0
VERTEX
  5
151
  8
LAYER_1
 10
16.875
 20
6.8125
 30
0.0
  0
VERTEX
  5
152
  8
LAYER_1
 10
0.0
 20
6.8125
 30
0.0
  0
SEQEND
  5
C29
  8
LAYER_1
  0
POLYLINE
  5
87
  8
LAYER_1
 66
     1
 10
0.0
 20
0.0
 30
0.0
 70
     1
  0
VERTEX
  5
153
  8
LAYER_1
 10
4.0
 20
4.25
 30
0.0
 42
0.4142135623730951
  0
VERTEX
  5
154
  8
LAYER_1
 10
3.3
 20
3.549999999999999
 30
0.0
 42
0.4142135623730951
  0
VERTEX
  5
155
  8
LAYER_1
 10
4.0
 20
2.85
 30
0.0
 42
0.4142135623730951
  0
VERTEX
  5
156
  8
LAYER_1
 10
4.7
 20
3.549999999999999
 30
0.0
 42
0.4142135623730951
  0
SEQEND
  5
C2A
  8
LAYER_1
  0
POLYLINE
  5
88
  8
LAYER_1
 66
     1
 10
0.0
 20
0.0
 30
0.0
 70
     1
  0
VERTEX
  5
157
  8
LAYER_1
 10
12.875
 20
4.25
 30
0.0
 42
0.4142135623730951
  0
VERTEX
  5
158
  8
LAYER_1
 10
12.175
 20
3.549999999999999
 30
0.0
 42
0.4142135623730951
  0
VERTEX
  5
159
  8
LAYER_1
 10
12.875
 20
2.85
 30
0.0
 42
0.4142135623730951
  0
VERTEX
  5
15A
  8
LAYER_1
 10
13.575
 20
3.549999999999999
 30
0.0
 42
0.4142135623730951
  0
SEQEND
  5
C2B
  8
LAYER_1
  0
POLYLINE
  5
89
  8
LAYER_1
 66
     1
 10
0.0
 20
0.0
 30
0.0
 70
     1
  0
VERTEX
  5
15B
  8
LAYER_1
 10
12.875
 20
5.299999999999999
 30
0.0
 42
0.4142135623730951
  0
VERTEX
  5
15C
  8
LAYER_1
 10
11.125
 20
3.549999999999999
 30
0.0
 42
0.4142135623730951
  0
VERTEX
  5
15D
  8
LAYER_1
 10
12.875
 20
1.799999999999999
 30
0.0
 42
0.4142135623730951
  0
VERTEX
  5
15E
  8
LAYER_1
 10
14.625
 20
3.549999999999999
 30
0.0
 42
0.4142135623730951
  0
SEQEND
  5
C2C
  8
LAYER_1
  0
POLYLINE
  5
8A
  8
LAYER_1
 66
     1
 10
0.0
 20
0.0
 30
0.0
 70
     1
  0
VERTEX
  5
15F
  8
LAYER_1
 10
10.73000000000001
 20
1.549999999999999
 30
0.0
  0
VERTEX
  5
160
  8
LAYER_1
 10
15.02000000000001
 20
1.549999999999999
 30
0.0
 42
0.4142135623731214
  0
VERTEX
  5
161
  8
LAYER_1
 10
15.15000000000001
 20
1.68
 30
0.0
  0
VERTEX
  5
162
  8
LAYER_1
 10
15.15000000000001
 20
5.42
 30
0.0
 42
0.4142135623723561
  0
VERTEX
  5
163
  8
LAYER_1
 10
15.02000000000001
 20
5.549999999999999
 30
0.0
  0
VERTEX
  5
164
  8
LAYER_1
 10
10.73000000000001
 20
5.549999999999999
 30
0.0
 42
0.4142135623726295
  0
VERTEX
  5
165
  8
LAYER_1
 10
10.60000000000001
 20
5.42
 30
0.0
  0
VERTEX
  5
166
  8
LAYER_1
 10
10.60000000000001
 20
1.68
 30
0.0
 42
0.4142135623730877
  0
SEQEND
  5
C2D
  8
LAYER_1
  0
POLYLINE
  5
8B
  8
LAYER_1
 66
     1
 10
0.0
 20
0.0
 30
0.0
 70
     1
  0
VERTEX
  5
167
  8
LAYER_1
 10
11.375
 20
5.200000000000001
 30
0.0
 42
0.4142135623730951
  0
VERTEX
  5
168
  8
LAYER_1
 10
11.0
 20
4.825000000000001
 30
0.0
 42
0.4142135623730951
  0
VERTEX
  5
169
  8
LAYER_1
 10
11.375
 20
4.450000000000001
 30
0.0
 42
0.4142135623730951
  0
VERTEX
  5
16A
  8
LAYER_1
 10
11.75
 20
4.825000000000001
 30
0.0
 42
0.4142135623730951
  0
SEQEND
  5
C2E
  8
LAYER_1
  0
POLYLINE
  5
8C
  8
LAYER_1
 66
     1
 10
0.0
 20
0.0
 30
0.0
 70
     1
  0
VERTEX
  5
16B
  8
LAYER_1
 10
14.375
 20
5.200000000000001
 30
0.0
 42
0.4142135623730951
  0
VERTEX
  5
16C
  8
LAYER_1
 10
14.0
 20
4.825000000000001
 30
0.0
 42
0.4142135623730951
  0
VERTEX
  5
16D
  8
LAYER_1
 10
14.375
 20
4.450000000000001
 30
0.0
 42
0.4142135623730951
  0
VERTEX
  5
16E
  8
LAYER_1
 10
14.75
 20
4.825000000000001
 30
0.0
 42
0.4142135623730951
  0
SEQEND
  5
C2F
  8
LAYER_1
  0
POLYLINE
  5
8D
  8
LAYER_1
 66
     1
 10
0.0
 20
0.0
 30
0.0
 70
     1
  0
VERTEX
  5
16F
  8
LAYER_1
 10
14.375
 20
2.65
 30
0.0
 42
0.4142135623730951
  0
VERTEX
  5
170
  8
LAYER_1
 10
14.0
 20
2.275
 30
0.0
 42
0.4142135623730951
  0
VERTEX
  5
171
  8
LAYER_1
 10
14.375
 20
1.9
 30
0.0
 42
0.4142135623730951
  0
VERTEX
  5
172
  8
LAYER_1
 10
14.75
 20
2.275
 30
0.0
 42
0.4142135623730951
  0
SEQEND
  5
C30
  8
LAYER_1
  0
POLYLINE
  5
8E
  8
LAYER_1
 66
     1
 10
0.0
 20
0.0
 30
0.0
 70
     1
  0
VERTEX
  5
173
  8
LAYER_1
 10
11.375
 20
2.65
 30
0.0
 42
0.4142135623730951
  0
VERTEX
  5
174
  8
LAYER_1
 10
11.0
 20
2.275
 30
0.0
 42
0.4142135623730951
  0
VERTEX
  5
175
  8
LAYER_1
 10
11.375
 20
1.9
 30
0.0
 42
0.4142135623730951
  0
VERTEX
  5
176
  8
LAYER_1
 10
11.75
 20
2.275
 30
0.0
 42
0.4142135623730951
  0
SEQEND
  5
C31
  8
LAYER_1
  0
POLYLINE
  5
8F
  8
LAYER_1
 66
     1
 10
0.0
 20
0.0
 30
0.0
 70
     1
  0
VERTEX
  5
177
  8
LAYER_1
 10
2.5
 20
5.200000000000001
 30
0.0
 42
0.4142135623730951
  0
VERTEX
  5
178
  8
LAYER_1
 10
2.125
 20
4.825000000000001
 30
0.0
 42
0.4142135623730951
  0
VERTEX
  5
179
  8
LAYER_1
 10
2.5
 20
4.450000000000001
 30
0.0
 42
0.4142135623730951
  0
VERTEX
  5
17A
  8
LAYER_1
 10
2.875
 20
4.825000000000001
 30
0.0
 42
0.4142135623730951
  0
SEQEND
  5
C32
  8
LAYER_1
  0
POLYLINE
  5
90
  8
LAYER_1
 66
     1
 10
0.0
 20
0.0
 30
0.0
 70
     1
  0
VERTEX
  5
17B
  8
LAYER_1
 10
2.5
 20
2.65
 30
0.0
 42
0.4142135623730951
  0
VERTEX
  5
17C
  8
LAYER_1
 10
2.125
 20
2.275
 30
0.0
 42
0.4142135623730951
  0
VERTEX
  5
17D
  8
LAYER_1
 10
2.5
 20
1.9
 30
0.0
 42
0.4142135623730951
  0
VERTEX
  5
17E
  8
LAYER_1
 10
2.875
 20
2.275
 30
0.0
 42
0.4142135623730951
  0
SEQEND
  5
C33
  8
LAYER_1
  0
POLYLINE
  5
91
  8
LAYER_1
 66
     1
 10
0.0
 20
0.0
 30
0.0
 70
     1
  0
VERTEX
  5
17F
  8
LAYER_1
 10
1.5
 20
0.9749999999999996
 30
0.0
 42
0.4142135623730951
  0
VERTEX
  5
180
  8
LAYER_1
 10
1.125
 20
0.5999999999999996
 30
0.0
 42
0.4142135623730951
  0
VERTEX
  5
181
  8
LAYER_1
 10
1.5
 20
0.2249999999999996
 30
0.0
 42
0.4142135623730951
  0
VERTEX
  5
182
  8
LAYER_1
 10
1.875
 20
0.5999999999999996
 30
0.0
 42
0.4142135623730951
  0
SEQEND
  5
C34
  8
LAYER_1
  0
POLYLINE
  5
92
  8
LAYER_1
 66
     1
 10
0.0
 20
0.0
 30
0.0
 70
     1
  0
VERTEX
  5
183
  8
LAYER_1
 10
8.4375
 20
0.9749999999999996
 30
0.0
 42
0.4142135623730951
  0
VERTEX
  5
184
  8
LAYER_1
 10
8.0625
 20
0.5999999999999996
 30
0.0
 42
0.4142135623730951
  0
VERTEX
  5
185
  8
LAYER_1
 10
8.4375
 20
0.2249999999999996
 30
0.0
 42
0.4142135623730951
  0
VERTEX
  5
186
  8
LAYER_1
 10
8.8125
 20
0.5999999999999996
 30
0.0
 42
0.4142135623730951
  0
SEQEND
  5
C35
  8
LAYER_1
  0
POLYLINE
  5
93
  8
LAYER_1
 66
     1
 10
0.0
 20
0.0
 30
0.0
 70
     1
  0
VERTEX
  5
187
  8
LAYER_1
 10
15.375
 20
0.9749999999999996
 30
0.0
 42
0.4142135623730951
  0
VERTEX
  5
188
  8
LAYER_1
 10
15.0
 20
0.5999999999999996
 30
0.0
 42
0.4142135623730951
  0
VERTEX
  5
189
  8
LAYER_1
 10
15.375
 20
0.2249999999999996
 30
0.0
 42
0.4142135623730951
  0
VERTEX
  5
18A
  8
LAYER_1
 10
15.75
 20
0.5999999999999996
 30
0.0
 42
0.4142135623730951
  0
SEQEND
  5
C36
  8
LAYER_1
  0
POLYLINE
  5
94
  8
LAYER_1
 66
     1
 10
0.0
 20
0.0
 30
0.0
 70
     1
  0
VERTEX
  5
18B
  8
LAYER_1
 10
7.25
 20
5.512500000000001
 30
0.0
 42
0.4142135623730951
  0
VERTEX
  5
18C
  8
LAYER_1
 10
6.875
 20
5.137500000000001
 30
0.0
 42
0.4142135623730951
  0
VERTEX
  5
18D
  8
LAYER_1
 10
7.25
 20
4.762500000000001
 30
0.0
 42
0.4142135623730951
  0
VERTEX
  5
18E
  8
LAYER_1
 10
7.625
 20
5.137500000000001
 30
0.0
 42
0.4142135623730951
  0
SEQEND
  5
C37
  8
LAYER_1
  0
POLYLINE
  5
95
  8
LAYER_1
 66
     1
 10
0.0
 20
0.0
 30
0.0
 70
     1
  0
VERTEX
  5
18F
  8
LAYER_1
 10
9.625
 20
5.512500000000001
 30
0.0
 42
0.4142135623730951
  0
VERTEX
  5
190
  8
LAYER_1
 10
9.25
 20
5.137500000000001
 30
0.0
 42
0.4142135623730951
  0
VERTEX
  5
191
  8
LAYER_1
 10
9.625
 20
4.762500000000001
 30
0.0
 42
0.4142135623730951
  0
VERTEX
  5
192
  8
LAYER_1
 10
10.0
 20
5.137500000000001
 30
0.0
 42
0.4142135623730951
  0
SEQEND
  5
C38
  8
LAYER_1
  0
POLYLINE
  5
96
  8
LAYER_1
 66
     1
 10
0.0
 20
0.0
 30
0.0
 70
     1
  0
VERTEX
  5
193
  8
LAYER_1
 10
7.25
 20
5.7125
 30
0.0
 42
0.4142135623730951
  0
VERTEX
  5
194
  8
LAYER_1
 10
6.675
 20
5.137500000000001
 30
0.0
 42
0.4142135623730951
  0
VERTEX
  5
195
  8
LAYER_1
 10
7.25
 20
4.5625
 30
0.0
 42
0.4142135623730951
  0
VERTEX
  5
196
  8
LAYER_1
 10
7.825
 20
5.137500000000001
 30
0.0
 42
0.4142135623730951
  0
SEQEND
  5
C39
  8
LAYER_1
  0
POLYLINE
  5
97
  8
LAYER_1
 66
     1
 10
0.0
 20
0.0
 30
0.0
 70
     1
  0
VERTEX
  5
197
  8
LAYER_1
 10
9.625
 20
5.7125
 30
0.0
 42
0.4142135623730951
  0
VERTEX
  5
198
  8
LAYER_1
 10
9.05
 20
5.137500000000001
 30
0.0
 42
0.4142135623730951
  0
VERTEX
  5
199
  8
LAYER_1
 10
9.625
 20
4.5625
 30
0.0
 42
0.4142135623730951
  0
VERTEX
  5
19A
  8
LAYER_1
 10
10.2
 20
5.137500000000001
 30
0.0
 42
0.4142135623730951
  0
SEQEND
  5
C3A
  8
LAYER_1
  0
POLYLINE
  5
98
  8
LAYER_1
 66
     1
 10
0.0
 20
0.0
 30
0.0
 70
     1
  0
VERTEX
  5
19B
  8
LAYER_1
 10
0.8
 20
4.8375
 30
0.0
 42
0.4142135623730951
  0
VERTEX
  5
19C
  8
LAYER_1
 10
0.425
 20
4.4625
 30
0.0
 42
0.4142135623730951
  0
VERTEX
  5
19D
  8
LAYER_1
 10
0.8
 20
4.0875
 30
0.0
 42
0.4142135623730951
  0
VERTEX
  5
19E
  8
LAYER_1
 10
1.175
 20
4.4625
 30
0.0
 42
0.4142135623730951
  0
SEQEND
  5
C3B
  8
LAYER_1
  0
POLYLINE
  5
99
  8
LAYER_1
 66
     1
 10
0.0
 20
0.0
 30
0.0
 70
     1
  0
VERTEX
  5
19F
  8
LAYER_1
 10
0.8
 20
6.0375
 30
0.0
 42
0.4142135623730951
  0
VERTEX
  5
1A0
  8
LAYER_1
 10
0.425
 20
5.6625
 30
0.0
 42
0.4142135623730951
  0
VERTEX
  5
1A1
  8
LAYER_1
 10
0.8
 20
5.2875
 30
0.0
 42
0.4142135623730951
  0
VERTEX
  5
1A2
  8
LAYER_1
 10
1.175
 20
5.6625
 30
0.0
 42
0.4142135623730951
  0
SEQEND
  5
C3C
  8
LAYER_1
  0
POLYLINE
  5
9A
  8
LAYER_1
 66
     1
 10
0.0
 20
0.0
 30
0.0
 70
     1
  0
VERTEX
  5
1A3
  8
LAYER_1
 10
16.075
 20
6.0375
 30
0.0
 42
0.4142135623730951
  0
VERTEX
  5
1A4
  8
LAYER_1
 10
15.7
 20
5.6625
 30
0.0
 42
0.4142135623730951
  0
VERTEX
  5
1A5
  8
LAYER_1
 10
16.075
 20
5.2875
 30
0.0
 42
0.4142135623730951
  0
VERTEX
  5
1A6
  8
LAYER_1
 10
16.45
 20
5.6625
 30
0.0
 42
0.4142135623730951
  0
SEQEND
  5
C3D
  8
LAYER_1
  0
POLYLINE
  5
9B
  8
LAYER_1
 66
     1
 10
0.0
 20
0.0
 30
0.0
 70
     1
  0
VERTEX
  5
1A7
  8
LAYER_1
 10
16.075
 20
4.8375
 30
0.0
 42
0.4142135623730951
  0
VERTEX
  5
1A8
  8
LAYER_1
 10
15.7
 20
4.4625
 30
0.0
 42
0.4142135623730951
  0
VERTEX
  5
1A9
  8
LAYER_1
 10
16.075
 20
4.0875
 30
0.0
 42
0.4142135623730951
  0
VERTEX
  5
1AA
  8
LAYER_1
 10
16.45
 20
4.4625
 30
0.0
 42
0.4142135623730951
  0
SEQEND
  5
C3E
  8
LAYER_1
  0
POLYLINE
  5
9C
  8
LAYER_1
 66
     1
 10
0.0
 20
0.0
 30
0.0
 70
     1
  0
VERTEX
  5
1AB
  8
LAYER_1
 10
5.5
 20
5.200000000000001
 30
0.0
 42
0.4142135623730951
  0
VERTEX
  5
1AC
  8
LAYER_1
 10
5.125
 20
4.825000000000001
 30
0.0
 42
0.4142135623730951
  0
VERTEX
  5
1AD
  8
LAYER_1
 10
5.5
 20
4.450000000000001
 30
0.0
 42
0.4142135623730951
  0
VERTEX
  5
1AE
  8
LAYER_1
 10
5.875
 20
4.825000000000001
 30
0.0
 42
0.4142135623730951
  0
SEQEND
  5
C3F
  8
LAYER_1
  0
POLYLINE
  5
9D
  8
LAYER_1
 66
     1
 10
0.0
 20
0.0
 30
0.0
 70
     1
  0
VERTEX
  5
1AF
  8
LAYER_1
 10
5.5
 20
2.65
 30
0.0
 42
0.4142135623730951
  0
VERTEX
  5
1B0
  8
LAYER_1
 10
5.125
 20
2.275
 30
0.0
 42
0.4142135623730951
  0
VERTEX
  5
1B1
  8
LAYER_1
 10
5.5
 20
1.9
 30
0.0
 42
0.4142135623730951
  0
VERTEX
  5
1B2
  8
LAYER_1
 10
5.875
 20
2.275
 30
0.0
 42
0.4142135623730951
  0
SEQEND
  5
C40
  8
LAYER_1
  0
POLYLINE
  5
9E
  8
LAYER_1
 66
     1
 10
0.0
 20
0.0
 30
0.0
 70
     1
  0
VERTEX
  5
1B3
  8
LAYER_1
 10
1.725
 20
5.42
 30
0.0
  0
VERTEX
  5
1B4
  8
LAYER_1
 10
1.725
 20
1.68
 30
0.0
 42
0.4142135623731029
  0
VERTEX
  5
1B5
  8
LAYER_1
 10
1.855
 20
1.549999999999999
 30
0.0
  0
VERTEX
  5
1B6
  8
LAYER_1
 10
6.145
 20
1.549999999999999
 30
0.0
 42
0.4142135623732953
  0
VERTEX
  5
1B7
  8
LAYER_1
 10
6.275
 20
1.68
 30
0.0
  0
VERTEX
  5
1B8
  8
LAYER_1
 10
6.275
 20
5.42
 30
0.0
 42
0.4142135623731057
  0
VERTEX
  5
1B9
  8
LAYER_1
 10
6.145
 20
5.549999999999999
 30
0.0
  0
VERTEX
  5
1BA
  8
LAYER_1
 10
1.855
 20
5.549999999999999
 30
0.0
 42
0.4142135623731695
  0
SEQEND
  5
C41
  8
LAYER_1
  0
POLYLINE
  5
9F
  8
LAYER_1
 66
     1
 10
0.0
 20
0.0
 30
0.0
 70
     1
  0
VERTEX
  5
1BB
  8
LAYER_1
 10
4.0
 20
5.299999999999999
 30
0.0
 42
0.4142135623730951
  0
VERTEX
  5
1BC
  8
LAYER_1
 10
2.25
 20
3.549999999999999
 30
0.0
 42
0.4142135623730951
  0
VERTEX
  5
1BD
  8
LAYER_1
 10
4.0
 20
1.799999999999999
 30
0.0
 42
0.4142135623730951
  0
VERTEX
  5
1BE
  8
LAYER_1
 10
5.75
 20
3.549999999999999
 30
0.0
 42
0.4142135623730951
  0
SEQEND
  5
C42
  8
LAYER_1
  0
POLYLINE
  5
A0
  8
LAYER_1
 66
     1
 10
0.0
 20
0.0
 30
0.0
 70
     1
  0
VERTEX
  5
1BF
  8
LAYER_1
 10
2.5
 20
2.385
 30
0.0
 42
0.4142135623730951
  0
VERTEX
  5
1C0
  8
LAYER_1
 10
2.39
 20
2.275
 30
0.0
 42
0.4142135623730951
  0
VERTEX
  5
1C1
  8
LAYER_1
 10
2.5
 20
2.165
 30
0.0
 42
0.4142135623730951
  0
VERTEX
  5
1C2
  8
LAYER_1
 10
2.61
 20
2.275
 30
0.0
 42
0.4142135623730951
  0
SEQEND
  5
C43
  8
LAYER_1
  0
POLYLINE
  5
A1
  8
LAYER_1
 66
     1
 10
0.0
 20
0.0
 30
0.0
 70
     1
  0
VERTEX
  5
1C3
  8
LAYER_1
 10
5.5
 20
2.385
 30
0.0
 42
0.4142135623730951
  0
VERTEX
  5
1C4
  8
LAYER_1
 10
5.39
 20
2.275
 30
0.0
 42
0.4142135623730951
  0
VERTEX
  5
1C5
  8
LAYER_1
 10
5.5
 20
2.165
 30
0.0
 42
0.4142135623730951
  0
VERTEX
  5
1C6
  8
LAYER_1
 10
5.61
 20
2.275
 30
0.0
 42
0.4142135623730951
  0
SEQEND
  5
C44
  8
LAYER_1
  0
POLYLINE
  5
A2
  8
LAYER_1
 66
     1
 10
0.0
 20
0.0
 30
0.0
 70
     1
  0
VERTEX
  5
1C7
  8
LAYER_1
 10
5.5
 20
4.935
 30
0.0
 42
0.4142135623730951
  0
VERTEX
  5
1C8
  8
LAYER_1
 10
5.39
 20
4.825
 30
0.0
 42
0.4142135623730951
  0
VERTEX
  5
1C9
  8
LAYER_1
 10
5.5
 20
4.715
 30
0.0
 42
0.4142135623730951
  0
VERTEX
  5
1CA
  8
LAYER_1
 10
5.61
 20
4.825
 30
0.0
 42
0.4142135623730951
  0
SEQEND
  5
C45
  8
LAYER_1
  0
POLYLINE
  5
A3
  8
LAYER_1
 66
     1
 10
0.0
 20
0.0
 30
0.0
 70
     1
  0
VERTEX
  5
1CB
  8
LAYER_1
 10
2.5
 20
4.935
 30
0.0
 42
0.4142135623730951
  0
VERTEX
  5
1CC
  8
LAYER_1
 10
2.39
 20
4.825
 30
0.0
 42
0.4142135623730951
  0
VERTEX
  5
1CD
  8
LAYER_1
 10
2.5
 20
4.715
 30
0.0
 42
0.4142135623730951
  0
VERTEX
  5
1CE
  8
LAYER_1
 10
2.61
 20
4.825
 30
0.0
 42
0.4142135623730951
  0
SEQEND
  5
C46
  8
LAYER_1
  0
POLYLINE
  5
A4
  8
LAYER_1
 66
     1
 10
0.0
 20
0.0
 30
0.0
 70
     1
  0
VERTEX
  5
1CF
  8
LAYER_1
 10
0.8
 20
4.572500000000001
 30
0.0
 42
0.4142135623730951
  0
VERTEX
  5
1D0
  8
LAYER_1
 10
0.6900000000000001
 20
4.4625
 30
0.0
 42
0.4142135623730951
  0
VERTEX
  5
1D1
  8
LAYER_1
 10
0.8
 20
4.3525
 30
0.0
 42
0.4142135623730951
  0
VERTEX
  5
1D2
  8
LAYER_1
 10
0.91
 20
4.4625
 30
0.0
 42
0.4142135623730951
  0
SEQEND
  5
C47
  8
LAYER_1
  0
POLYLINE
  5
A5
  8
LAYER_1
 66
     1
 10
0.0
 20
0.0
 30
0.0
 70
     1
  0
VERTEX
  5
1D3
  8
LAYER_1
 10
0.8
 20
5.7725
 30
0.0
 42
0.4142135623730951
  0
VERTEX
  5
1D4
  8
LAYER_1
 10
0.6900000000000001
 20
5.6625
 30
0.0
 42
0.4142135623730951
  0
VERTEX
  5
1D5
  8
LAYER_1
 10
0.8
 20
5.552499999999999
 30
0.0
 42
0.4142135623730951
  0
VERTEX
  5
1D6
  8
LAYER_1
 10
0.91
 20
5.6625
 30
0.0
 42
0.4142135623730951
  0
SEQEND
  5
C48
  8
LAYER_1
  0
POLYLINE
  5
A6
  8
LAYER_1
 66
     1
 10
0.0
 20
0.0
 30
0.0
 70
     1
  0
VERTEX
  5
1D7
  8
LAYER_1
 10
1.5
 20
0.71
 30
0.0
 42
0.4142135623730951
  0
VERTEX
  5
1D8
  8
LAYER_1
 10
1.39
 20
0.6
 30
0.0
 42
0.4142135623730951
  0
VERTEX
  5
1D9
  8
LAYER_1
 10
1.5
 20
0.49
 30
0.0
 42
0.4142135623730951
  0
VERTEX
  5
1DA
  8
LAYER_1
 10
1.61
 20
0.6
 30
0.0
 42
0.4142135623730951
  0
SEQEND
  5
C49
  8
LAYER_1
  0
POLYLINE
  5
A7
  8
LAYER_1
 66
     1
 10
0.0
 20
0.0
 30
0.0
 70
     1
  0
VERTEX
  5
1DB
  8
LAYER_1
 10
8.4375
 20
0.71
 30
0.0
 42
0.4142135623730951
  0
VERTEX
  5
1DC
  8
LAYER_1
 10
8.3275
 20
0.6
 30
0.0
 42
0.4142135623730951
  0
VERTEX
  5
1DD
  8
LAYER_1
 10
8.4375
 20
0.49
 30
0.0
 42
0.4142135623730951
  0
VERTEX
  5
1DE
  8
LAYER_1
 10
8.5475
 20
0.6
 30
0.0
 42
0.4142135623730951
  0
SEQEND
  5
C4A
  8
LAYER_1
  0
POLYLINE
  5
A8
  8
LAYER_1
 66
     1
 10
0.0
 20
0.0
 30
0.0
 70
     1
  0
VERTEX
  5
1DF
  8
LAYER_1
 10
11.375
 20
2.385
 30
0.0
 42
0.4142135623730951
  0
VERTEX
  5
1E0
  8
LAYER_1
 10
11.265
 20
2.275
 30
0.0
 42
0.4142135623730951
  0
VERTEX
  5
1E1
  8
LAYER_1
 10
11.375
 20
2.165
 30
0.0
 42
0.4142135623730951
  0
VERTEX
  5
1E2
  8
LAYER_1
 10
11.485
 20
2.275
 30
0.0
 42
0.4142135623730951
  0
SEQEND
  5
C4B
  8
LAYER_1
  0
POLYLINE
  5
A9
  8
LAYER_1
 66
     1
 10
0.0
 20
0.0
 30
0.0
 70
     1
  0
VERTEX
  5
1E3
  8
LAYER_1
 10
11.375
 20
4.935
 30
0.0
 42
0.4142135623730951
  0
VERTEX
  5
1E4
  8
LAYER_1
 10
11.265
 20
4.825
 30
0.0
 42
0.4142135623730951
  0
VERTEX
  5
1E5
  8
LAYER_1
 10
11.375
 20
4.715
 30
0.0
 42
0.4142135623730951
  0
VERTEX
  5
1E6
  8
LAYER_1
 10
11.485
 20
4.825
 30
0.0
 42
0.4142135623730951
  0
SEQEND
  5
C4C
  8
LAYER_1
  0
POLYLINE
  5
AA
  8
LAYER_1
 66
     1
 10
0.0
 20
0.0
 30
0.0
 70
     1
  0
VERTEX
  5
1E7
  8
LAYER_1
 10
15.375
 20
0.71
 30
0.0
 42
0.4142135623730951
  0
VERTEX
  5
1E8
  8
LAYER_1
 10
15.265
 20
0.6
 30
0.0
 42
0.4142135623730951
  0
VERTEX
  5
1E9
  8
LAYER_1
 10
15.375
 20
0.49
 30
0.0
 42
0.4142135623730951
  0
VERTEX
  5
1EA
  8
LAYER_1
 10
15.485
 20
0.6
 30
0.0
 42
0.4142135623730951
  0
SEQEND
  5
C4D
  8
LAYER_1
  0
POLYLINE
  5
AB
  8
LAYER_1
 66
     1
 10
0.0
 20
0.0
 30
0.0
 70
     1
  0
VERTEX
  5
1EB
  8
LAYER_1
 10
14.375
 20
2.385
 30
0.0
 42
0.4142135623730951
  0
VERTEX
  5
1EC
  8
LAYER_1
 10
14.265
 20
2.275
 30
0.0
 42
0.4142135623730951
  0
VERTEX
  5
1ED
  8
LAYER_1
 10
14.375
 20
2.165
 30
0.0
 42
0.4142135623730951
  0
VERTEX
  5
1EE
  8
LAYER_1
 10
14.485
 20
2.275
 30
0.0
 42
0.4142135623730951
  0
SEQEND
  5
C4E
  8
LAYER_1
  0
POLYLINE
  5
AC
  8
LAYER_1
 66
     1
 10
0.0
 20
0.0
 30
0.0
 70
     1
  0
VERTEX
  5
1EF
  8
LAYER_1
 10
14.375
 20
4.935
 30
0.0
 42
0.4142135623730951
  0
VERTEX
  5
1F0
  8
LAYER_1
 10
14.265
 20
4.825
 30
0.0
 42
0.4142135623730951
  0
VERTEX
  5
1F1
  8
LAYER_1
 10
14.375
 20
4.715
 30
0.0
 42
0.4142135623730951
  0
VERTEX
  5
1F2
  8
LAYER_1
 10
14.485
 20
4.825
 30
0.0
 42
0.4142135623730951
  0
SEQEND
  5
C4F
  8
LAYER_1
  0
POLYLINE
  5
AD
  8
LAYER_1
 66
     1
 10
0.0
 20
0.0
 30
0.0
 70
     1
  0
VERTEX
  5
1F3
  8
LAYER_1
 10
16.075
 20
4.572500000000001
 30
0.0
 42
0.4142135623730951
  0
VERTEX
  5
1F4
  8
LAYER_1
 10
15.965
 20
4.4625
 30
0.0
 42
0.4142135623730951
  0
VERTEX
  5
1F5
  8
LAYER_1
 10
16.075
 20
4.3525
 30
0.0
 42
0.4142135623730951
  0
VERTEX
  5
1F6
  8
LAYER_1
 10
16.185
 20
4.4625
 30
0.0
 42
0.4142135623730951
  0
SEQEND
  5
C50
  8
LAYER_1
  0
POLYLINE
  5
AE
  8
LAYER_1
 66
     1
 10
0.0
 20
0.0
 30
0.0
 70
     1
  0
VERTEX
  5
1F7
  8
LAYER_1
 10
16.075
 20
5.7725
 30
0.0
 42
0.4142135623730951
  0
VERTEX
  5
1F8
  8
LAYER_1
 10
15.965
 20
5.6625
 30
0.0
 42
0.4142135623730951
  0
VERTEX
  5
1F9
  8
LAYER_1
 10
16.075
 20
5.552499999999999
 30
0.0
 42
0.4142135623730951
  0
VERTEX
  5
1FA
  8
LAYER_1
 10
16.185
 20
5.6625
 30
0.0
 42
0.4142135623730951
  0
SEQEND
  5
C51
  8
LAYER_1
  0
POLYLINE
  5
AF
  8
LAYER_1
 66
     1
 10
0.0
 20
0.0
 30
0.0
 70
     1
  0
VERTEX
  5
1FB
  8
LAYER_1
 10
0.0157291622804303
 20
9.02299120688145
 30
0.0
  0
VERTEX
  5
1FC
  8
LAYER_1
 10
16.89072916228043
 20
9.02299120688145
 30
0.0
  0
VERTEX
  5
1FD
  8
LAYER_1
 10
16.89072916228043
 20
15.83549120688145
 30
0.0
  0
VERTEX
  5
1FE
  8
LAYER_1
 10
0.0157291622804303
 20
15.83549120688145
 30
0.0
  0
SEQEND
  5
C52
  8
LAYER_1
  0
POLYLINE
  5
B0
  8
LAYER_1
 66
     1
 10
0.0
 20
0.0
 30
0.0
 70
     1
  0
VERTEX
  5
1FF
  8
LAYER_1
 10
4.01572916228043
 20
13.27299120688145
 30
0.0
 42
0.4142135623730951
  0
VERTEX
  5
200
  8
LAYER_1
 10
3.31572916228043
 20
12.57299120688145
 30
0.0
 42
0.4142135623730951
  0
VERTEX
  5
201
  8
LAYER_1
 10
4.01572916228043
 20
11.87299120688145
 30
0.0
 42
0.4142135623730951
  0
VERTEX
  5
202
  8
LAYER_1
 10
4.71572916228043
 20
12.57299120688145
 30
0.0
 42
0.4142135623730951
  0
SEQEND
  5
C53
  8
LAYER_1
  0
POLYLINE
  5
B1
  8
LAYER_1
 66
     1
 10
0.0
 20
0.0
 30
0.0
 70
     1
  0
VERTEX
  5
203
  8
LAYER_1
 10
12.89072916228043
 20
13.27299120688145
 30
0.0
 42
0.4142135623730951
  0
VERTEX
  5
204
  8
LAYER_1
 10
12.19072916228043
 20
12.57299120688145
 30
0.0
 42
0.4142135623730951
  0
VERTEX
  5
205
  8
LAYER_1
 10
12.89072916228043
 20
11.87299120688145
 30
0.0
 42
0.4142135623730951
  0
VERTEX
  5
206
  8
LAYER_1
 10
13.59072916228043
 20
12.57299120688145
 30
0.0
 42
0.4142135623730951
  0
SEQEND
  5
C54
  8
LAYER_1
  0
POLYLINE
  5
B2
  8
LAYER_1
 66
     1
 10
0.0
 20
0.0
 30
0.0
 70
     1
  0
VERTEX
  5
207
  8
LAYER_1
 10
7.26572916228043
 20
14.53549120688145
 30
0.0
 42
0.4142135623730951
  0
VERTEX
  5
208
  8
LAYER_1
 10
6.89072916228043
 20
14.16049120688145
 30
0.0
 42
0.4142135623730951
  0
VERTEX
  5
209
  8
LAYER_1
 10
7.26572916228043
 20
13.78549120688145
 30
0.0
 42
0.4142135623730951
  0
VERTEX
  5
20A
  8
LAYER_1
 10
7.64072916228043
 20
14.16049120688145
 30
0.0
 42
0.4142135623730951
  0
SEQEND
  5
C55
  8
LAYER_1
  0
POLYLINE
  5
B3
  8
LAYER_1
 66
     1
 10
0.0
 20
0.0
 30
0.0
 70
     1
  0
VERTEX
  5
20B
  8
LAYER_1
 10
9.64072916228043
 20
14.53549120688145
 30
0.0
 42
0.4142135623730951
  0
VERTEX
  5
20C
  8
LAYER_1
 10
9.26572916228043
 20
14.16049120688145
 30
0.0
 42
0.4142135623730951
  0
VERTEX
  5
20D
  8
LAYER_1
 10
9.64072916228043
 20
13.78549120688145
 30
0.0
 42
0.4142135623730951
  0
VERTEX
  5
20E
  8
LAYER_1
 10
10.01572916228043
 20
14.16049120688145
 30
0.0
 42
0.4142135623730951
  0
SEQEND
  5
C56
  8
LAYER_1
  0
POLYLINE
  5
B4
  8
LAYER_1
 66
     1
 10
0.0
 20
0.0
 30
0.0
 70
     1
  0
VERTEX
  5
20F
  8
LAYER_1
 10
7.26572916228043
 20
14.73549120688145
 30
0.0
 42
0.4142135623730951
  0
VERTEX
  5
210
  8
LAYER_1
 10
6.69072916228043
 20
14.16049120688145
 30
0.0
 42
0.4142135623730951
  0
VERTEX
  5
211
  8
LAYER_1
 10
7.26572916228043
 20
13.58549120688145
 30
0.0
 42
0.4142135623730951
  0
VERTEX
  5
212
  8
LAYER_1
 10
7.84072916228043
 20
14.16049120688145
 30
0.0
 42
0.4142135623730951
  0
SEQEND
  5
C57
  8
LAYER_1
  0
POLYLINE
  5
B5
  8
LAYER_1
 66
     1
 10
0.0
 20
0.0
 30
0.0
 70
     1
  0
VERTEX
  5
213
  8
LAYER_1
 10
9.64072916228043
 20
14.73549120688145
 30
0.0
 42
0.4142135623730951
  0
VERTEX
  5
214
  8
LAYER_1
 10
9.06572916228043
 20
14.16049120688145
 30
0.0
 42
0.4142135623730951
  0
VERTEX
  5
215
  8
LAYER_1
 10
9.64072916228043
 20
13.58549120688145
 30
0.0
 42
0.4142135623730951
  0
VERTEX
  5
216
  8
LAYER_1
 10
10.21572916228043
 20
14.16049120688145
 30
0.0
 42
0.4142135623730951
  0
SEQEND
  5
C58
  8
LAYER_1
  0
POLYLINE
  5
B6
  8
LAYER_1
 66
     1
 10
0.0
 20
0.0
 30
0.0
 70
     1
  0
VERTEX
  5
217
  8
LAYER_1
 10
7.26572916228043
 20
14.53549120688145
 30
0.0
 42
0.4142135623730951
  0
VERTEX
  5
218
  8
LAYER_1
 10
6.89072916228043
 20
14.16049120688145
 30
0.0
 42
0.4142135623730951
  0
VERTEX
  5
219
  8
LAYER_1
 10
7.26572916228043
 20
13.78549120688145
 30
0.0
 42
0.4142135623730951
  0
VERTEX
  5
21A
  8
LAYER_1
 10
7.64072916228043
 20
14.16049120688145
 30
0.0
 42
0.4142135623730951
  0
SEQEND
  5
C59
  8
LAYER_1
  0
POLYLINE
  5
B7
  8
LAYER_1
 66
     1
 10
0.0
 20
0.0
 30
0.0
 70
     1
  0
VERTEX
  5
21B
  8
LAYER_1
 10
9.64072916228043
 20
14.53549120688145
 30
0.0
 42
0.4142135623730951
  0
VERTEX
  5
21C
  8
LAYER_1
 10
9.26572916228043
 20
14.16049120688145
 30
0.0
 42
0.4142135623730951
  0
VERTEX
  5
21D
  8
LAYER_1
 10
9.64072916228043
 20
13.78549120688145
 30
0.0
 42
0.4142135623730951
  0
VERTEX
  5
21E
  8
LAYER_1
 10
10.01572916228043
 20
14.16049120688145
 30
0.0
 42
0.4142135623730951
  0
SEQEND
  5
C5A
  8
LAYER_1
  0
POLYLINE
  5
B8
  8
LAYER_1
 66
     1
 10
0.0
 20
0.0
 30
0.0
 70
     1
  0
VERTEX
  5
21F
  8
LAYER_1
 10
7.26572916228043
 20
14.73549120688145
 30
0.0
 42
0.4142135623730951
  0
VERTEX
  5
220
  8
LAYER_1
 10
6.69072916228043
 20
14.16049120688145
 30
0.0
 42
0.4142135623730951
  0
VERTEX
  5
221
  8
LAYER_1
 10
7.26572916228043
 20
13.58549120688145
 30
0.0
 42
0.4142135623730951
  0
VERTEX
  5
222
  8
LAYER_1
 10
7.84072916228043
 20
14.16049120688145
 30
0.0
 42
0.4142135623730951
  0
SEQEND
  5
C5B
  8
LAYER_1
  0
POLYLINE
  5
B9
  8
LAYER_1
 66
     1
 10
0.0
 20
0.0
 30
0.0
 70
     1
  0
VERTEX
  5
223
  8
LAYER_1
 10
9.64072916228043
 20
14.73549120688145
 30
0.0
 42
0.4142135623730951
  0
VERTEX
  5
224
  8
LAYER_1
 10
9.06572916228043
 20
14.16049120688145
 30
0.0
 42
0.4142135623730951
  0
VERTEX
  5
225
  8
LAYER_1
 10
9.64072916228043
 20
13.58549120688145
 30
0.0
 42
0.4142135623730951
  0
VERTEX
  5
226
  8
LAYER_1
 10
10.21572916228043
 20
14.16049120688145
 30
0.0
 42
0.4142135623730951
  0
SEQEND
  5
C5C
  8
LAYER_1
  0
POLYLINE
  5
BA
  8
LAYER_1
 66
     1
 10
0.0
 20
0.0
 30
0.0
 70
     1
  0
VERTEX
  5
227
  8
LAYER_1
 10
2.51572916228043
 20
11.40799120688145
 30
0.0
 42
0.4142135623730951
  0
VERTEX
  5
228
  8
LAYER_1
 10
2.40572916228043
 20
11.29799120688145
 30
0.0
 42
0.4142135623730951
  0
VERTEX
  5
229
  8
LAYER_1
 10
2.51572916228043
 20
11.18799120688145
 30
0.0
 42
0.4142135623730951
  0
VERTEX
  5
22A
  8
LAYER_1
 10
2.62572916228043
 20
11.29799120688145
 30
0.0
 42
0.4142135623730951
  0
SEQEND
  5
C5D
  8
LAYER_1
  0
POLYLINE
  5
BB
  8
LAYER_1
 66
     1
 10
0.0
 20
0.0
 30
0.0
 70
     1
  0
VERTEX
  5
22B
  8
LAYER_1
 10
5.51572916228043
 20
11.40799120688145
 30
0.0
 42
0.4142135623730951
  0
VERTEX
  5
22C
  8
LAYER_1
 10
5.40572916228043
 20
11.29799120688145
 30
0.0
 42
0.4142135623730951
  0
VERTEX
  5
22D
  8
LAYER_1
 10
5.51572916228043
 20
11.18799120688145
 30
0.0
 42
0.4142135623730951
  0
VERTEX
  5
22E
  8
LAYER_1
 10
5.625729162280431
 20
11.29799120688145
 30
0.0
 42
0.4142135623730951
  0
SEQEND
  5
C5E
  8
LAYER_1
  0
POLYLINE
  5
BC
  8
LAYER_1
 66
     1
 10
0.0
 20
0.0
 30
0.0
 70
     1
  0
VERTEX
  5
22F
  8
LAYER_1
 10
5.51572916228043
 20
13.95799120688145
 30
0.0
 42
0.4142135623730951
  0
VERTEX
  5
230
  8
LAYER_1
 10
5.40572916228043
 20
13.84799120688145
 30
0.0
 42
0.4142135623730951
  0
VERTEX
  5
231
  8
LAYER_1
 10
5.51572916228043
 20
13.73799120688145
 30
0.0
 42
0.4142135623730951
  0
VERTEX
  5
232
  8
LAYER_1
 10
5.625729162280431
 20
13.84799120688145
 30
0.0
 42
0.4142135623730951
  0
SEQEND
  5
C5F
  8
LAYER_1
  0
POLYLINE
  5
BD
  8
LAYER_1
 66
     1
 10
0.0
 20
0.0
 30
0.0
 70
     1
  0
VERTEX
  5
233
  8
LAYER_1
 10
2.51572916228043
 20
13.95799120688145
 30
0.0
 42
0.4142135623730951
  0
VERTEX
  5
234
  8
LAYER_1
 10
2.40572916228043
 20
13.84799120688145
 30
0.0
 42
0.4142135623730951
  0
VERTEX
  5
235
  8
LAYER_1
 10
2.51572916228043
 20
13.73799120688145
 30
0.0
 42
0.4142135623730951
  0
VERTEX
  5
236
  8
LAYER_1
 10
2.62572916228043
 20
13.84799120688145
 30
0.0
 42
0.4142135623730951
  0
SEQEND
  5
C60
  8
LAYER_1
  0
POLYLINE
  5
BE
  8
LAYER_1
 66
     1
 10
0.0
 20
0.0
 30
0.0
 70
     1
  0
VERTEX
  5
237
  8
LAYER_1
 10
0.8157291622804304
 20
13.59549120688145
 30
0.0
 42
0.4142135623730951
  0
VERTEX
  5
238
  8
LAYER_1
 10
0.7057291622804304
 20
13.48549120688145
 30
0.0
 42
0.4142135623730951
  0
VERTEX
  5
239
  8
LAYER_1
 10
0.8157291622804304
 20
13.37549120688145
 30
0.0
 42
0.4142135623730951
  0
VERTEX
  5
23A
  8
LAYER_1
 10
0.9257291622804305
 20
13.48549120688145
 30
0.0
 42
0.4142135623730951
  0
SEQEND
  5
C61
  8
LAYER_1
  0
POLYLINE
  5
BF
  8
LAYER_1
 66
     1
 10
0.0
 20
0.0
 30
0.0
 70
     1
  0
VERTEX
  5
23B
  8
LAYER_1
 10
0.8157291622804304
 20
14.79549120688145
 30
0.0
 42
0.4142135623730951
  0
VERTEX
  5
23C
  8
LAYER_1
 10
0.7057291622804304
 20
14.68549120688145
 30
0.0
 42
0.4142135623730951
  0
VERTEX
  5
23D
  8
LAYER_1
 10
0.8157291622804304
 20
14.57549120688145
 30
0.0
 42
0.4142135623730951
  0
VERTEX
  5
23E
  8
LAYER_1
 10
0.9257291622804305
 20
14.68549120688145
 30
0.0
 42
0.4142135623730951
  0
SEQEND
  5
C62
  8
LAYER_1
  0
POLYLINE
  5
C0
  8
LAYER_1
 66
     1
 10
0.0
 20
0.0
 30
0.0
 70
     1
  0
VERTEX
  5
23F
  8
LAYER_1
 10
1.51572916228043
 20
9.73299120688145
 30
0.0
 42
0.4142135623730951
  0
VERTEX
  5
240
  8
LAYER_1
 10
1.40572916228043
 20
9.62299120688145
 30
0.0
 42
0.4142135623730951
  0
VERTEX
  5
241
  8
LAYER_1
 10
1.51572916228043
 20
9.51299120688145
 30
0.0
 42
0.4142135623730951
  0
VERTEX
  5
242
  8
LAYER_1
 10
1.62572916228043
 20
9.62299120688145
 30
0.0
 42
0.4142135623730951
  0
SEQEND
  5
C63
  8
LAYER_1
  0
POLYLINE
  5
C1
  8
LAYER_1
 66
     1
 10
0.0
 20
0.0
 30
0.0
 70
     1
  0
VERTEX
  5
243
  8
LAYER_1
 10
8.45322916228043
 20
9.73299120688145
 30
0.0
 42
0.4142135623730951
  0
VERTEX
  5
244
  8
LAYER_1
 10
8.34322916228043
 20
9.62299120688145
 30
0.0
 42
0.4142135623730951
  0
VERTEX
  5
245
  8
LAYER_1
 10
8.45322916228043
 20
9.51299120688145
 30
0.0
 42
0.4142135623730951
  0
VERTEX
  5
246
  8
LAYER_1
 10
8.563229162280429
 20
9.62299120688145
 30
0.0
 42
0.4142135623730951
  0
SEQEND
  5
C64
  8
LAYER_1
  0
POLYLINE
  5
C2
  8
LAYER_1
 66
     1
 10
0.0
 20
0.0
 30
0.0
 70
     1
  0
VERTEX
  5
247
  8
LAYER_1
 10
11.39072916228043
 20
11.40799120688145
 30
0.0
 42
0.4142135623730951
  0
VERTEX
  5
248
  8
LAYER_1
 10
11.28072916228043
 20
11.29799120688145
 30
0.0
 42
0.4142135623730951
  0
VERTEX
  5
249
  8
LAYER_1
 10
11.39072916228043
 20
11.18799120688145
 30
0.0
 42
0.4142135623730951
  0
VERTEX
  5
24A
  8
LAYER_1
 10
11.50072916228043
 20
11.29799120688145
 30
0.0
 42
0.4142135623730951
  0
SEQEND
  5
C65
  8
LAYER_1
  0
POLYLINE
  5
C3
  8
LAYER_1
 66
     1
 10
0.0
 20
0.0
 30
0.0
 70
     1
  0
VERTEX
  5
24B
  8
LAYER_1
 10
11.39072916228043
 20
13.95799120688145
 30
0.0
 42
0.4142135623730951
  0
VERTEX
  5
24C
  8
LAYER_1
 10
11.28072916228043
 20
13.84799120688145
 30
0.0
 42
0.4142135623730951
  0
VERTEX
  5
24D
  8
LAYER_1
 10
11.39072916228043
 20
13.73799120688145
 30
0.0
 42
0.4142135623730951
  0
VERTEX
  5
24E
  8
LAYER_1
 10
11.50072916228043
 20
13.84799120688145
 30
0.0
 42
0.4142135623730951
  0
SEQEND
  5
C66
  8
LAYER_1
  0
POLYLINE
  5
C4
  8
LAYER_1
 66
     1
 10
0.0
 20
0.0
 30
0.0
 70
     1
  0
VERTEX
  5
24F
  8
LAYER_1
 10
15.39072916228043
 20
9.73299120688145
 30
0.0
 42
0.4142135623730951
  0
VERTEX
  5
250
  8
LAYER_1
 10
15.28072916228043
 20
9.62299120688145
 30
0.0
 42
0.4142135623730951
  0
VERTEX
  5
251
  8
LAYER_1
 10
15.39072916228043
 20
9.51299120688145
 30
0.0
 42
0.4142135623730951
  0
VERTEX
  5
252
  8
LAYER_1
 10
15.50072916228043
 20
9.62299120688145
 30
0.0
 42
0.4142135623730951
  0
SEQEND
  5
C67
  8
LAYER_1
  0
POLYLINE
  5
C5
  8
LAYER_1
 66
     1
 10
0.0
 20
0.0
 30
0.0
 70
     1
  0
VERTEX
  5
253
  8
LAYER_1
 10
14.39072916228043
 20
11.40799120688145
 30
0.0
 42
0.4142135623730951
  0
VERTEX
  5
254
  8
LAYER_1
 10
14.28072916228043
 20
11.29799120688145
 30
0.0
 42
0.4142135623730951
  0
VERTEX
  5
255
  8
LAYER_1
 10
14.39072916228043
 20
11.18799120688145
 30
0.0
 42
0.4142135623730951
  0
VERTEX
  5
256
  8
LAYER_1
 10
14.50072916228043
 20
11.29799120688145
 30
0.0
 42
0.4142135623730951
  0
SEQEND
  5
C68
  8
LAYER_1
  0
POLYLINE
  5
C6
  8
LAYER_1
 66
     1
 10
0.0
 20
0.0
 30
0.0
 70
     1
  0
VERTEX
  5
257
  8
LAYER_1
 10
14.39072916228043
 20
13.95799120688145
 30
0.0
 42
0.4142135623730951
  0
VERTEX
  5
258
  8
LAYER_1
 10
14.28072916228043
 20
13.84799120688145
 30
0.0
 42
0.4142135623730951
  0
VERTEX
  5
259
  8
LAYER_1
 10
14.39072916228043
 20
13.73799120688145
 30
0.0
 42
0.4142135623730951
  0
VERTEX
  5
25A
  8
LAYER_1
 10
14.50072916228043
 20
13.84799120688145
 30
0.0
 42
0.4142135623730951
  0
SEQEND
  5
C69
  8
LAYER_1
  0
POLYLINE
  5
C7
  8
LAYER_1
 66
     1
 10
0.0
 20
0.0
 30
0.0
 70
     1
  0
VERTEX
  5
25B
  8
LAYER_1
 10
16.09072916228043
 20
13.59549120688145
 30
0.0
 42
0.4142135623730951
  0
VERTEX
  5
25C
  8
LAYER_1
 10
15.98072916228043
 20
13.48549120688145
 30
0.0
 42
0.4142135623730951
  0
VERTEX
  5
25D
  8
LAYER_1
 10
16.09072916228043
 20
13.37549120688145
 30
0.0
 42
0.4142135623730951
  0
VERTEX
  5
25E
  8
LAYER_1
 10
16.20072916228043
 20
13.48549120688145
 30
0.0
 42
0.4142135623730951
  0
SEQEND
  5
C6A
  8
LAYER_1
  0
POLYLINE
  5
C8
  8
LAYER_1
 66
     1
 10
0.0
 20
0.0
 30
0.0
 70
     1
  0
VERTEX
  5
25F
  8
LAYER_1
 10
16.09072916228043
 20
14.79549120688145
 30
0.0
 42
0.4142135623730951
  0
VERTEX
  5
260
  8
LAYER_1
 10
15.98072916228043
 20
14.68549120688145
 30
0.0
 42
0.4142135623730951
  0
VERTEX
  5
261
  8
LAYER_1
 10
16.09072916228043
 20
14.57549120688145
 30
0.0
 42
0.4142135623730951
  0
VERTEX
  5
262
  8
LAYER_1
 10
16.20072916228043
 20
14.68549120688145
 30
0.0
 42
0.4142135623730951
  0
SEQEND
  5
C6B
  8
LAYER_1
  0
POLYLINE
  5
C9
  8
LAYER_1
 66
     1
 10
0.0
 20
0.0
 30
0.0
 70
     1
  0
VERTEX
  5
263
  8
LAYER_1
 10
3.125905497151886
 20
9.794056632062729
 30
0.0
  0
VERTEX
  5
264
  8
LAYER_1
 10
3.125905497151886
 20
14.43931042243847
 30
0.0
  0
VERTEX
  5
265
  8
LAYER_1
 10
1.703229162280429
 20
14.43931042243847
 30
0.0
  0
VERTEX
  5
266
  8
LAYER_1
 10
1.703229162280429
 20
15.06083316469292
 30
0.0
  0
VERTEX
  5
267
  8
LAYER_1
 10
5.126993170190778
 20
15.06083316469292
 30
0.0
  0
VERTEX
  5
268
  8
LAYER_1
 10
5.126993170190778
 20
14.43931042243847
 30
0.0
  0
VERTEX
  5
269
  8
LAYER_1
 10
3.697131601304819
 20
14.43931042243847
 30
0.0
  0
VERTEX
  5
26A
  8
LAYER_1
 10
3.697131601304819
 20
9.794056632062729
 30
0.0
  0
SEQEND
  5
C6C
  8
LAYER_1
  0
POLYLINE
  5
CA
  8
LAYER_1
 66
     1
 10
0.0
 20
0.0
 30
0.0
 70
     1
  0
VERTEX
  5
26B
  8
LAYER_1
 10
5.439550849821629
 20
12.35918517524005
 30
0.0
  0
VERTEX
  5
26C
  8
LAYER_1
 10
5.440129738304242
 20
12.44277842633699
 30
0.0
  0
VERTEX
  5
26D
  8
LAYER_1
 10
5.441866403752083
 20
12.52515425741293
 30
0.0
  0
VERTEX
  5
26E
  8
LAYER_1
 10
5.443168902837964
 20
12.56588564044301
 30
0.0
  0
VERTEX
  5
26F
  8
LAYER_1
 10
5.444760846165152
 20
12.60631266846785
 30
0.0
  0
VERTEX
  5
270
  8
LAYER_1
 10
5.446642233733646
 20
12.64643534148743
 30
0.0
  0
VERTEX
  5
271
  8
LAYER_1
 10
5.448813065543447
 20
12.68625365950175
 30
0.0
  0
VERTEX
  5
272
  8
LAYER_1
 10
5.451273341594556
 20
12.72576762251083
 30
0.0
  0
VERTEX
  5
273
  8
LAYER_1
 10
5.454023061886971
 20
12.76497723051465
 30
0.0
  0
VERTEX
  5
274
  8
LAYER_1
 10
5.457062226420694
 20
12.80388248351322
 30
0.0
  0
VERTEX
  5
275
  8
LAYER_1
 10
5.460390835195723
 20
12.84248338150653
 30
0.0
  0
VERTEX
  5
276
  8
LAYER_1
 10
5.464008888212058
 20
12.8807799244946
 30
0.0
  0
VERTEX
  5
277
  8
LAYER_1
 10
5.4679163854697
 20
12.9187721124774
 30
0.0
  0
VERTEX
  5
278
  8
LAYER_1
 10
5.47211332696865
 20
12.95645994545496
 30
0.0
  0
VERTEX
  5
279
  8
LAYER_1
 10
5.476599712708906
 20
12.99384342342726
 30
0.0
  0
VERTEX
  5
27A
  8
LAYER_1
 10
5.48137554269047
 20
13.03092254639431
 30
0.0
  0
VERTEX
  5
27B
  8
LAYER_1
 10
5.48644081691334
 20
13.06769731435611
 30
0.0
  0
VERTEX
  5
27C
  8
LAYER_1
 10
5.491795535377516
 20
13.10416772731265
 30
0.0
  0
VERTEX
  5
27D
  8
LAYER_1
 10
5.497439698082999
 20
13.14033378526395
 30
0.0
  0
VERTEX
  5
27E
  8
LAYER_1
 10
5.50337330502979
 20
13.17619548820999
 30
0.0
  0
VERTEX
  5
27F
  8
LAYER_1
 10
5.509596356217887
 20
13.21175283615077
 30
0.0
  0
VERTEX
  5
280
  8
LAYER_1
 10
5.516108851647292
 20
13.2470058290863
 30
0.0
  0
VERTEX
  5
281
  8
LAYER_1
 10
5.522910791318003
 20
13.28195446701658
 30
0.0
  0
VERTEX
  5
282
  8
LAYER_1
 10
5.53000217523002
 20
13.31659874994161
 30
0.0
  0
VERTEX
  5
283
  8
LAYER_1
 10
5.537383003383345
 20
13.35093867786139
 30
0.0
  0
VERTEX
  5
284
  8
LAYER_1
 10
5.545053275777978
 20
13.3849742507759
 30
0.0
  0
VERTEX
  5
285
  8
LAYER_1
 10
5.553012992413916
 20
13.41870546868517
 30
0.0
  0
VERTEX
  5
286
  8
LAYER_1
 10
5.561262153291162
 20
13.45213233158919
 30
0.0
  0
VERTEX
  5
287
  8
LAYER_1
 10
5.569800758409714
 20
13.48525483948795
 30
0.0
  0
VERTEX
  5
288
  8
LAYER_1
 10
5.578628807769574
 20
13.51807299238146
 30
0.0
  0
VERTEX
  5
289
  8
LAYER_1
 10
5.587746301370739
 20
13.55058679026972
 30
0.0
  0
VERTEX
  5
28A
  8
LAYER_1
 10
5.597153239213212
 20
13.58279623315272
 30
0.0
  0
VERTEX
  5
28B
  8
LAYER_1
 10
5.606849621296991
 20
13.61470132103047
 30
0.0
  0
VERTEX
  5
28C
  8
LAYER_1
 10
5.616835447622078
 20
13.64630205390297
 30
0.0
  0
VERTEX
  5
28D
  8
LAYER_1
 10
5.627110718188471
 20
13.67759843177021
 30
0.0
  0
VERTEX
  5
28E
  8
LAYER_1
 10
5.637675432996172
 20
13.7085904546322
 30
0.0
  0
VERTEX
  5
28F
  8
LAYER_1
 10
5.648529592045179
 20
13.73927812248894
 30
0.0
  0
VERTEX
  5
290
  8
LAYER_1
 10
5.659673195335493
 20
13.76966143534042
 30
0.0
  0
VERTEX
  5
291
  8
LAYER_1
 10
5.671106242867113
 20
13.79974039318666
 30
0.0
  0
VERTEX
  5
292
  8
LAYER_1
 10
5.682828734640041
 20
13.82951499602764
 30
0.0
  0
VERTEX
  5
293
  8
LAYER_1
 10
5.694840670654275
 20
13.85898524386336
 30
0.0
  0
VERTEX
  5
294
  8
LAYER_1
 10
5.707142050909817
 20
13.88815113669384
 30
0.0
  0
VERTEX
  5
295
  8
LAYER_1
 10
5.719732875406665
 20
13.91701267451906
 30
0.0
  0
VERTEX
  5
296
  8
LAYER_1
 10
5.73261314414482
 20
13.94556985733902
 30
0.0
  0
VERTEX
  5
297
  8
LAYER_1
 10
5.745782857124283
 20
13.97382268515374
 30
0.0
  0
VERTEX
  5
298
  8
LAYER_1
 10
5.759242014345052
 20
14.0017711579632
 30
0.0
  0
VERTEX
  5
299
  8
LAYER_1
 10
5.772990615807127
 20
14.02941527576741
 30
0.0
  0
VERTEX
  5
29A
  8
LAYER_1
 10
5.78702866151051
 20
14.05675503856637
 30
0.0
  0
VERTEX
  5
29B
  8
LAYER_1
 10
5.801356151455199
 20
14.08379044636007
 30
0.0
  0
VERTEX
  5
29C
  8
LAYER_1
 10
5.815973085641195
 20
14.11052149914852
 30
0.0
  0
VERTEX
  5
29D
  8
LAYER_1
 10
5.830879464068499
 20
14.13694819693171
 30
0.0
  0
VERTEX
  5
29E
  8
LAYER_1
 10
5.846075286737109
 20
14.16307053970966
 30
0.0
  0
VERTEX
  5
29F
  8
LAYER_1
 10
5.861560553647025
 20
14.18888852748235
 30
0.0
  0
VERTEX
  5
2A0
  8
LAYER_1
 10
5.877335264798249
 20
14.21440216024978
 30
0.0
  0
VERTEX
  5
2A1
  8
LAYER_1
 10
5.893399420190779
 20
14.23961143801197
 30
0.0
  0
VERTEX
  5
2A2
  8
LAYER_1
 10
5.909753019824616
 20
14.2645163607689
 30
0.0
  0
VERTEX
  5
2A3
  8
LAYER_1
 10
5.926396063699761
 20
14.28911692852058
 30
0.0
  0
VERTEX
  5
2A4
  8
LAYER_1
 10
5.943328551816212
 20
14.31341314126701
 30
0.0
  0
VERTEX
  5
2A5
  8
LAYER_1
 10
5.96055048417397
 20
14.33740499900818
 30
0.0
  0
VERTEX
  5
2A6
  8
LAYER_1
 10
5.978061860773034
 20
14.3610925017441
 30
0.0
  0
VERTEX
  5
2A7
  8
LAYER_1
 10
5.995862681613406
 20
14.38447564947477
 30
0.0
  0
VERTEX
  5
2A8
  8
LAYER_1
 10
6.013952946695085
 20
14.40755444220018
 30
0.0
  0
VERTEX
  5
2A9
  8
LAYER_1
 10
6.032332656018069
 20
14.43032887992034
 30
0.0
  0
VERTEX
  5
2AA
  8
LAYER_1
 10
6.050928132866392
 20
14.45277440372993
 30
0.0
  0
VERTEX
  5
2AB
  8
LAYER_1
 10
6.069665700524084
 20
14.47486645472361
 30
0.0
  0
VERTEX
  5
2AC
  8
LAYER_1
 10
6.088545358991144
 20
14.4966050329014
 30
0.0
  0
VERTEX
  5
2AD
  8
LAYER_1
 10
6.107567108267574
 20
14.51799013826329
 30
0.0
  0
VERTEX
  5
2AE
  8
LAYER_1
 10
6.126730948353373
 20
14.53902177080928
 30
0.0
  0
VERTEX
  5
2AF
  8
LAYER_1
 10
6.14603687924854
 20
14.55969993053937
 30
0.0
  0
VERTEX
  5
2B0
  8
LAYER_1
 10
6.165484900953076
 20
14.58002461745356
 30
0.0
  0
VERTEX
  5
2B1
  8
LAYER_1
 10
6.185075013466981
 20
14.59999583155185
 30
0.0
  0
VERTEX
  5
2B2
  8
LAYER_1
 10
6.204807216790255
 20
14.61961357283424
 30
0.0
  0
VERTEX
  5
2B3
  8
LAYER_1
 10
6.224681510922897
 20
14.63887784130074
 30
0.0
  0
VERTEX
  5
2B4
  8
LAYER_1
 10
6.244697895864908
 20
14.65778863695133
 30
0.0
  0
VERTEX
  5
2B5
  8
LAYER_1
 10
6.264856371616288
 20
14.67634595978603
 30
0.0
  0
VERTEX
  5
2B6
  8
LAYER_1
 10
6.285156938177037
 20
14.69454980980483
 30
0.0
  0
VERTEX
  5
2B7
  8
LAYER_1
 10
6.305599595547156
 20
14.71240018700773
 30
0.0
  0
VERTEX
  5
2B8
  8
LAYER_1
 10
6.326184343726641
 20
14.72989709139473
 30
0.0
  0
VERTEX
  5
2B9
  8
LAYER_1
 10
6.346911182715497
 20
14.74704052296583
 30
0.0
  0
VERTEX
  5
2BA
  8
LAYER_1
 10
6.367780112513723
 20
14.76383048172103
 30
0.0
  0
VERTEX
  5
2BB
  8
LAYER_1
 10
6.388791133121316
 20
14.78026696766033
 30
0.0
  0
VERTEX
  5
2BC
  8
LAYER_1
 10
6.409944244538277
 20
14.79634998078373
 30
0.0
  0
VERTEX
  5
2BD
  8
LAYER_1
 10
6.431239446764608
 20
14.81207952109124
 30
0.0
  0
VERTEX
  5
2BE
  8
LAYER_1
 10
6.452676739800308
 20
14.82745558858284
 30
0.0
  0
VERTEX
  5
2BF
  8
LAYER_1
 10
6.474256123645377
 20
14.84247818325855
 30
0.0
  0
VERTEX
  5
2C0
  8
LAYER_1
 10
6.495977598299814
 20
14.85714730511836
 30
0.0
  0
VERTEX
  5
2C1
  8
LAYER_1
 10
6.517841163763619
 20
14.87146295416227
 30
0.0
  0
VERTEX
  5
2C2
  8
LAYER_1
 10
6.539846820036794
 20
14.88542513039027
 30
0.0
  0
VERTEX
  5
2C3
  8
LAYER_1
 10
6.561994567119338
 20
14.89903383380239
 30
0.0
  0
VERTEX
  5
2C4
  8
LAYER_1
 10
6.58428440501125
 20
14.9122890643986
 30
0.0
  0
VERTEX
  5
2C5
  8
LAYER_1
 10
6.606716333712531
 20
14.92519082217891
 30
0.0
  0
VERTEX
  5
2C6
  8
LAYER_1
 10
6.629290353223181
 20
14.93773910714332
 30
0.0
  0
VERTEX
  5
2C7
  8
LAYER_1
 10
6.6520064635432
 20
14.94993391929184
 30
0.0
  0
VERTEX
  5
2C8
  8
LAYER_1
 10
6.674864664672588
 20
14.96177525862446
 30
0.0
  0
VERTEX
  5
2C9
  8
LAYER_1
 10
6.697864956611345
 20
14.97326312514117
 30
0.0
  0
VERTEX
  5
2CA
  8
LAYER_1
 10
6.72100733935947
 20
14.98439751884199
 30
0.0
  0
VERTEX
  5
2CB
  8
LAYER_1
 10
6.744291812916964
 20
14.99517843972691
 30
0.0
  0
VERTEX
  5
2CC
  8
LAYER_1
 10
6.767718377283828
 20
15.00560588779593
 30
0.0
  0
VERTEX
  5
2CD
  8
LAYER_1
 10
6.791287032460059
 20
15.01567986304905
 30
0.0
  0
VERTEX
  5
2CE
  8
LAYER_1
 10
6.81499777844566
 20
15.02540036548627
 30
0.0
  0
VERTEX
  5
2CF
  8
LAYER_1
 10
6.838850615240629
 20
15.0347673951076
 30
0.0
  0
VERTEX
  5
2D0
  8
LAYER_1
 10
6.862845542844967
 20
15.04378095191302
 30
0.0
  0
VERTEX
  5
2D1
  8
LAYER_1
 10
6.886982561258675
 20
15.05244103590254
 30
0.0
  0
VERTEX
  5
2D2
  8
LAYER_1
 10
6.911261670481752
 20
15.06074764707617
 30
0.0
  0
VERTEX
  5
2D3
  8
LAYER_1
 10
6.935682870514196
 20
15.0687007854339
 30
0.0
  0
VERTEX
  5
2D4
  8
LAYER_1
 10
6.960246161356009
 20
15.07630045097573
 30
0.0
  0
VERTEX
  5
2D5
  8
LAYER_1
 10
6.984951543007192
 20
15.08354664370166
 30
0.0
  0
VERTEX
  5
2D6
  8
LAYER_1
 10
7.009799015467744
 20
15.09043936361169
 30
0.0
  0
VERTEX
  5
2D7
  8
LAYER_1
 10
7.034788578737664
 20
15.09697861070582
 30
0.0
  0
VERTEX
  5
2D8
  8
LAYER_1
 10
7.059920232816952
 20
15.10316438498405
 30
0.0
  0
VERTEX
  5
2D9
  8
LAYER_1
 10
7.08519397770561
 20
15.10899668644638
 30
0.0
  0
VERTEX
  5
2DA
  8
LAYER_1
 10
7.110609813403637
 20
15.11447551509282
 30
0.0
  0
VERTEX
  5
2DB
  8
LAYER_1
 10
7.136167739911032
 20
15.11960087092335
 30
0.0
  0
VERTEX
  5
2DC
  8
LAYER_1
 10
7.161867757227796
 20
15.12437275393799
 30
0.0
  0
VERTEX
  5
2DD
  8
LAYER_1
 10
7.187709865353929
 20
15.12879116413673
 30
0.0
  0
VERTEX
  5
2DE
  8
LAYER_1
 10
7.213694064289431
 20
15.13285610151956
 30
0.0
  0
VERTEX
  5
2DF
  8
LAYER_1
 10
7.239820354034302
 20
15.1365675660865
 30
0.0
  0
VERTEX
  5
2E0
  8
LAYER_1
 10
7.266088734588541
 20
15.13992555783754
 30
0.0
  0
VERTEX
  5
2E1
  8
LAYER_1
 10
7.292499205952149
 20
15.14293007677268
 30
0.0
  0
VERTEX
  5
2E2
  8
LAYER_1
 10
7.319051768125126
 20
15.14558112289193
 30
0.0
  0
VERTEX
  5
2E3
  8
LAYER_1
 10
7.345746421107473
 20
15.14787869619527
 30
0.0
  0
VERTEX
  5
2E4
  8
LAYER_1
 10
7.372583164899186
 20
15.14982279668271
 30
0.0
  0
VERTEX
  5
2E5
  8
LAYER_1
 10
7.39956199950027
 20
15.15141342435426
 30
0.0
  0
VERTEX
  5
2E6
  8
LAYER_1
 10
7.426682924910724
 20
15.1526505792099
 30
0.0
  0
VERTEX
  5
2E7
  8
LAYER_1
 10
7.453945941130545
 20
15.15353426124965
 30
0.0
  0
VERTEX
  5
2E8
  8
LAYER_1
 10
7.481351048159735
 20
15.1540644704735
 30
0.0
  0
VERTEX
  5
2E9
  8
LAYER_1
 10
7.508898245998293
 20
15.15424120688145
 30
0.0
  0
VERTEX
  5
2EA
  8
LAYER_1
 10
7.544501641886559
 20
15.1539254495273
 30
0.0
  0
VERTEX
  5
2EB
  8
LAYER_1
 10
7.579908566532241
 20
15.15297817746484
 30
0.0
  0
VERTEX
  5
2EC
  8
LAYER_1
 10
7.61511901993534
 20
15.15139939069407
 30
0.0
  0
VERTEX
  5
2ED
  8
LAYER_1
 10
7.650133002095854
 20
15.149189089215
 30
0.0
  0
VERTEX
  5
2EE
  8
LAYER_1
 10
7.684950513013785
 20
15.14634727302763
 30
0.0
  0
VERTEX
  5
2EF
  8
LAYER_1
 10
7.71957155268913
 20
15.14287394213194
 30
0.0
  0
VERTEX
  5
2F0
  8
LAYER_1
 10
7.753996121121892
 20
15.13876909652796
 30
0.0
  0
VERTEX
  5
2F1
  8
LAYER_1
 10
7.78822421831207
 20
15.13403273621566
 30
0.0
  0
VERTEX
  5
2F2
  8
LAYER_1
 10
7.822255844259665
 20
15.12866486119506
 30
0.0
  0
VERTEX
  5
2F3
  8
LAYER_1
 10
7.856090998964675
 20
15.12266547146616
 30
0.0
  0
VERTEX
  5
2F4
  8
LAYER_1
 10
7.889729682427101
 20
15.11603456702894
 30
0.0
  0
VERTEX
  5
2F5
  8
LAYER_1
 10
7.923171894646942
 20
15.10877214788343
 30
0.0
  0
VERTEX
  5
2F6
  8
LAYER_1
 10
7.9564176356242
 20
15.1008782140296
 30
0.0
  0
VERTEX
  5
2F7
  8
LAYER_1
 10
7.989466905358873
 20
15.09235276546747
 30
0.0
  0
VERTEX
  5
2F8
  8
LAYER_1
 10
8.022319703850965
 20
15.08319580219704
 30
0.0
  0
VERTEX
  5
2F9
  8
LAYER_1
 10
8.05497603110047
 20
15.0734073242183
 30
0.0
  0
VERTEX
  5
2FA
  8
LAYER_1
 10
8.087435887107393
 20
15.06298733153125
 30
0.0
  0
VERTEX
  5
2FB
  8
LAYER_1
 10
8.11969927187173
 20
15.0519358241359
 30
0.0
  0
VERTEX
  5
2FC
  8
LAYER_1
 10
8.151766185393484
 20
15.04025280203224
 30
0.0
  0
VERTEX
  5
2FD
  8
LAYER_1
 10
8.183636627672652
 20
15.02793826522028
 30
0.0
  0
VERTEX
  5
2FE
  8
LAYER_1
 10
8.215310598709237
 20
15.01499221370001
 30
0.0
  0
VERTEX
  5
2FF
  8
LAYER_1
 10
8.246788098503238
 20
15.00141464747143
 30
0.0
  0
VERTEX
  5
300
  8
LAYER_1
 10
8.278069127054657
 20
14.98720556653455
 30
0.0
  0
VERTEX
  5
301
  8
LAYER_1
 10
8.309153684363489
 20
14.97236497088936
 30
0.0
  0
VERTEX
  5
302
  8
LAYER_1
 10
8.340041770429739
 20
14.95689286053587
 30
0.0
  0
VERTEX
  5
303
  8
LAYER_1
 10
8.370733385253402
 20
14.94078923547407
 30
0.0
  0
VERTEX
  5
304
  8
LAYER_1
 10
8.401228528834483
 20
14.92405409570396
 30
0.0
  0
VERTEX
  5
305
  8
LAYER_1
 10
8.43152720117298
 20
14.90668744122555
 30
0.0
  0
VERTEX
  5
306
  8
LAYER_1
 10
8.461629402268894
 20
14.88868927203883
 30
0.0
  0
VERTEX
  5
307
  8
LAYER_1
 10
8.491535132122223
 20
14.87005958814381
 30
0.0
  0
VERTEX
  5
308
  8
LAYER_1
 10
8.521244390732967
 20
14.85079838954048
 30
0.0
  0
VERTEX
  5
309
  8
LAYER_1
 10
8.550757178101128
 20
14.83090567622884
 30
0.0
  0
VERTEX
  5
30A
  8
LAYER_1
 10
8.57998052122798
 20
14.8104112697368
 30
0.0
  0
VERTEX
  5
30B
  8
LAYER_1
 10
8.608821447114806
 20
14.78934499159223
 30
0.0
  0
VERTEX
  5
30C
  8
LAYER_1
 10
8.637279955761601
 20
14.76770684179514
 30
0.0
  0
VERTEX
  5
30D
  8
LAYER_1
 10
8.665356047168366
 20
14.74549682034552
 30
0.0
  0
VERTEX
  5
30E
  8
LAYER_1
 10
8.6930497213351
 20
14.72271492724339
 30
0.0
  0
VERTEX
  5
30F
  8
LAYER_1
 10
8.720360978261805
 20
14.69936116248873
 30
0.0
  0
VERTEX
  5
310
  8
LAYER_1
 10
8.74728981794848
 20
14.67543552608156
 30
0.0
  0
VERTEX
  5
311
  8
LAYER_1
 10
8.773836240395127
 20
14.65093801802186
 30
0.0
  0
VERTEX
  5
312
  8
LAYER_1
 10
8.800000245601744
 20
14.62586863830964
 30
0.0
  0
VERTEX
  5
313
  8
LAYER_1
 10
8.825781833568332
 20
14.6002273869449
 30
0.0
  0
VERTEX
  5
314
  8
LAYER_1
 10
8.85118100429489
 20
14.57401426392763
 30
0.0
  0
VERTEX
  5
315
  8
LAYER_1
 10
8.87619775778142
 20
14.54722926925785
 30
0.0
  0
VERTEX
  5
316
  8
LAYER_1
 10
8.900832094027917
 20
14.51987240293554
 30
0.0
  0
VERTEX
  5
317
  8
LAYER_1
 10
8.925084013034386
 20
14.49194366496072
 30
0.0
  0
VERTEX
  5
318
  8
LAYER_1
 10
8.948953514800824
 20
14.46344305533337
 30
0.0
  0
VERTEX
  5
319
  8
LAYER_1
 10
8.972440599327232
 20
14.4343705740535
 30
0.0
  0
VERTEX
  5
31A
  8
LAYER_1
 10
8.995545266613611
 20
14.40472622112111
 30
0.0
  0
VERTEX
  5
31B
  8
LAYER_1
 10
9.01826751665996
 20
14.37450999653619
 30
0.0
  0
VERTEX
  5
31C
  8
LAYER_1
 10
9.040607349466281
 20
14.34372190029876
 30
0.0
  0
VERTEX
  5
31D
  8
LAYER_1
 10
9.062564765032572
 20
14.31236193240881
 30
0.0
  0
VERTEX
  5
31E
  8
LAYER_1
 10
9.084139763358833
 20
14.28043009286633
 30
0.0
  0
VERTEX
  5
31F
  8
LAYER_1
 10
9.105332344445063
 20
14.24792638167133
 30
0.0
  0
VERTEX
  5
320
  8
LAYER_1
 10
9.126142508291265
 20
14.21485079882381
 30
0.0
  0
VERTEX
  5
321
  8
LAYER_1
 10
9.146570254897437
 20
14.18120334432377
 30
0.0
  0
VERTEX
  5
322
  8
LAYER_1
 10
9.16661558426358
 20
14.14698401817121
 30
0.0
  0
VERTEX
  5
323
  8
LAYER_1
 10
9.186278496389694
 20
14.11219282036612
 30
0.0
  0
VERTEX
  5
324
  8
LAYER_1
 10
9.205558991275776
 20
14.07682975090852
 30
0.0
  0
VERTEX
  5
325
  8
LAYER_1
 10
9.22445706892183
 20
14.04089480979839
 30
0.0
  0
VERTEX
  5
326
  8
LAYER_1
 10
9.242972729327851
 20
14.00438799703574
 30
0.0
  0
VERTEX
  5
327
  8
LAYER_1
 10
9.261105972493844
 20
13.96730931262057
 30
0.0
  0
VERTEX
  5
328
  8
LAYER_1
 10
9.278856798419808
 20
13.92965875655288
 30
0.0
  0
VERTEX
  5
329
  8
LAYER_1
 10
9.296225207105742
 20
13.89143632883267
 30
0.0
  0
VERTEX
  5
32A
  8
LAYER_1
 10
9.31313401342063
 20
13.85269816410067
 30
0.0
  0
VERTEX
  5
32B
  8
LAYER_1
 10
9.32950603223346
 20
13.81350039699763
 30
0.0
  0
VERTEX
  5
32C
  8
LAYER_1
 10
9.34534126354423
 20
13.77384302752355
 30
0.0
  0
VERTEX
  5
32D
  8
LAYER_1
 10
9.360639707352941
 20
13.73372605567842
 30
0.0
  0
VERTEX
  5
32E
  8
LAYER_1
 10
9.375401363659591
 20
13.69314948146224
 30
0.0
  0
VERTEX
  5
32F
  8
LAYER_1
 10
9.389626232464181
 20
13.65211330487502
 30
0.0
  0
VERTEX
  5
330
  8
LAYER_1
 10
9.40331431376671
 20
13.61061752591676
 30
0.0
  0
VERTEX
  5
331
  8
LAYER_1
 10
9.41646560756718
 20
13.56866214458745
 30
0.0
  0
VERTEX
  5
332
  8
LAYER_1
 10
9.429080113865588
 20
13.52624716088709
 30
0.0
  0
VERTEX
  5
333
  8
LAYER_1
 10
9.44115783266194
 20
13.48337257481569
 30
0.0
  0
VERTEX
  5
334
  8
LAYER_1
 10
9.452698763956228
 20
13.44003838637325
 30
0.0
  0
VERTEX
  5
335
  8
LAYER_1
 10
9.46370290774846
 20
13.39624459555976
 30
0.0
  0
VERTEX
  5
336
  8
LAYER_1
 10
9.474170264038626
 20
13.35199120237523
 30
0.0
  0
VERTEX
  5
337
  8
LAYER_1
 10
9.484100832826737
 20
13.30727820681965
 30
0.0
  0
VERTEX
  5
338
  8
LAYER_1
 10
9.493494614112787
 20
13.26210560889303
 30
0.0
  0
VERTEX
  5
339
  8
LAYER_1
 10
9.502351607896777
 20
13.21647340859536
 30
0.0
  0
VERTEX
  5
33A
  8
LAYER_1
 10
9.510671814178705
 20
13.17038160592664
 30
0.0
  0
VERTEX
  5
33B
  8
LAYER_1
 10
9.518455232958576
 20
13.12383020088689
 30
0.0
  0
VERTEX
  5
33C
  8
LAYER_1
 10
9.525701864236385
 20
13.07681919347608
 30
0.0
  0
VERTEX
  5
33D
  8
LAYER_1
 10
9.532411708012136
 20
13.02934858369424
 30
0.0
  0
VERTEX
  5
33E
  8
LAYER_1
 10
9.538584764285826
 20
12.98141837154134
 30
0.0
  0
VERTEX
  5
33F
  8
LAYER_1
 10
9.544221033057458
 20
12.93302855701741
 30
0.0
  0
VERTEX
  5
340
  8
LAYER_1
 10
9.549320514327025
 20
12.88417914012243
 30
0.0
  0
VERTEX
  5
341
  8
LAYER_1
 10
9.553883208094536
 20
12.8348701208564
 30
0.0
  0
VERTEX
  5
342
  8
LAYER_1
 10
9.557909114359985
 20
12.78510149921932
 30
0.0
  0
VERTEX
  5
343
  8
LAYER_1
 10
9.561398233123377
 20
12.73487327521121
 30
0.0
  0
VERTEX
  5
344
  8
LAYER_1
 10
9.564350564384707
 20
12.68418544883205
 30
0.0
  0
VERTEX
  5
345
  8
LAYER_1
 10
9.566766108143977
 20
12.63303802008184
 30
0.0
  0
VERTEX
  5
346
  8
LAYER_1
 10
9.568644864401186
 20
12.58143098896059
 30
0.0
  0
VERTEX
  5
347
  8
LAYER_1
 10
9.569986833156337
 20
12.5293643554683
 30
0.0
  0
VERTEX
  5
348
  8
LAYER_1
 10
9.570792014409426
 20
12.47683811960496
 30
0.0
  0
VERTEX
  5
349
  8
LAYER_1
 10
9.571060408160456
 20
12.42385228137057
 30
0.0
  0
VERTEX
  5
34A
  8
LAYER_1
 10
9.570541162733628
 20
12.35107722806841
 30
0.0
  0
VERTEX
  5
34B
  8
LAYER_1
 10
9.568983426453139
 20
12.27915121120742
 30
0.0
  0
VERTEX
  5
34C
  8
LAYER_1
 10
9.566387199318992
 20
12.2080742307876
 30
0.0
  0
VERTEX
  5
34D
  8
LAYER_1
 10
9.562752481331186
 20
12.13784628680894
 30
0.0
  0
VERTEX
  5
34E
  8
LAYER_1
 10
9.558079272489724
 20
12.06846737927145
 30
0.0
  0
VERTEX
  5
34F
  8
LAYER_1
 10
9.552367572794601
 20
11.99993750817512
 30
0.0
  0
VERTEX
  5
350
  8
LAYER_1
 10
9.545617382245823
 20
11.93225667351996
 30
0.0
  0
VERTEX
  5
351
  8
LAYER_1
 10
9.53782870084338
 20
11.86542487530597
 30
0.0
  0
VERTEX
  5
352
  8
LAYER_1
 10
9.529001528587283
 20
11.79944211353315
 30
0.0
  0
VERTEX
  5
353
  8
LAYER_1
 10
9.519135865477526
 20
11.73430838820149
 30
0.0
  0
VERTEX
  5
354
  8
LAYER_1
 10
9.508231711514112
 20
11.670023699311
 30
0.0
  0
VERTEX
  5
355
  8
LAYER_1
 10
9.496289066697038
 20
11.60658804686167
 30
0.0
  0
VERTEX
  5
356
  8
LAYER_1
 10
9.483307931026308
 20
11.54400143085352
 30
0.0
  0
VERTEX
  5
357
  8
LAYER_1
 10
9.476427929120822
 20
11.51302651151488
 30
0.0
  0
VERTEX
  5
358
  8
LAYER_1
 10
9.46928830450192
 20
11.48226385128653
 30
0.0
  0
VERTEX
  5
359
  8
LAYER_1
 10
9.461889057169603
 20
11.45171345016847
 30
0.0
  0
VERTEX
  5
35A
  8
LAYER_1
 10
9.454230187123873
 20
11.4213753081607
 30
0.0
  0
VERTEX
  5
35B
  8
LAYER_1
 10
9.446311694364727
 20
11.39124942526323
 30
0.0
  0
VERTEX
  5
35C
  8
LAYER_1
 10
9.438133578892163
 20
11.36133580147605
 30
0.0
  0
VERTEX
  5
35D
  8
LAYER_1
 10
9.429695840706188
 20
11.33163443679915
 30
0.0
  0
VERTEX
  5
35E
  8
LAYER_1
 10
9.420998479806798
 20
11.30214533123256
 30
0.0
  0
VERTEX
  5
35F
  8
LAYER_1
 10
9.412041496193993
 20
11.27286848477625
 30
0.0
  0
VERTEX
  5
360
  8
LAYER_1
 10
9.402824889867773
 20
11.24380389743023
 30
0.0
  0
VERTEX
  5
361
  8
LAYER_1
 10
9.393348660828138
 20
11.21495156919451
 30
0.0
  0
VERTEX
  5
362
  8
LAYER_1
 10
9.383612809075089
 20
11.18631150006907
 30
0.0
  0
VERTEX
  5
363
  8
LAYER_1
 10
9.373617334608625
 20
11.15788369005393
 30
0.0
  0
VERTEX
  5
364
  8
LAYER_1
 10
9.363362237428746
 20
11.12966813914908
 30
0.0
  0
VERTEX
  5
365
  8
LAYER_1
 10
9.352847517535453
 20
11.10166484735453
 30
0.0
  0
VERTEX
  5
366
  8
LAYER_1
 10
9.342073174928746
 20
11.07387381467026
 30
0.0
  0
VERTEX
  5
367
  8
LAYER_1
 10
9.331039209608626
 20
11.04629504109629
 30
0.0
  0
VERTEX
  5
368
  8
LAYER_1
 10
9.319745621575088
 20
11.0189285266326
 30
0.0
  0
VERTEX
  5
369
  8
LAYER_1
 10
9.308192410828138
 20
10.99177427127922
 30
0.0
  0
VERTEX
  5
36A
  8
LAYER_1
 10
9.296379577367771
 20
10.96483227503612
 30
0.0
  0
VERTEX
  5
36B
  8
LAYER_1
 10
9.284307121193992
 20
10.93810253790331
 30
0.0
  0
VERTEX
  5
36C
  8
LAYER_1
 10
9.271975042306796
 20
10.91158505988079
 30
0.0
  0
VERTEX
  5
36D
  8
LAYER_1
 10
9.259383340706187
 20
10.88527984096857
 30
0.0
  0
VERTEX
  5
36E
  8
LAYER_1
 10
9.246532016392162
 20
10.85918688116664
 30
0.0
  0
VERTEX
  5
36F
  8
LAYER_1
 10
9.233421069364724
 20
10.833306180475
 30
0.0
  0
VERTEX
  5
370
  8
LAYER_1
 10
9.22005049962387
 20
10.80763773889365
 30
0.0
  0
VERTEX
  5
371
  8
LAYER_1
 10
9.206420307169601
 20
10.78218155642259
 30
0.0
  0
VERTEX
  5
372
  8
LAYER_1
 10
9.192530492001918
 20
10.75693763306182
 30
0.0
  0
VERTEX
  5
373
  8
LAYER_1
 10
9.17838105412082
 20
10.73190596881135
 30
0.0
  0
VERTEX
  5
374
  8
LAYER_1
 10
9.163971993526307
 20
10.70708656367117
 30
0.0
  0
VERTEX
  5
375
  8
LAYER_1
 10
9.149303310218382
 20
10.68247941764128
 30
0.0
  0
VERTEX
  5
376
  8
LAYER_1
 10
9.13437500419704
 20
10.65808453072168
 30
0.0
  0
VERTEX
  5
377
  8
LAYER_1
 10
9.119187075462285
 20
10.63390190291237
 30
0.0
  0
VERTEX
  5
378
  8
LAYER_1
 10
9.103739524014113
 20
10.60993153421336
 30
0.0
  0
VERTEX
  5
379
  8
LAYER_1
 10
9.08803234985253
 20
10.58617342462463
 30
0.0
  0
VERTEX
  5
37A
  8
LAYER_1
 10
9.07206555297753
 20
10.5626275741462
 30
0.0
  0
VERTEX
  5
37B
  8
LAYER_1
 10
9.055839133389117
 20
10.53929398277806
 30
0.0
  0
VERTEX
  5
37C
  8
LAYER_1
 10
9.039353091087285
 20
10.51617265052021
 30
0.0
  0
VERTEX
  5
37D
  8
LAYER_1
 10
9.020964610726686
 20
10.49099801835661
 30
0.0
  0
VERTEX
  5
37E
  8
LAYER_1
 10
9.002398955406257
 20
10.46621983709322
 30
0.0
  0
VERTEX
  5
37F
  8
LAYER_1
 10
8.983656125125997
 20
10.44183810673004
 30
0.0
  0
VERTEX
  5
380
  8
LAYER_1
 10
8.964736119885902
 20
10.41785282726708
 30
0.0
  0
VERTEX
  5
381
  8
LAYER_1
 10
8.945638939685981
 20
10.39426399870433
 30
0.0
  0
VERTEX
  5
382
  8
LAYER_1
 10
8.92636458452623
 20
10.3710716210418
 30
0.0
  0
VERTEX
  5
383
  8
LAYER_1
 10
8.906913054406647
 20
10.34827569427948
 30
0.0
  0
VERTEX
  5
384
  8
LAYER_1
 10
8.887284349327233
 20
10.32587621841738
 30
0.0
  0
VERTEX
  5
385
  8
LAYER_1
 10
8.867478469287992
 20
10.30387319345549
 30
0.0
  0
VERTEX
  5
386
  8
LAYER_1
 10
8.847495414288918
 20
10.28226661939381
 30
0.0
  0
VERTEX
  5
387
  8
LAYER_1
 10
8.827335184330014
 20
10.26105649623235
 30
0.0
  0
VERTEX
  5
388
  8
LAYER_1
 10
8.806997779411281
 20
10.2402428239711
 30
0.0
  0
VERTEX
  5
389
  8
LAYER_1
 10
8.78648319953272
 20
10.21982560261007
 30
0.0
  0
VERTEX
  5
38A
  8
LAYER_1
 10
8.765791444694324
 20
10.19980483214925
 30
0.0
  0
VERTEX
  5
38B
  8
LAYER_1
 10
8.7449225148961
 20
10.18018051258864
 30
0.0
  0
VERTEX
  5
38C
  8
LAYER_1
 10
8.723876410138043
 20
10.16095264392825
 30
0.0
  0
VERTEX
  5
38D
  8
LAYER_1
 10
8.70265313042016
 20
10.14212122616808
 30
0.0
  0
VERTEX
  5
38E
  8
LAYER_1
 10
8.681252675742444
 20
10.12368625930811
 30
0.0
  0
VERTEX
  5
38F
  8
LAYER_1
 10
8.6596750461049
 20
10.10564774334837
 30
0.0
  0
VERTEX
  5
390
  8
LAYER_1
 10
8.637920241507523
 20
10.08800567828883
 30
0.0
  0
VERTEX
  5
391
  8
LAYER_1
 10
8.615988261950317
 20
10.07076006412951
 30
0.0
  0
VERTEX
  5
392
  8
LAYER_1
 10
8.593879107433281
 20
10.05391090087041
 30
0.0
  0
VERTEX
  5
393
  8
LAYER_1
 10
8.571592777956415
 20
10.03745818851151
 30
0.0
  0
VERTEX
  5
394
  8
LAYER_1
 10
8.549129273519718
 20
10.02140192705284
 30
0.0
  0
VERTEX
  5
395
  8
LAYER_1
 10
8.526488594123194
 20
10.00574211649438
 30
0.0
  0
VERTEX
  5
396
  8
LAYER_1
 10
8.503670739766836
 20
9.99047875683613
 30
0.0
  0
VERTEX
  5
397
  8
LAYER_1
 10
8.480675710450647
 20
9.975611848078096
 30
0.0
  0
VERTEX
  5
398
  8
LAYER_1
 10
8.457503506174628
 20
9.961141390220275
 30
0.0
  0
VERTEX
  5
399
  8
LAYER_1
 10
8.434154126938783
 20
9.94706738326267
 30
0.0
  0
VERTEX
  5
39A
  8
LAYER_1
 10
8.410627572743103
 20
9.93338982720528
 30
0.0
  0
VERTEX
  5
39B
  8
LAYER_1
 10
8.386923843587596
 20
9.920108722048104
 30
0.0
  0
VERTEX
  5
39C
  8
LAYER_1
 10
8.363042939472255
 20
9.907224067791141
 30
0.0
  0
VERTEX
  5
39D
  8
LAYER_1
 10
8.338984860397087
 20
9.894735864434393
 30
0.0
  0
VERTEX
  5
39E
  8
LAYER_1
 10
8.314749606362088
 20
9.882644111977859
 30
0.0
  0
VERTEX
  5
39F
  8
LAYER_1
 10
8.29033717736726
 20
9.870948810421538
 30
0.0
  0
VERTEX
  5
3A0
  8
LAYER_1
 10
8.265747573412598
 20
9.85964995976543
 30
0.0
  0
VERTEX
  5
3A1
  8
LAYER_1
 10
8.240980794498109
 20
9.848747560009539
 30
0.0
  0
VERTEX
  5
3A2
  8
LAYER_1
 10
8.216036840623788
 20
9.838241611153862
 30
0.0
  0
VERTEX
  5
3A3
  8
LAYER_1
 10
8.190915711789637
 20
9.828132113198398
 30
0.0
  0
VERTEX
  5
3A4
  8
LAYER_1
 10
8.165617407995656
 20
9.81841906614315
 30
0.0
  0
VERTEX
  5
3A5
  8
LAYER_1
 10
8.140141929241848
 20
9.809102469988115
 30
0.0
  0
VERTEX
  5
3A6
  8
LAYER_1
 10
8.114489275528205
 20
9.800182324733296
 30
0.0
  0
VERTEX
  5
3A7
  8
LAYER_1
 10
8.088659446854734
 20
9.79165863037869
 30
0.0
  0
VERTEX
  5
3A8
  8
LAYER_1
 10
8.062652443221431
 20
9.783531386924297
 30
0.0
  0
VERTEX
  5
3A9
  8
LAYER_1
 10
8.0364682646283
 20
9.77580059437012
 30
0.0
  0
VERTEX
  5
3AA
  8
LAYER_1
 10
8.010106911075336
 20
9.768466252716157
 30
0.0
  0
VERTEX
  5
3AB
  8
LAYER_1
 10
7.983568382562543
 20
9.761528361962409
 30
0.0
  0
VERTEX
  5
3AC
  8
LAYER_1
 10
7.956852679089921
 20
9.754986922108873
 30
0.0
  0
VERTEX
  5
3AD
  8
LAYER_1
 10
7.929959800657468
 20
9.748841933155553
 30
0.0
  0
VERTEX
  5
3AE
  8
LAYER_1
 10
7.902889747265185
 20
9.743093395102447
 30
0.0
  0
VERTEX
  5
3AF
  8
LAYER_1
 10
7.875642518913072
 20
9.737741307949554
 30
0.0
  0
VERTEX
  5
3B0
  8
LAYER_1
 10
7.848218115601128
 20
9.732785671696876
 30
0.0
  0
VERTEX
  5
3B1
  8
LAYER_1
 10
7.820616537329354
 20
9.728226486344413
 30
0.0
  0
VERTEX
  5
3B2
  8
LAYER_1
 10
7.792837784097749
 20
9.724063751892164
 30
0.0
  0
VERTEX
  5
3B3
  8
LAYER_1
 10
7.764881855906314
 20
9.720297468340128
 30
0.0
  0
VERTEX
  5
3B4
  8
LAYER_1
 10
7.73674875275505
 20
9.716927635688307
 30
0.0
  0
VERTEX
  5
3B5
  8
LAYER_1
 10
7.708438474643954
 20
9.7139542539367
 30
0.0
  0
VERTEX
  5
3B6
  8
LAYER_1
 10
7.67995102157303
 20
9.711377323085308
 30
0.0
  0
VERTEX
  5
3B7
  8
LAYER_1
 10
7.651286393542274
 20
9.70919684313413
 30
0.0
  0
VERTEX
  5
3B8
  8
LAYER_1
 10
7.622444590551688
 20
9.707412814083165
 30
0.0
  0
VERTEX
  5
3B9
  8
LAYER_1
 10
7.593425612601272
 20
9.706025235932415
 30
0.0
  0
VERTEX
  5
3BA
  8
LAYER_1
 10
7.564229459691026
 20
9.705034108681879
 30
0.0
  0
VERTEX
  5
3BB
  8
LAYER_1
 10
7.534856131820949
 20
9.704439432331558
 30
0.0
  0
VERTEX
  5
3BC
  8
LAYER_1
 10
7.505305628991042
 20
9.70424120688145
 30
0.0
  0
VERTEX
  5
3BD
  8
LAYER_1
 10
7.475533218909466
 20
9.704444694954127
 30
0.0
  0
VERTEX
  5
3BE
  8
LAYER_1
 10
7.44594324641029
 20
9.705055159172156
 30
0.0
  0
VERTEX
  5
3BF
  8
LAYER_1
 10
7.416535711493514
 20
9.706072599535538
 30
0.0
  0
VERTEX
  5
3C0
  8
LAYER_1
 10
7.387310614159137
 20
9.707497016044272
 30
0.0
  0
VERTEX
  5
3C1
  8
LAYER_1
 10
7.358267954407159
 20
9.709328408698356
 30
0.0
  0
VERTEX
  5
3C2
  8
LAYER_1
 10
7.329407732237581
 20
9.711566777497797
 30
0.0
  0
VERTEX
  5
3C3
  8
LAYER_1
 10
7.300729947650401
 20
9.71421212244259
 30
0.0
  0
VERTEX
  5
3C4
  8
LAYER_1
 10
7.272234600645623
 20
9.717264443532734
 30
0.0
  0
VERTEX
  5
3C5
  8
LAYER_1
 10
7.243921691223243
 20
9.720723740768232
 30
0.0
  0
VERTEX
  5
3C6
  8
LAYER_1
 10
7.215791219383264
 20
9.724590014149083
 30
0.0
  0
VERTEX
  5
3C7
  8
LAYER_1
 10
7.187843185125683
 20
9.728863263675285
 30
0.0
  0
VERTEX
  5
3C8
  8
LAYER_1
 10
7.160077588450502
 20
9.733543489346841
 30
0.0
  0
VERTEX
  5
3C9
  8
LAYER_1
 10
7.13249442935772
 20
9.738630691163749
 30
0.0
  0
VERTEX
  5
3CA
  8
LAYER_1
 10
7.105093707847338
 20
9.744124869126011
 30
0.0
  0
VERTEX
  5
3CB
  8
LAYER_1
 10
7.077875423919355
 20
9.750026023233623
 30
0.0
  0
VERTEX
  5
3CC
  8
LAYER_1
 10
7.050839577573772
 20
9.756334153486591
 30
0.0
  0
VERTEX
  5
3CD
  8
LAYER_1
 10
7.023986168810588
 20
9.763049259884909
 30
0.0
  0
VERTEX
  5
3CE
  8
LAYER_1
 10
6.997315197629804
 20
9.770171342428583
 30
0.0
  0
VERTEX
  5
3CF
  8
LAYER_1
 10
6.970826664031418
 20
9.777700401117606
 30
0.0
  0
VERTEX
  5
3D0
  8
LAYER_1
 10
6.944520568015433
 20
9.785636435951984
 30
0.0
  0
VERTEX
  5
3D1
  8
LAYER_1
 10
6.918396909581846
 20
9.793979446931713
 30
0.0
  0
VERTEX
  5
3D2
  8
LAYER_1
 10
6.89245568873066
 20
9.802729434056797
 30
0.0
  0
VERTEX
  5
3D3
  8
LAYER_1
 10
6.866696905461872
 20
9.811886397327232
 30
0.0
  0
VERTEX
  5
3D4
  8
LAYER_1
 10
6.841120559775485
 20
9.82145033674302
 30
0.0
  0
VERTEX
  5
3D5
  8
LAYER_1
 10
6.815726651671497
 20
9.83142125230416
 30
0.0
  0
VERTEX
  5
3D6
  8
LAYER_1
 10
6.790515181149908
 20
9.841799144010654
 30
0.0
  0
VERTEX
  5
3D7
  8
LAYER_1
 10
6.765486148210719
 20
9.852584011862499
 30
0.0
  0
VERTEX
  5
3D8
  8
LAYER_1
 10
6.74063955285393
 20
9.863775855859698
 30
0.0
  0
VERTEX
  5
3D9
  8
LAYER_1
 10
6.715975395079539
 20
9.875374676002249
 30
0.0
  0
VERTEX
  5
3DA
  8
LAYER_1
 10
6.691493674887548
 20
9.887380472290154
 30
0.0
  0
VERTEX
  5
3DB
  8
LAYER_1
 10
6.667194392277956
 20
9.899793244723408
 30
0.0
  0
VERTEX
  5
3DC
  8
LAYER_1
 10
6.643077547250765
 20
9.912612993302018
 30
0.0
  0
VERTEX
  5
3DD
  8
LAYER_1
 10
6.619143139805972
 20
9.925839718025976
 30
0.0
  0
VERTEX
  5
3DE
  8
LAYER_1
 10
6.59539116994358
 20
9.939473418895293
 30
0.0
  0
VERTEX
  5
3DF
  8
LAYER_1
 10
6.571821637663587
 20
9.95351409590996
 30
0.0
  0
VERTEX
  5
3E0
  8
LAYER_1
 10
6.548434542965993
 20
9.96796174906998
 30
0.0
  0
VERTEX
  5
3E1
  8
LAYER_1
 10
6.525229885850798
 20
9.982816378375352
 30
0.0
  0
VERTEX
  5
3E2
  8
LAYER_1
 10
6.502207666318004
 20
9.998077983826079
 30
0.0
  0
VERTEX
  5
3E3
  8
LAYER_1
 10
6.479367884367608
 20
10.01374656542216
 30
0.0
  0
VERTEX
  5
3E4
  8
LAYER_1
 10
6.456710539999612
 20
10.02982212316359
 30
0.0
  0
VERTEX
  5
3E5
  8
LAYER_1
 10
6.434235633214016
 20
10.04630465705037
 30
0.0
  0
VERTEX
  5
3E6
  8
LAYER_1
 10
6.411943164010818
 20
10.06319416708251
 30
0.0
  0
VERTEX
  5
3E7
  8
LAYER_1
 10
6.38983313239002
 20
10.08049065325999
 30
0.0
  0
VERTEX
  5
3E8
  8
LAYER_1
 10
6.367905538351623
 20
10.09819411558284
 30
0.0
  0
VERTEX
  5
3E9
  8
LAYER_1
 10
6.346160381895625
 20
10.11630455405103
 30
0.0
  0
VERTEX
  5
3EA
  8
LAYER_1
 10
6.324597663022026
 20
10.13482196866457
 30
0.0
  0
VERTEX
  5
3EB
  8
LAYER_1
 10
6.303217381730825
 20
10.15374635942347
 30
0.0
  0
VERTEX
  5
3EC
  8
LAYER_1
 10
6.282019538022025
 20
10.17307772632773
 30
0.0
  0
VERTEX
  5
3ED
  8
LAYER_1
 10
6.261004131895624
 20
10.19281606937733
 30
0.0
  0
VERTEX
  5
3EE
  8
LAYER_1
 10
6.240171163351623
 20
10.21296138857229
 30
0.0
  0
VERTEX
  5
3EF
  8
LAYER_1
 10
6.219520632390021
 20
10.2335136839126
 30
0.0
  0
VERTEX
  5
3F0
  8
LAYER_1
 10
6.199052539010819
 20
10.25447295539826
 30
0.0
  0
VERTEX
  5
3F1
  8
LAYER_1
 10
6.178766883214016
 20
10.27583920302927
 30
0.0
  0
VERTEX
  5
3F2
  8
LAYER_1
 10
6.158663664999612
 20
10.29761242680564
 30
0.0
  0
VERTEX
  5
3F3
  8
LAYER_1
 10
6.138742884367608
 20
10.31979262672736
 30
0.0
  0
VERTEX
  5
3F4
  8
LAYER_1
 10
6.119004541318004
 20
10.34237980279444
 30
0.0
  0
VERTEX
  5
3F5
  8
LAYER_1
 10
6.099448635850798
 20
10.36537395500686
 30
0.0
  0
VERTEX
  5
3F6
  8
LAYER_1
 10
6.080075167965994
 20
10.38877508336464
 30
0.0
  0
VERTEX
  5
3F7
  8
LAYER_1
 10
6.060884137663587
 20
10.41258318786777
 30
0.0
  0
VERTEX
  5
3F8
  8
LAYER_1
 10
6.041875544943581
 20
10.43679826851626
 30
0.0
  0
VERTEX
  5
3F9
  8
LAYER_1
 10
6.023049389805974
 20
10.46142032531009
 30
0.0
  0
VERTEX
  5
3FA
  8
LAYER_1
 10
6.004405672250766
 20
10.48644935824928
 30
0.0
  0
VERTEX
  5
3FB
  8
LAYER_1
 10
5.985944392277958
 20
10.51188536733382
 30
0.0
  0
VERTEX
  5
3FC
  8
LAYER_1
 10
5.967665549887549
 20
10.53772835256372
 30
0.0
  0
VERTEX
  5
3FD
  8
LAYER_1
 10
5.935174118145213
 20
10.58518668289291
 30
0.0
  0
VERTEX
  5
3FE
  8
LAYER_1
 10
5.903714160426442
 20
10.63325547744012
 30
0.0
  0
VERTEX
  5
3FF
  8
LAYER_1
 10
5.873285676731237
 20
10.68193473620537
 30
0.0
  0
VERTEX
  5
400
  8
LAYER_1
 10
5.843888667059599
 20
10.73122445918864
 30
0.0
  0
VERTEX
  5
401
  8
LAYER_1
 10
5.815523131411528
 20
10.78112464638994
 30
0.0
  0
VERTEX
  5
402
  8
LAYER_1
 10
5.788189069787022
 20
10.83163529780927
 30
0.0
  0
VERTEX
  5
403
  8
LAYER_1
 10
5.761886482186083
 20
10.88275641344663
 30
0.0
  0
VERTEX
  5
404
  8
LAYER_1
 10
5.736615368608709
 20
10.93448799330202
 30
0.0
  0
VERTEX
  5
405
  8
LAYER_1
 10
5.712375729054902
 20
10.98683003737544
 30
0.0
  0
VERTEX
  5
406
  8
LAYER_1
 10
5.689167563524662
 20
11.03978254566688
 30
0.0
  0
VERTEX
  5
407
  8
LAYER_1
 10
5.666990872017988
 20
11.09334551817636
 30
0.0
  0
VERTEX
  5
408
  8
LAYER_1
 10
5.645845654534879
 20
11.14751895490387
 30
0.0
  0
VERTEX
  5
409
  8
LAYER_1
 10
5.625731911075338
 20
11.2023028558494
 30
0.0
  0
VERTEX
  5
40A
  8
LAYER_1
 10
5.606649641639361
 20
11.25769722101296
 30
0.0
  0
VERTEX
  5
40B
  8
LAYER_1
 10
5.588598846226953
 20
11.31370205039455
 30
0.0
  0
VERTEX
  5
40C
  8
LAYER_1
 10
5.571579524838109
 20
11.37031734399417
 30
0.0
  0
VERTEX
  5
40D
  8
LAYER_1
 10
5.555591677472832
 20
11.42754310181182
 30
0.0
  0
VERTEX
  5
40E
  8
LAYER_1
 10
5.540635304131121
 20
11.4853793238475
 30
0.0
  0
VERTEX
  5
40F
  8
LAYER_1
 10
5.526710404812977
 20
11.54382601010121
 30
0.0
  0
VERTEX
  5
410
  8
LAYER_1
 10
5.513816979518399
 20
11.60288316057295
 30
0.0
  0
VERTEX
  5
411
  8
LAYER_1
 10
5.501955028247387
 20
11.66255077526271
 30
0.0
  0
VERTEX
  5
412
  8
LAYER_1
 10
5.491124550999942
 20
11.72282885417051
 30
0.0
  0
VERTEX
  5
413
  8
LAYER_1
 10
5.481325547776063
 20
11.78371739729633
 30
0.0
  0
VERTEX
  5
414
  8
LAYER_1
 10
5.472558018575749
 20
11.84521640464018
 30
0.0
  0
VERTEX
  5
415
  8
LAYER_1
 10
5.464821963399003
 20
11.90732587620207
 30
0.0
  0
VERTEX
  5
416
  8
LAYER_1
 10
5.458117382245822
 20
11.97004581198198
 30
0.0
  0
VERTEX
  5
417
  8
LAYER_1
 10
5.452444275116208
 20
12.03337621197992
 30
0.0
  0
VERTEX
  5
418
  8
LAYER_1
 10
5.447802642010159
 20
12.09731707619589
 30
0.0
  0
VERTEX
  5
419
  8
LAYER_1
 10
5.444192482927678
 20
12.16186840462989
 30
0.0
  0
VERTEX
  5
41A
  8
LAYER_1
 10
5.441613797868762
 20
12.22703019728191
 30
0.0
  0
VERTEX
  5
41B
  8
LAYER_1
 10
5.440066586833412
 20
12.29280245415197
 30
0.0
  0
SEQEND
  5
C6D
  8
LAYER_1
  0
POLYLINE
  5
CB
  8
LAYER_1
 66
     1
 10
0.0
 20
0.0
 30
0.0
 70
     1
  0
VERTEX
  5
41C
  8
LAYER_1
 10
6.028740039010819
 20
12.35014749808119
 30
0.0
  0
VERTEX
  5
41D
  8
LAYER_1
 10
6.029159294608833
 20
12.28967157745618
 30
0.0
  0
VERTEX
  5
41E
  8
LAYER_1
 10
6.030417061402876
 20
12.23004896915318
 30
0.0
  0
VERTEX
  5
41F
  8
LAYER_1
 10
6.032513339392946
 20
12.17127967317218
 30
0.0
  0
VERTEX
  5
420
  8
LAYER_1
 10
6.035448128579045
 20
12.11336368951319
 30
0.0
  0
VERTEX
  5
421
  8
LAYER_1
 10
6.039221428961172
 20
12.0563010181762
 30
0.0
  0
VERTEX
  5
422
  8
LAYER_1
 10
6.043833240539328
 20
12.00009165916121
 30
0.0
  0
VERTEX
  5
423
  8
LAYER_1
 10
6.049283563313513
 20
11.94473561246823
 30
0.0
  0
VERTEX
  5
424
  8
LAYER_1
 10
6.055572397283726
 20
11.89023287809725
 30
0.0
  0
VERTEX
  5
425
  8
LAYER_1
 10
6.062699742449967
 20
11.83658345604828
 30
0.0
  0
VERTEX
  5
426
  8
LAYER_1
 10
6.070665598812235
 20
11.78378734632131
 30
0.0
  0
VERTEX
  5
427
  8
LAYER_1
 10
6.079469966370533
 20
11.73184454891635
 30
0.0
  0
VERTEX
  5
428
  8
LAYER_1
 10
6.089112845124859
 20
11.68075506383339
 30
0.0
  0
VERTEX
  5
429
  8
LAYER_1
 10
6.099594235075213
 20
11.63051889107243
 30
0.0
  0
VERTEX
  5
42A
  8
LAYER_1
 10
6.110914136221596
 20
11.58113603063348
 30
0.0
  0
VERTEX
  5
42B
  8
LAYER_1
 10
6.123072548564007
 20
11.53260648251653
 30
0.0
  0
VERTEX
  5
42C
  8
LAYER_1
 10
6.136069472102447
 20
11.48493024672159
 30
0.0
  0
VERTEX
  5
42D
  8
LAYER_1
 10
6.149904906836914
 20
11.43810732324865
 30
0.0
  0
VERTEX
  5
42E
  8
LAYER_1
 10
6.164578852767411
 20
11.39213771209772
 30
0.0
  0
VERTEX
  5
42F
  8
LAYER_1
 10
6.180091309893935
 20
11.34702141326879
 30
0.0
  0
VERTEX
  5
430
  8
LAYER_1
 10
6.196442278216487
 20
11.30275842676187
 30
0.0
  0
VERTEX
  5
431
  8
LAYER_1
 10
6.213631757735069
 20
11.25934875257694
 30
0.0
  0
VERTEX
  5
432
  8
LAYER_1
 10
6.231659748449679
 20
11.21679239071403
 30
0.0
  0
VERTEX
  5
433
  8
LAYER_1
 10
6.250526250360316
 20
11.17508934117312
 30
0.0
  0
VERTEX
  5
434
  8
LAYER_1
 10
6.270231263466982
 20
11.13423960395421
 30
0.0
  0
VERTEX
  5
435
  8
LAYER_1
 10
6.290774787769676
 20
11.0942431790573
 30
0.0
  0
VERTEX
  5
436
  8
LAYER_1
 10
6.312156823268399
 20
11.0551000664824
 30
0.0
  0
VERTEX
  5
437
  8
LAYER_1
 10
6.334377369963151
 20
11.01681026622951
 30
0.0
  0
VERTEX
  5
438
  8
LAYER_1
 10
6.35743642785393
 20
10.97937377829862
 30
0.0
  0
VERTEX
  5
439
  8
LAYER_1
 10
6.381333996940738
 20
10.94279060268973
 30
0.0
  0
VERTEX
  5
43A
  8
LAYER_1
 10
6.406070077223574
 20
10.90706073940285
 30
0.0
  0
VERTEX
  5
43B
  8
LAYER_1
 10
6.431644668702438
 20
10.87218418843797
 30
0.0
  0
VERTEX
  5
43C
  8
LAYER_1
 10
6.458057771377331
 20
10.8381609497951
 30
0.0
  0
VERTEX
  5
43D
  8
LAYER_1
 10
6.485070813025114
 20
10.8050893139145
 30
0.0
  0
VERTEX
  5
43E
  8
LAYER_1
 10
6.51244522142265
 20
10.77306757123647
 30
0.0
  0
VERTEX
  5
43F
  8
LAYER_1
 10
6.540180996569939
 20
10.74209572176099
 30
0.0
  0
VERTEX
  5
440
  8
LAYER_1
 10
6.568278138466981
 20
10.71217376548808
 30
0.0
  0
VERTEX
  5
441
  8
LAYER_1
 10
6.596736647113776
 20
10.68330170241772
 30
0.0
  0
VERTEX
  5
442
  8
LAYER_1
 10
6.625556522510324
 20
10.65547953254991
 30
0.0
  0
VERTEX
  5
443
  8
LAYER_1
 10
6.654737764656623
 20
10.62870725588467
 30
0.0
  0
VERTEX
  5
444
  8
LAYER_1
 10
6.684280373552677
 20
10.60298487242199
 30
0.0
  0
VERTEX
  5
445
  8
LAYER_1
 10
6.714184349198483
 20
10.57831238216187
 30
0.0
  0
VERTEX
  5
446
  8
LAYER_1
 10
6.744449691594042
 20
10.5546897851043
 30
0.0
  0
VERTEX
  5
447
  8
LAYER_1
 10
6.775076400739352
 20
10.53211708124929
 30
0.0
  0
VERTEX
  5
448
  8
LAYER_1
 10
6.806064476634417
 20
10.51059427059684
 30
0.0
  0
VERTEX
  5
449
  8
LAYER_1
 10
6.837413919279235
 20
10.49012135314695
 30
0.0
  0
VERTEX
  5
44A
  8
LAYER_1
 10
6.869124728673805
 20
10.47069832889962
 30
0.0
  0
VERTEX
  5
44B
  8
LAYER_1
 10
6.901196904818127
 20
10.45232519785485
 30
0.0
  0
VERTEX
  5
44C
  8
LAYER_1
 10
6.933630447712202
 20
10.43500196001263
 30
0.0
  0
VERTEX
  5
44D
  8
LAYER_1
 10
6.96642535735603
 20
10.41872861537297
 30
0.0
  0
VERTEX
  5
44E
  8
LAYER_1
 10
6.999581633749612
 20
10.40350516393588
 30
0.0
  0
VERTEX
  5
44F
  8
LAYER_1
 10
7.033099276892946
 20
10.38933160570134
 30
0.0
  0
VERTEX
  5
450
  8
LAYER_1
 10
7.066978286786032
 20
10.37620794066936
 30
0.0
  0
VERTEX
  5
451
  8
LAYER_1
 10
7.101218663428872
 20
10.36413416883993
 30
0.0
  0
VERTEX
  5
452
  8
LAYER_1
 10
7.135820406821464
 20
10.35311029021307
 30
0.0
  0
VERTEX
  5
453
  8
LAYER_1
 10
7.170783516963809
 20
10.34313630478876
 30
0.0
  0
VERTEX
  5
454
  8
LAYER_1
 10
7.206107993855907
 20
10.33421221256701
 30
0.0
  0
VERTEX
  5
455
  8
LAYER_1
 10
7.241793837497758
 20
10.32633801354783
 30
0.0
  0
VERTEX
  5
456
  8
LAYER_1
 10
7.277841047889362
 20
10.31951370773119
 30
0.0
  0
VERTEX
  5
457
  8
LAYER_1
 10
7.314249625030717
 20
10.31373929511712
 30
0.0
  0
VERTEX
  5
458
  8
LAYER_1
 10
7.351019568921827
 20
10.30901477570561
 30
0.0
  0
VERTEX
  5
459
  8
LAYER_1
 10
7.388150879562689
 20
10.30534014949665
 30
0.0
  0
VERTEX
  5
45A
  8
LAYER_1
 10
7.425643556953304
 20
10.30271541649026
 30
0.0
  0
VERTEX
  5
45B
  8
LAYER_1
 10
7.46349760109367
 20
10.30114057668642
 30
0.0
  0
VERTEX
  5
45C
  8
LAYER_1
 10
7.501713011983791
 20
10.30061563008514
 30
0.0
  0
VERTEX
  5
45D
  8
LAYER_1
 10
7.540809035050493
 20
10.30114583930899
 30
0.0
  0
VERTEX
  5
45E
  8
LAYER_1
 10
7.579508607216982
 20
10.30273646698054
 30
0.0
  0
VERTEX
  5
45F
  8
LAYER_1
 10
7.617811728483256
 20
10.30538751309978
 30
0.0
  0
VERTEX
  5
460
  8
LAYER_1
 10
7.655718398849316
 20
10.30909897766672
 30
0.0
  0
VERTEX
  5
461
  8
LAYER_1
 10
7.69322861831516
 20
10.31387086068135
 30
0.0
  0
VERTEX
  5
462
  8
LAYER_1
 10
7.730342386880792
 20
10.31970316214369
 30
0.0
  0
VERTEX
  5
463
  8
LAYER_1
 10
7.767059704546208
 20
10.32659588205372
 30
0.0
  0
VERTEX
  5
464
  8
LAYER_1
 10
7.803380571311411
 20
10.33454902041144
 30
0.0
  0
VERTEX
  5
465
  8
LAYER_1
 10
7.8393049871764
 20
10.34356257721687
 30
0.0
  0
VERTEX
  5
466
  8
LAYER_1
 10
7.874832952141174
 20
10.35363655246999
 30
0.0
  0
VERTEX
  5
467
  8
LAYER_1
 10
7.909964466205734
 20
10.3647709461708
 30
0.0
  0
VERTEX
  5
468
  8
LAYER_1
 10
7.944699529370079
 20
10.37696575831932
 30
0.0
  0
VERTEX
  5
469
  8
LAYER_1
 10
7.979038141634211
 20
10.39022098891553
 30
0.0
  0
VERTEX
  5
46A
  8
LAYER_1
 10
8.012980302998127
 20
10.40453663795944
 30
0.0
  0
VERTEX
  5
46B
  8
LAYER_1
 10
8.04652601346183
 20
10.41991270545105
 30
0.0
  0
VERTEX
  5
46C
  8
LAYER_1
 10
8.07967527302532
 20
10.43634919139035
 30
0.0
  0
VERTEX
  5
46D
  8
LAYER_1
 10
8.112428081688595
 20
10.45384609577735
 30
0.0
  0
VERTEX
  5
46E
  8
LAYER_1
 10
8.144784439451655
 20
10.47240341861204
 30
0.0
  0
VERTEX
  5
46F
  8
LAYER_1
 10
8.176744346314502
 20
10.49202115989444
 30
0.0
  0
VERTEX
  5
470
  8
LAYER_1
 10
8.208307802277133
 20
10.51269931962453
 30
0.0
  0
VERTEX
  5
471
  8
LAYER_1
 10
8.239474807339551
 20
10.53443789780231
 30
0.0
  0
VERTEX
  5
472
  8
LAYER_1
 10
8.270245361501754
 20
10.5572368944278
 30
0.0
  0
VERTEX
  5
473
  8
LAYER_1
 10
8.300619464763743
 20
10.58109630950098
 30
0.0
  0
VERTEX
  5
474
  8
LAYER_1
 10
8.330597117125517
 20
10.60601614302186
 30
0.0
  0
VERTEX
  5
475
  8
LAYER_1
 10
8.360178318587078
 20
10.63199639499043
 30
0.0
  0
VERTEX
  5
476
  8
LAYER_1
 10
8.389363069148423
 20
10.6590370654067
 30
0.0
  0
VERTEX
  5
477
  8
LAYER_1
 10
8.418151368809557
 20
10.68713815427067
 30
0.0
  0
VERTEX
  5
478
  8
LAYER_1
 10
8.446543217570476
 20
10.71629966158234
 30
0.0
  0
VERTEX
  5
479
  8
LAYER_1
 10
8.474538615431179
 20
10.7465215873417
 30
0.0
  0
VERTEX
  5
47A
  8
LAYER_1
 10
8.502137562391667
 20
10.77780393154876
 30
0.0
  0
VERTEX
  5
47B
  8
LAYER_1
 10
8.529340058451943
 20
10.81014669420352
 30
0.0
  0
VERTEX
  5
47C
  8
LAYER_1
 10
8.556146103612004
 20
10.84354987530597
 30
0.0
  0
VERTEX
  5
47D
  8
LAYER_1
 10
8.569346076671238
 20
10.86064122884123
 30
0.0
  0
VERTEX
  5
47E
  8
LAYER_1
 10
8.58233817613899
 20
10.87798189912071
 30
0.0
  0
VERTEX
  5
47F
  8
LAYER_1
 10
8.595122402015257
 20
10.8955718861444
 30
0.0
  0
VERTEX
  5
480
  8
LAYER_1
 10
8.607698754300039
 20
10.91341118991231
 30
0.0
  0
VERTEX
  5
481
  8
LAYER_1
 10
8.620067232993337
 20
10.93149981042443
 30
0.0
  0
VERTEX
  5
482
  8
LAYER_1
 10
8.632227838095153
 20
10.94983774768078
 30
0.0
  0
VERTEX
  5
483
  8
LAYER_1
 10
8.644180569605483
 20
10.96842500168134
 30
0.0
  0
VERTEX
  5
484
  8
LAYER_1
 10
8.65592542752433
 20
10.98726157242611
 30
0.0
  0
VERTEX
  5
485
  8
LAYER_1
 10
8.667462411851693
 20
11.0063474599151
 30
0.0
  0
VERTEX
  5
486
  8
LAYER_1
 10
8.678791522587572
 20
11.02568266414831
 30
0.0
  0
VERTEX
  5
487
  8
LAYER_1
 10
8.689912759731966
 20
11.04526718512574
 30
0.0
  0
VERTEX
  5
488
  8
LAYER_1
 10
8.700826123284877
 20
11.06510102284738
 30
0.0
  0
VERTEX
  5
489
  8
LAYER_1
 10
8.722029229616247
 20
11.10551664852331
 30
0.0
  0
VERTEX
  5
48A
  8
LAYER_1
 10
8.74240084158168
 20
11.14692954117611
 30
0.0
  0
VERTEX
  5
48B
  8
LAYER_1
 10
8.761940959181178
 20
11.18933970080578
 30
0.0
  0
VERTEX
  5
48C
  8
LAYER_1
 10
8.78064958241474
 20
11.23274712741231
 30
0.0
  0
VERTEX
  5
48D
  8
LAYER_1
 10
8.798526711282367
 20
11.27715182099571
 30
0.0
  0
VERTEX
  5
48E
  8
LAYER_1
 10
8.815572345784055
 20
11.32255378155597
 30
0.0
  0
VERTEX
  5
48F
  8
LAYER_1
 10
8.831786485919809
 20
11.3689530090931
 30
0.0
  0
VERTEX
  5
490
  8
LAYER_1
 10
8.847169131689625
 20
11.4163495036071
 30
0.0
  0
VERTEX
  5
491
  8
LAYER_1
 10
8.861720283093506
 20
11.46474326509797
 30
0.0
  0
VERTEX
  5
492
  8
LAYER_1
 10
8.87543994013145
 20
11.5141342935657
 30
0.0
  0
VERTEX
  5
493
  8
LAYER_1
 10
8.88832810280346
 20
11.56452258901029
 30
0.0
  0
VERTEX
  5
494
  8
LAYER_1
 10
8.900384771109533
 20
11.61590815143176
 30
0.0
  0
VERTEX
  5
495
  8
LAYER_1
 10
8.911609945049669
 20
11.66829098083009
 30
0.0
  0
VERTEX
  5
496
  8
LAYER_1
 10
8.92200362462387
 20
11.72167107720528
 30
0.0
  0
VERTEX
  5
497
  8
LAYER_1
 10
8.931565809832135
 20
11.77604844055734
 30
0.0
  0
VERTEX
  5
498
  8
LAYER_1
 10
8.940296500674464
 20
11.83142307088627
 30
0.0
  0
VERTEX
  5
499
  8
LAYER_1
 10
8.948195697150856
 20
11.88779496819206
 30
0.0
  0
VERTEX
  5
49A
  8
LAYER_1
 10
8.955263399261312
 20
11.94516413247473
 30
0.0
  0
VERTEX
  5
49B
  8
LAYER_1
 10
8.961499607005834
 20
12.00353056373426
 30
0.0
  0
VERTEX
  5
49C
  8
LAYER_1
 10
8.966904320384417
 20
12.06289426197065
 30
0.0
  0
VERTEX
  5
49D
  8
LAYER_1
 10
8.971477539397066
 20
12.12325522718391
 30
0.0
  0
VERTEX
  5
49E
  8
LAYER_1
 10
8.975219264043778
 20
12.18461345937404
 30
0.0
  0
VERTEX
  5
49F
  8
LAYER_1
 10
8.978129494324554
 20
12.24696895854103
 30
0.0
  0
VERTEX
  5
4A0
  8
LAYER_1
 10
8.980208230239395
 20
12.31032172468489
 30
0.0
  0
VERTEX
  5
4A1
  8
LAYER_1
 10
8.981455471788298
 20
12.37467175780561
 30
0.0
  0
VERTEX
  5
4A2
  8
LAYER_1
 10
8.981871218971266
 20
12.4400190579032
 30
0.0
  0
VERTEX
  5
4A3
  8
LAYER_1
 10
8.981657205653452
 20
12.482351484212
 30
0.0
  0
VERTEX
  5
4A4
  8
LAYER_1
 10
8.981015165700008
 20
12.52440301804117
 30
0.0
  0
VERTEX
  5
4A5
  8
LAYER_1
 10
8.979945099110934
 20
12.56617365939071
 30
0.0
  0
VERTEX
  5
4A6
  8
LAYER_1
 10
8.978447005886231
 20
12.60766340826061
 30
0.0
  0
VERTEX
  5
4A7
  8
LAYER_1
 10
8.976520886025899
 20
12.64887226465088
 30
0.0
  0
VERTEX
  5
4A8
  8
LAYER_1
 10
8.974166739529936
 20
12.68980022856152
 30
0.0
  0
VERTEX
  5
4A9
  8
LAYER_1
 10
8.971384566398344
 20
12.73044729999253
 30
0.0
  0
VERTEX
  5
4AA
  8
LAYER_1
 10
8.968174366631121
 20
12.77081347894391
 30
0.0
  0
VERTEX
  5
4AB
  8
LAYER_1
 10
8.96453614022827
 20
12.81089876541565
 30
0.0
  0
VERTEX
  5
4AC
  8
LAYER_1
 10
8.96046988718979
 20
12.85070315940776
 30
0.0
  0
VERTEX
  5
4AD
  8
LAYER_1
 10
8.95597560751568
 20
12.89022666092025
 30
0.0
  0
VERTEX
  5
4AE
  8
LAYER_1
 10
8.951053301205938
 20
12.9294692699531
 30
0.0
  0
VERTEX
  5
4AF
  8
LAYER_1
 10
8.94570296826057
 20
12.96843098650631
 30
0.0
  0
VERTEX
  5
4B0
  8
LAYER_1
 10
8.939924608679572
 20
13.0071118105799
 30
0.0
  0
VERTEX
  5
4B1
  8
LAYER_1
 10
8.933718222462943
 20
13.04551174217385
 30
0.0
  0
VERTEX
  5
4B2
  8
LAYER_1
 10
8.927083809610686
 20
13.08363078128817
 30
0.0
  0
VERTEX
  5
4B3
  8
LAYER_1
 10
8.920021370122798
 20
13.12146892792286
 30
0.0
  0
VERTEX
  5
4B4
  8
LAYER_1
 10
8.912530903999283
 20
13.15902618207792
 30
0.0
  0
VERTEX
  5
4B5
  8
LAYER_1
 10
8.904612411240135
 20
13.19630254375335
 30
0.0
  0
VERTEX
  5
4B6
  8
LAYER_1
 10
8.89626589184536
 20
13.23329801294914
 30
0.0
  0
VERTEX
  5
4B7
  8
LAYER_1
 10
8.887491345814954
 20
13.2700125896653
 30
0.0
  0
VERTEX
  5
4B8
  8
LAYER_1
 10
8.87828877314892
 20
13.30644627390183
 30
0.0
  0
VERTEX
  5
4B9
  8
LAYER_1
 10
8.868658173847255
 20
13.34259906565873
 30
0.0
  0
VERTEX
  5
4BA
  8
LAYER_1
 10
8.85859954790996
 20
13.378470964936
 30
0.0
  0
VERTEX
  5
4BB
  8
LAYER_1
 10
8.848112895337037
 20
13.41406197173363
 30
0.0
  0
VERTEX
  5
4BC
  8
LAYER_1
 10
8.837198216128485
 20
13.44937208605164
 30
0.0
  0
VERTEX
  5
4BD
  8
LAYER_1
 10
8.825855510284303
 20
13.48440130789001
 30
0.0
  0
VERTEX
  5
4BE
  8
LAYER_1
 10
8.81408477780449
 20
13.51914963724874
 30
0.0
  0
VERTEX
  5
4BF
  8
LAYER_1
 10
8.80188601868905
 20
13.55361707412785
 30
0.0
  0
VERTEX
  5
4C0
  8
LAYER_1
 10
8.78925923293798
 20
13.58780361852733
 30
0.0
  0
VERTEX
  5
4C1
  8
LAYER_1
 10
8.776204420551277
 20
13.62170927044717
 30
0.0
  0
VERTEX
  5
4C2
  8
LAYER_1
 10
8.762721581528947
 20
13.65533402988738
 30
0.0
  0
VERTEX
  5
4C3
  8
LAYER_1
 10
8.752001619355454
 20
13.68079616021832
 30
0.0
  0
VERTEX
  5
4C4
  8
LAYER_1
 10
8.740948357752579
 20
13.70593864104717
 30
0.0
  0
VERTEX
  5
4C5
  8
LAYER_1
 10
8.729561796720319
 20
13.73076147237392
 30
0.0
  0
VERTEX
  5
4C6
  8
LAYER_1
 10
8.717841936258676
 20
13.75526465419857
 30
0.0
  0
VERTEX
  5
4C7
  8
LAYER_1
 10
8.705788776367651
 20
13.77944818652113
 30
0.0
  0
VERTEX
  5
4C8
  8
LAYER_1
 10
8.693402317047239
 20
13.8033120693416
 30
0.0
  0
VERTEX
  5
4C9
  8
LAYER_1
 10
8.680682558297447
 20
13.82685630265997
 30
0.0
  0
VERTEX
  5
4CA
  8
LAYER_1
 10
8.667629500118268
 20
13.85008088647625
 30
0.0
  0
VERTEX
  5
4CB
  8
LAYER_1
 10
8.654243142509708
 20
13.87298582079043
 30
0.0
  0
VERTEX
  5
4CC
  8
LAYER_1
 10
8.640523485471762
 20
13.89557110560252
 30
0.0
  0
VERTEX
  5
4CD
  8
LAYER_1
 10
8.626470529004434
 20
13.91783674091251
 30
0.0
  0
VERTEX
  5
4CE
  8
LAYER_1
 10
8.61208427310772
 20
13.93978272672041
 30
0.0
  0
VERTEX
  5
4CF
  8
LAYER_1
 10
8.597364717781625
 20
13.96140906302621
 30
0.0
  0
VERTEX
  5
4D0
  8
LAYER_1
 10
8.582311863026145
 20
13.98271574982992
 30
0.0
  0
VERTEX
  5
4D1
  8
LAYER_1
 10
8.566925708841284
 20
14.00370278713154
 30
0.0
  0
VERTEX
  5
4D2
  8
LAYER_1
 10
8.551206255227035
 20
14.02437017493105
 30
0.0
  0
VERTEX
  5
4D3
  8
LAYER_1
 10
8.535153502183404
 20
14.04471791322848
 30
0.0
  0
VERTEX
  5
4D4
  8
LAYER_1
 10
8.518767449710388
 20
14.06474600202381
 30
0.0
  0
VERTEX
  5
4D5
  8
LAYER_1
 10
8.502048097807991
 20
14.08445444131704
 30
0.0
  0
VERTEX
  5
4D6
  8
LAYER_1
 10
8.484995446476209
 20
14.10384323110818
 30
0.0
  0
VERTEX
  5
4D7
  8
LAYER_1
 10
8.467609495715045
 20
14.12291237139723
 30
0.0
  0
VERTEX
  5
4D8
  8
LAYER_1
 10
8.449890245524497
 20
14.14166186218418
 30
0.0
  0
VERTEX
  5
4D9
  8
LAYER_1
 10
8.431837695904566
 20
14.16009170346903
 30
0.0
  0
VERTEX
  5
4DA
  8
LAYER_1
 10
8.41345184685525
 20
14.17820189525179
 30
0.0
  0
VERTEX
  5
4DB
  8
LAYER_1
 10
8.39473269837655
 20
14.19599243753246
 30
0.0
  0
VERTEX
  5
4DC
  8
LAYER_1
 10
8.375680250468466
 20
14.21346333031103
 30
0.0
  0
VERTEX
  5
4DD
  8
LAYER_1
 10
8.356294503131
 20
14.23061457358751
 30
0.0
  0
VERTEX
  5
4DE
  8
LAYER_1
 10
8.336575456364148
 20
14.24744616736189
 30
0.0
  0
VERTEX
  5
4DF
  8
LAYER_1
 10
8.316523110167914
 20
14.26395811163418
 30
0.0
  0
VERTEX
  5
4E0
  8
LAYER_1
 10
8.296137464542296
 20
14.28015040640437
 30
0.0
  0
VERTEX
  5
4E1
  8
LAYER_1
 10
8.275418519487296
 20
14.29602305167247
 30
0.0
  0
VERTEX
  5
4E2
  8
LAYER_1
 10
8.254366275002909
 20
14.31157604743847
 30
0.0
  0
VERTEX
  5
4E3
  8
LAYER_1
 10
8.233085983540523
 20
14.32672870015632
 30
0.0
  0
VERTEX
  5
4E4
  8
LAYER_1
 10
8.211682897551523
 20
14.34140031627995
 30
0.0
  0
VERTEX
  5
4E5
  8
LAYER_1
 10
8.190157017035908
 20
14.35559089580936
 30
0.0
  0
VERTEX
  5
4E6
  8
LAYER_1
 10
8.168508341993679
 20
14.36930043874455
 30
0.0
  0
VERTEX
  5
4E7
  8
LAYER_1
 10
8.146736872424835
 20
14.38252894508553
 30
0.0
  0
VERTEX
  5
4E8
  8
LAYER_1
 10
8.124842608329374
 20
14.39527641483229
 30
0.0
  0
VERTEX
  5
4E9
  8
LAYER_1
 10
8.102825549707301
 20
14.40754284798483
 30
0.0
  0
VERTEX
  5
4EA
  8
LAYER_1
 10
8.08068569655861
 20
14.41932824454316
 30
0.0
  0
VERTEX
  5
4EB
  8
LAYER_1
 10
8.058423048883306
 20
14.43063260450726
 30
0.0
  0
VERTEX
  5
4EC
  8
LAYER_1
 10
8.036037606681386
 20
14.44145592787716
 30
0.0
  0
VERTEX
  5
4ED
  8
LAYER_1
 10
8.013529369952852
 20
14.45179821465283
 30
0.0
  0
VERTEX
  5
4EE
  8
LAYER_1
 10
7.990898338697701
 20
14.46165946483428
 30
0.0
  0
VERTEX
  5
4EF
  8
LAYER_1
 10
7.968144512915935
 20
14.47103967842152
 30
0.0
  0
VERTEX
  5
4F0
  8
LAYER_1
 10
7.945267892607555
 20
14.47993885541455
 30
0.0
  0
VERTEX
  5
4F1
  8
LAYER_1
 10
7.92226847777256
 20
14.48835699581335
 30
0.0
  0
VERTEX
  5
4F2
  8
LAYER_1
 10
7.89914626841095
 20
14.49629409961794
 30
0.0
  0
VERTEX
  5
4F3
  8
LAYER_1
 10
7.875901264522725
 20
14.50375016682831
 30
0.0
  0
VERTEX
  5
4F4
  8
LAYER_1
 10
7.852533466107885
 20
14.51072519744446
 30
0.0
  0
VERTEX
  5
4F5
  8
LAYER_1
 10
7.82904287316643
 20
14.51721919146639
 30
0.0
  0
VERTEX
  5
4F6
  8
LAYER_1
 10
7.80542948569836
 20
14.52323214889411
 30
0.0
  0
VERTEX
  5
4F7
  8
LAYER_1
 10
7.781693303703674
 20
14.52876406972761
 30
0.0
  0
VERTEX
  5
4F8
  8
LAYER_1
 10
7.757834327182374
 20
14.53381495396689
 30
0.0
  0
VERTEX
  5
4F9
  8
LAYER_1
 10
7.733852556134458
 20
14.53838480161195
 30
0.0
  0
VERTEX
  5
4FA
  8
LAYER_1
 10
7.709747990559928
 20
14.5424736126628
 30
0.0
  0
VERTEX
  5
4FB
  8
LAYER_1
 10
7.685520630458782
 20
14.54608138711943
 30
0.0
  0
VERTEX
  5
4FC
  8
LAYER_1
 10
7.661170475831022
 20
14.54920812498185
 30
0.0
  0
VERTEX
  5
4FD
  8
LAYER_1
 10
7.636697526676647
 20
14.55185382625004
 30
0.0
  0
VERTEX
  5
4FE
  8
LAYER_1
 10
7.612101782995657
 20
14.55401849092402
 30
0.0
  0
VERTEX
  5
4FF
  8
LAYER_1
 10
7.587383244788051
 20
14.55570211900378
 30
0.0
  0
VERTEX
  5
500
  8
LAYER_1
 10
7.56254191205383
 20
14.55690471048932
 30
0.0
  0
VERTEX
  5
501
  8
LAYER_1
 10
7.537577784792995
 20
14.55762626538065
 30
0.0
  0
VERTEX
  5
502
  8
LAYER_1
 10
7.512490863005544
 20
14.55786678367776
 30
0.0
  0
VERTEX
  5
503
  8
LAYER_1
 10
7.472296706029399
 20
14.55734008286895
 30
0.0
  0
VERTEX
  5
504
  8
LAYER_1
 10
7.432548117764114
 20
14.55575998044255
 30
0.0
  0
VERTEX
  5
505
  8
LAYER_1
 10
7.393245098209689
 20
14.55312647639854
 30
0.0
  0
VERTEX
  5
506
  8
LAYER_1
 10
7.354387647366124
 20
14.54943957073692
 30
0.0
  0
VERTEX
  5
507
  8
LAYER_1
 10
7.315975765233421
 20
14.5446992634577
 30
0.0
  0
VERTEX
  5
508
  8
LAYER_1
 10
7.278009451811577
 20
14.53890555456087
 30
0.0
  0
VERTEX
  5
509
  8
LAYER_1
 10
7.240488707100593
 20
14.53205844404644
 30
0.0
  0
VERTEX
  5
50A
  8
LAYER_1
 10
7.203413531100469
 20
14.52415793191441
 30
0.0
  0
VERTEX
  5
50B
  8
LAYER_1
 10
7.166783923811205
 20
14.51520401816477
 30
0.0
  0
VERTEX
  5
50C
  8
LAYER_1
 10
7.130599885232802
 20
14.50519670279752
 30
0.0
  0
VERTEX
  5
50D
  8
LAYER_1
 10
7.094861415365258
 20
14.49413598581268
 30
0.0
  0
VERTEX
  5
50E
  8
LAYER_1
 10
7.059568514208577
 20
14.48202186721022
 30
0.0
  0
VERTEX
  5
50F
  8
LAYER_1
 10
7.024721181762754
 20
14.46885434699016
 30
0.0
  0
VERTEX
  5
510
  8
LAYER_1
 10
6.990319418027791
 20
14.4546334251525
 30
0.0
  0
VERTEX
  5
511
  8
LAYER_1
 10
6.95636322300369
 20
14.43935910169724
 30
0.0
  0
VERTEX
  5
512
  8
LAYER_1
 10
6.922852596690449
 20
14.42303137662436
 30
0.0
  0
VERTEX
  5
513
  8
LAYER_1
 10
6.889787539088068
 20
14.40565024993388
 30
0.0
  0
VERTEX
  5
514
  8
LAYER_1
 10
6.857168050196547
 20
14.3872157216258
 30
0.0
  0
VERTEX
  5
515
  8
LAYER_1
 10
6.824994130015885
 20
14.36772779170012
 30
0.0
  0
VERTEX
  5
516
  8
LAYER_1
 10
6.793265778546084
 20
14.34718646015683
 30
0.0
  0
VERTEX
  5
517
  8
LAYER_1
 10
6.761982995787144
 20
14.32559172699593
 30
0.0
  0
VERTEX
  5
518
  8
LAYER_1
 10
6.731145781739064
 20
14.30294359221743
 30
0.0
  0
VERTEX
  5
519
  8
LAYER_1
 10
6.700754136401844
 20
14.27924205582133
 30
0.0
  0
VERTEX
  5
51A
  8
LAYER_1
 10
6.670808059775485
 20
14.25448711780762
 30
0.0
  0
VERTEX
  5
51B
  8
LAYER_1
 10
6.641307551859986
 20
14.22867877817631
 30
0.0
  0
VERTEX
  5
51C
  8
LAYER_1
 10
6.612252612655347
 20
14.20181703692739
 30
0.0
  0
VERTEX
  5
51D
  8
LAYER_1
 10
6.583643242161568
 20
14.17390189406087
 30
0.0
  0
VERTEX
  5
51E
  8
LAYER_1
 10
6.555479440378649
 20
14.14493334957674
 30
0.0
  0
VERTEX
  5
51F
  8
LAYER_1
 10
6.527761207306591
 20
14.11491140347501
 30
0.0
  0
VERTEX
  5
520
  8
LAYER_1
 10
6.500488542945393
 20
14.08383605575567
 30
0.0
  0
VERTEX
  5
521
  8
LAYER_1
 10
6.473661447295055
 20
14.05170730641873
 30
0.0
  0
VERTEX
  5
522
  8
LAYER_1
 10
6.447279920355578
 20
14.01852515546418
 30
0.0
  0
VERTEX
  5
523
  8
LAYER_1
 10
6.434302731651774
 20
14.0015267612229
 30
0.0
  0
VERTEX
  5
524
  8
LAYER_1
 10
6.421529908124405
 20
13.9842404302624
 30
0.0
  0
VERTEX
  5
525
  8
LAYER_1
 10
6.408961449773477
 20
13.96666616258268
 30
0.0
  0
VERTEX
  5
526
  8
LAYER_1
 10
6.396597356598986
 20
13.94880395818375
 30
0.0
  0
VERTEX
  5
527
  8
LAYER_1
 10
6.384437628600933
 20
13.9306538170656
 30
0.0
  0
VERTEX
  5
528
  8
LAYER_1
 10
6.372482265779317
 20
13.91221573922823
 30
0.0
  0
VERTEX
  5
529
  8
LAYER_1
 10
6.36073126813414
 20
13.89348972467165
 30
0.0
  0
VERTEX
  5
52A
  8
LAYER_1
 10
6.3491846356654
 20
13.87447577339585
 30
0.0
  0
VERTEX
  5
52B
  8
LAYER_1
 10
6.337842368373099
 20
13.85517388540083
 30
0.0
  0
VERTEX
  5
52C
  8
LAYER_1
 10
6.326704466257235
 20
13.8355840606866
 30
0.0
  0
VERTEX
  5
52D
  8
LAYER_1
 10
6.315770929317809
 20
13.81570629925315
 30
0.0
  0
VERTEX
  5
52E
  8
LAYER_1
 10
6.305041757554821
 20
13.79554060110048
 30
0.0
  0
VERTEX
  5
52F
  8
LAYER_1
 10
6.294516950968271
 20
13.7750869662286
 30
0.0
  0
VERTEX
  5
530
  8
LAYER_1
 10
6.284196509558158
 20
13.7543453946375
 30
0.0
  0
VERTEX
  5
531
  8
LAYER_1
 10
6.274080433324484
 20
13.73331588632718
 30
0.0
  0
VERTEX
  5
532
  8
LAYER_1
 10
6.264168722267247
 20
13.71199844129765
 30
0.0
  0
VERTEX
  5
533
  8
LAYER_1
 10
6.254461376386448
 20
13.6903930595489
 30
0.0
  0
VERTEX
  5
534
  8
LAYER_1
 10
6.244958395682087
 20
13.66849974108093
 30
0.0
  0
VERTEX
  5
535
  8
LAYER_1
 10
6.226565529802677
 20
13.62384929398735
 30
0.0
  0
VERTEX
  5
536
  8
LAYER_1
 10
6.20899012462902
 20
13.5780471000169
 30
0.0
  0
VERTEX
  5
537
  8
LAYER_1
 10
6.192232180161115
 20
13.53109315916958
 30
0.0
  0
VERTEX
  5
538
  8
LAYER_1
 10
6.176291696398962
 20
13.4829874714454
 30
0.0
  0
VERTEX
  5
539
  8
LAYER_1
 10
6.161168673342559
 20
13.43373003684435
 30
0.0
  0
VERTEX
  5
53A
  8
LAYER_1
 10
6.146863110991907
 20
13.38332085536643
 30
0.0
  0
VERTEX
  5
53B
  8
LAYER_1
 10
6.133375009347009
 20
13.33175992701164
 30
0.0
  0
VERTEX
  5
53C
  8
LAYER_1
 10
6.120704368407861
 20
13.27904725177999
 30
0.0
  0
VERTEX
  5
53D
  8
LAYER_1
 10
6.108851188174464
 20
13.22518282967147
 30
0.0
  0
VERTEX
  5
53E
  8
LAYER_1
 10
6.097815468646819
 20
13.17016666068608
 30
0.0
  0
VERTEX
  5
53F
  8
LAYER_1
 10
6.087597209824926
 20
13.11399874482383
 30
0.0
  0
VERTEX
  5
540
  8
LAYER_1
 10
6.078196411708785
 20
13.05667908208471
 30
0.0
  0
VERTEX
  5
541
  8
LAYER_1
 10
6.069613074298394
 20
12.99820767246872
 30
0.0
  0
VERTEX
  5
542
  8
LAYER_1
 10
6.061847197593754
 20
12.93858451597587
 30
0.0
  0
VERTEX
  5
543
  8
LAYER_1
 10
6.054898781594867
 20
12.87780961260615
 30
0.0
  0
VERTEX
  5
544
  8
LAYER_1
 10
6.048767826301731
 20
12.81588296235957
 30
0.0
  0
VERTEX
  5
545
  8
LAYER_1
 10
6.043454331714345
 20
12.75280456523611
 30
0.0
  0
VERTEX
  5
546
  8
LAYER_1
 10
6.038958297832712
 20
12.68857442123579
 30
0.0
  0
VERTEX
  5
547
  8
LAYER_1
 10
6.035279724656831
 20
12.6231925303586
 30
0.0
  0
VERTEX
  5
548
  8
LAYER_1
 10
6.0324186121867
 20
12.55665889260455
 30
0.0
  0
VERTEX
  5
549
  8
LAYER_1
 10
6.030374960422321
 20
12.48897350797363
 30
0.0
  0
VERTEX
  5
54A
  8
LAYER_1
 10
6.029148769363694
 20
12.42013637646584
 30
0.0
  0
SEQEND
  5
C6E
  8
LAYER_1
  0
POLYLINE
  5
CC
  8
LAYER_1
 66
     1
 10
0.0
 20
0.0
 30
0.0
 70
     1
  0
VERTEX
  5
54B
  8
LAYER_1
 10
10.29317642661794
 20
9.794056632062729
 30
0.0
  0
VERTEX
  5
54C
  8
LAYER_1
 10
10.29317642661794
 20
15.06083316469292
 30
0.0
  0
VERTEX
  5
54D
  8
LAYER_1
 10
11.92063193090271
 20
15.06083316469292
 30
0.0
  0
VERTEX
  5
54E
  8
LAYER_1
 10
11.99130544359223
 20
15.06044022220775
 30
0.0
  0
VERTEX
  5
54F
  8
LAYER_1
 10
12.05962130137074
 20
15.05926139475225
 30
0.0
  0
VERTEX
  5
550
  8
LAYER_1
 10
12.12557950423824
 20
15.05729668232641
 30
0.0
  0
VERTEX
  5
551
  8
LAYER_1
 10
12.18918005219473
 20
15.05454608493023
 30
0.0
  0
VERTEX
  5
552
  8
LAYER_1
 10
12.25042294524022
 20
15.05100960256372
 30
0.0
  0
VERTEX
  5
553
  8
LAYER_1
 10
12.3093081833747
 20
15.04668723522687
 30
0.0
  0
VERTEX
  5
554
  8
LAYER_1
 10
12.36583576659816
 20
15.04157898291968
 30
0.0
  0
VERTEX
  5
555
  8
LAYER_1
 10
12.42000569491062
 20
15.03568484564216
 30
0.0
  0
VERTEX
  5
556
  8
LAYER_1
 10
12.47181796831207
 20
15.0290048233943
 30
0.0
  0
VERTEX
  5
557
  8
LAYER_1
 10
12.52127258680251
 20
15.02153891617611
 30
0.0
  0
VERTEX
  5
558
  8
LAYER_1
 10
12.56836955038195
 20
15.01328712398758
 30
0.0
  0
VERTEX
  5
559
  8
LAYER_1
 10
12.59103391158004
 20
15.00886652102944
 30
0.0
  0
VERTEX
  5
55A
  8
LAYER_1
 10
12.61310885905037
 20
15.00424944682872
 30
0.0
  0
VERTEX
  5
55B
  8
LAYER_1
 10
12.63459439279296
 20
14.99943590138541
 30
0.0
  0
VERTEX
  5
55C
  8
LAYER_1
 10
12.65549051280779
 20
14.99442588469951
 30
0.0
  0
VERTEX
  5
55D
  8
LAYER_1
 10
12.67579721909487
 20
14.98921939677103
 30
0.0
  0
VERTEX
  5
55E
  8
LAYER_1
 10
12.69551451165419
 20
14.98381643759997
 30
0.0
  0
VERTEX
  5
55F
  8
LAYER_1
 10
12.71464239048577
 20
14.97821700718633
 30
0.0
  0
VERTEX
  5
560
  8
LAYER_1
 10
12.73318085558959
 20
14.9724211055301
 30
0.0
  0
VERTEX
  5
561
  8
LAYER_1
 10
12.75112990696566
 20
14.96642873263129
 30
0.0
  0
VERTEX
  5
562
  8
LAYER_1
 10
12.76848954461398
 20
14.96023988848989
 30
0.0
  0
VERTEX
  5
563
  8
LAYER_1
 10
12.79169420172918
 20
14.95147937611967
 30
0.0
  0
VERTEX
  5
564
  8
LAYER_1
 10
12.81460415198049
 20
14.94226276979344
 30
0.0
  0
VERTEX
  5
565
  8
LAYER_1
 10
12.83721939536793
 20
14.93259006951123
 30
0.0
  0
VERTEX
  5
566
  8
LAYER_1
 10
12.8595399318915
 20
14.92246127527301
 30
0.0
  0
VERTEX
  5
567
  8
LAYER_1
 10
12.88156576155119
 20
14.9118763870788
 30
0.0
  0
VERTEX
  5
568
  8
LAYER_1
 10
12.90329688434701
 20
14.90083540492858
 30
0.0
  0
VERTEX
  5
569
  8
LAYER_1
 10
12.92473330027894
 20
14.88933832882237
 30
0.0
  0
VERTEX
  5
56A
  8
LAYER_1
 10
12.94587500934701
 20
14.87738515876016
 30
0.0
  0
VERTEX
  5
56B
  8
LAYER_1
 10
12.96672201155119
 20
14.86497589474195
 30
0.0
  0
VERTEX
  5
56C
  8
LAYER_1
 10
12.9872743068915
 20
14.85211053676774
 30
0.0
  0
VERTEX
  5
56D
  8
LAYER_1
 10
13.00753189536794
 20
14.83878908483753
 30
0.0
  0
VERTEX
  5
56E
  8
LAYER_1
 10
13.02749477698049
 20
14.82501153895132
 30
0.0
  0
VERTEX
  5
56F
  8
LAYER_1
 10
13.04716295172918
 20
14.81077789910912
 30
0.0
  0
VERTEX
  5
570
  8
LAYER_1
 10
13.06653641961398
 20
14.79608816531091
 30
0.0
  0
VERTEX
  5
571
  8
LAYER_1
 10
13.08561518063491
 20
14.78094233755671
 30
0.0
  0
VERTEX
  5
572
  8
LAYER_1
 10
13.10439923479196
 20
14.76534041584651
 30
0.0
  0
VERTEX
  5
573
  8
LAYER_1
 10
13.12288858208514
 20
14.74928240018031
 30
0.0
  0
VERTEX
  5
574
  8
LAYER_1
 10
13.14108322251444
 20
14.73276829055811
 30
0.0
  0
VERTEX
  5
575
  8
LAYER_1
 10
13.15898315607987
 20
14.71579808697992
 30
0.0
  0
VERTEX
  5
576
  8
LAYER_1
 10
13.17658838278142
 20
14.69837178944572
 30
0.0
  0
VERTEX
  5
577
  8
LAYER_1
 10
13.19389890261909
 20
14.68048939795552
 30
0.0
  0
VERTEX
  5
578
  8
LAYER_1
 10
13.21091471559289
 20
14.66215091250933
 30
0.0
  0
VERTEX
  5
579
  8
LAYER_1
 10
13.2276358217028
 20
14.64335633310714
 30
0.0
  0
VERTEX
  5
57A
  8
LAYER_1
 10
13.24406222094885
 20
14.62410565974895
 30
0.0
  0
VERTEX
  5
57B
  8
LAYER_1
 10
13.26019391333102
 20
14.60439889243476
 30
0.0
  0
VERTEX
  5
57C
  8
LAYER_1
 10
13.27603089884931
 20
14.58423603116457
 30
0.0
  0
VERTEX
  5
57D
  8
LAYER_1
 10
13.29157317750373
 20
14.56361707593839
 30
0.0
  0
VERTEX
  5
57E
  8
LAYER_1
 10
13.30682074929427
 20
14.5425420267562
 30
0.0
  0
VERTEX
  5
57F
  8
LAYER_1
 10
13.32177361422093
 20
14.52101088361802
 30
0.0
  0
VERTEX
  5
580
  8
LAYER_1
 10
13.33643177228372
 20
14.49902364652383
 30
0.0
  0
VERTEX
  5
581
  8
LAYER_1
 10
13.35079522348263
 20
14.47658031547365
 30
0.0
  0
VERTEX
  5
582
  8
LAYER_1
 10
13.36486396781767
 20
14.45368089046747
 30
0.0
  0
VERTEX
  5
583
  8
LAYER_1
 10
13.37856783698791
 20
14.43038852297613
 30
0.0
  0
VERTEX
  5
584
  8
LAYER_1
 10
13.39183666269243
 20
14.40676636447044
 30
0.0
  0
VERTEX
  5
585
  8
LAYER_1
 10
13.40467044493122
 20
14.38281441495042
 30
0.0
  0
VERTEX
  5
586
  8
LAYER_1
 10
13.41706918370429
 20
14.35853267441606
 30
0.0
  0
VERTEX
  5
587
  8
LAYER_1
 10
13.42903287901164
 20
14.33392114286736
 30
0.0
  0
VERTEX
  5
588
  8
LAYER_1
 10
13.44056153085327
 20
14.30897982030432
 30
0.0
  0
VERTEX
  5
589
  8
LAYER_1
 10
13.45165513922917
 20
14.28370870672695
 30
0.0
  0
VERTEX
  5
58A
  8
LAYER_1
 10
13.46231370413936
 20
14.25810780213524
 30
0.0
  0
VERTEX
  5
58B
  8
LAYER_1
 10
13.47253722558382
 20
14.23217710652919
 30
0.0
  0
VERTEX
  5
58C
  8
LAYER_1
 10
13.48232570356256
 20
14.20591661990881
 30
0.0
  0
VERTEX
  5
58D
  8
LAYER_1
 10
13.49167913807558
 20
14.17932634227408
 30
0.0
  0
VERTEX
  5
58E
  8
LAYER_1
 10
13.50059752912288
 20
14.15240627362502
 30
0.0
  0
VERTEX
  5
58F
  8
LAYER_1
 10
13.50908087670446
 20
14.12515641396162
 30
0.0
  0
VERTEX
  5
590
  8
LAYER_1
 10
13.51712918082031
 20
14.09757676328389
 30
0.0
  0
VERTEX
  5
591
  8
LAYER_1
 10
13.52474244147044
 20
14.06966732159182
 30
0.0
  0
VERTEX
  5
592
  8
LAYER_1
 10
13.53192065865485
 20
14.0414280888854
 30
0.0
  0
VERTEX
  5
593
  8
LAYER_1
 10
13.53866383237354
 20
14.01285906516466
 30
0.0
  0
VERTEX
  5
594
  8
LAYER_1
 10
13.54497196262651
 20
13.98396025042957
 30
0.0
  0
VERTEX
  5
595
  8
LAYER_1
 10
13.55084504941375
 20
13.95473164468015
 30
0.0
  0
VERTEX
  5
596
  8
LAYER_1
 10
13.55628309273527
 20
13.92517324791639
 30
0.0
  0
VERTEX
  5
597
  8
LAYER_1
 10
13.56128609259107
 20
13.89528506013829
 30
0.0
  0
VERTEX
  5
598
  8
LAYER_1
 10
13.56585404898115
 20
13.86506708134585
 30
0.0
  0
VERTEX
  5
599
  8
LAYER_1
 10
13.56998696190551
 20
13.83451931153908
 30
0.0
  0
VERTEX
  5
59A
  8
LAYER_1
 10
13.57368483136414
 20
13.80364175071797
 30
0.0
  0
VERTEX
  5
59B
  8
LAYER_1
 10
13.57694765735706
 20
13.77243439888252
 30
0.0
  0
VERTEX
  5
59C
  8
LAYER_1
 10
13.57977543988425
 20
13.74089725603273
 30
0.0
  0
VERTEX
  5
59D
  8
LAYER_1
 10
13.58216817894572
 20
13.70903032216861
 30
0.0
  0
VERTEX
  5
59E
  8
LAYER_1
 10
13.58412587454147
 20
13.67683359729015
 30
0.0
  0
VERTEX
  5
59F
  8
LAYER_1
 10
13.58564852667149
 20
13.64430708139735
 30
0.0
  0
VERTEX
  5
5A0
  8
LAYER_1
 10
13.5867361353358
 20
13.61145077449022
 30
0.0
  0
VERTEX
  5
5A1
  8
LAYER_1
 10
13.58738870053438
 20
13.57826467656874
 30
0.0
  0
VERTEX
  5
5A2
  8
LAYER_1
 10
13.58760622226724
 20
13.54474878763293
 30
0.0
  0
VERTEX
  5
5A3
  8
LAYER_1
 10
13.58725187234758
 20
13.50054626646657
 30
0.0
  0
VERTEX
  5
5A4
  8
LAYER_1
 10
13.5861888225886
 20
13.45685597389694
 30
0.0
  0
VERTEX
  5
5A5
  8
LAYER_1
 10
13.5844170729903
 20
13.41367790992405
 30
0.0
  0
VERTEX
  5
5A6
  8
LAYER_1
 10
13.58193662355268
 20
13.3710120745479
 30
0.0
  0
VERTEX
  5
5A7
  8
LAYER_1
 10
13.57874747427573
 20
13.32885846776848
 30
0.0
  0
VERTEX
  5
5A8
  8
LAYER_1
 10
13.57484962515947
 20
13.2872170895858
 30
0.0
  0
VERTEX
  5
5A9
  8
LAYER_1
 10
13.57024307620388
 20
13.24608793999986
 30
0.0
  0
VERTEX
  5
5AA
  8
LAYER_1
 10
13.56492782740897
 20
13.20547101901065
 30
0.0
  0
VERTEX
  5
5AB
  8
LAYER_1
 10
13.55890387877474
 20
13.16536632661818
 30
0.0
  0
VERTEX
  5
5AC
  8
LAYER_1
 10
13.55217123030119
 20
13.12577386282245
 30
0.0
  0
VERTEX
  5
5AD
  8
LAYER_1
 10
13.54472988198832
 20
13.08669362762346
 30
0.0
  0
VERTEX
  5
5AE
  8
LAYER_1
 10
13.53657983383613
 20
13.0481256210212
 30
0.0
  0
VERTEX
  5
5AF
  8
LAYER_1
 10
13.52772108584462
 20
13.01006984301568
 30
0.0
  0
VERTEX
  5
5B0
  8
LAYER_1
 10
13.51815363801378
 20
12.9725262936069
 30
0.0
  0
VERTEX
  5
5B1
  8
LAYER_1
 10
13.50787749034363
 20
12.93549497279485
 30
0.0
  0
VERTEX
  5
5B2
  8
LAYER_1
 10
13.49689264283415
 20
12.89897588057954
 30
0.0
  0
VERTEX
  5
5B3
  8
LAYER_1
 10
13.48519909548536
 20
12.86296901696096
 30
0.0
  0
VERTEX
  5
5B4
  8
LAYER_1
 10
13.47279684829724
 20
12.82747438193913
 30
0.0
  0
VERTEX
  5
5B5
  8
LAYER_1
 10
13.4596859012698
 20
12.79249197551403
 30
0.0
  0
VERTEX
  5
5B6
  8
LAYER_1
 10
13.44586625440304
 20
12.75802179768567
 30
0.0
  0
VERTEX
  5
5B7
  8
LAYER_1
 10
13.43133790769696
 20
12.72406384845404
 30
0.0
  0
VERTEX
  5
5B8
  8
LAYER_1
 10
13.41610086115156
 20
12.69061812781915
 30
0.0
  0
VERTEX
  5
5B9
  8
LAYER_1
 10
13.40015511476683
 20
12.657684635781
 30
0.0
  0
VERTEX
  5
5BA
  8
LAYER_1
 10
13.38350066854279
 20
12.62526337233959
 30
0.0
  0
VERTEX
  5
5BB
  8
LAYER_1
 10
13.36613752247942
 20
12.59335433749491
 30
0.0
  0
VERTEX
  5
5BC
  8
LAYER_1
 10
13.34806567657674
 20
12.56195753124697
 30
0.0
  0
VERTEX
  5
5BD
  8
LAYER_1
 10
13.32928513083473
 20
12.53107295359577
 30
0.0
  0
VERTEX
  5
5BE
  8
LAYER_1
 10
13.3097958852534
 20
12.5007006045413
 30
0.0
  0
VERTEX
  5
5BF
  8
LAYER_1
 10
13.28959793983275
 20
12.47084048408357
 30
0.0
  0
VERTEX
  5
5C0
  8
LAYER_1
 10
13.26869129457278
 20
12.44149259222258
 30
0.0
  0
VERTEX
  5
5C1
  8
LAYER_1
 10
13.24707594947349
 20
12.41265692895833
 30
0.0
  0
VERTEX
  5
5C2
  8
LAYER_1
 10
13.22475190453488
 20
12.38433349429081
 30
0.0
  0
VERTEX
  5
5C3
  8
LAYER_1
 10
13.21328377285279
 20
12.37040947207643
 30
0.0
  0
VERTEX
  5
5C4
  8
LAYER_1
 10
13.20155777266482
 20
12.35670472580243
 30
0.0
  0
VERTEX
  5
5C5
  8
LAYER_1
 10
13.18957390397095
 20
12.34321925546881
 30
0.0
  0
VERTEX
  5
5C6
  8
LAYER_1
 10
13.1773321667712
 20
12.32995306107558
 30
0.0
  0
VERTEX
  5
5C7
  8
LAYER_1
 10
13.16483256106555
 20
12.31690614262273
 30
0.0
  0
VERTEX
  5
5C8
  8
LAYER_1
 10
13.15207508685401
 20
12.30407850011027
 30
0.0
  0
VERTEX
  5
5C9
  8
LAYER_1
 10
13.13905974413658
 20
12.29147013353819
 30
0.0
  0
VERTEX
  5
5CA
  8
LAYER_1
 10
13.12578653291326
 20
12.2790810429065
 30
0.0
  0
VERTEX
  5
5CB
  8
LAYER_1
 10
13.11225545318404
 20
12.26691122821519
 30
0.0
  0
VERTEX
  5
5CC
  8
LAYER_1
 10
13.09846650494893
 20
12.25496068946426
 30
0.0
  0
VERTEX
  5
5CD
  8
LAYER_1
 10
13.08441968820794
 20
12.24322942665372
 30
0.0
  0
VERTEX
  5
5CE
  8
LAYER_1
 10
13.07011500296105
 20
12.23171743978356
 30
0.0
  0
VERTEX
  5
5CF
  8
LAYER_1
 10
13.05555244920827
 20
12.22042472885379
 30
0.0
  0
VERTEX
  5
5D0
  8
LAYER_1
 10
13.04073202694959
 20
12.20935129386439
 30
0.0
  0
VERTEX
  5
5D1
  8
LAYER_1
 10
13.02565373618503
 20
12.19849713481539
 30
0.0
  0
VERTEX
  5
5D2
  8
LAYER_1
 10
13.01031757691457
 20
12.18786225170676
 30
0.0
  0
VERTEX
  5
5D3
  8
LAYER_1
 10
12.99472354913823
 20
12.17744664453853
 30
0.0
  0
VERTEX
  5
5D4
  8
LAYER_1
 10
12.97887165285599
 20
12.16725031331067
 30
0.0
  0
VERTEX
  5
5D5
  8
LAYER_1
 10
12.96276188806786
 20
12.1572732580232
 30
0.0
  0
VERTEX
  5
5D6
  8
LAYER_1
 10
12.94639425477384
 20
12.14751547867611
 30
0.0
  0
VERTEX
  5
5D7
  8
LAYER_1
 10
12.92976875297392
 20
12.13797697526941
 30
0.0
  0
VERTEX
  5
5D8
  8
LAYER_1
 10
12.91288538266812
 20
12.12865774780309
 30
0.0
  0
VERTEX
  5
5D9
  8
LAYER_1
 10
12.89574414385642
 20
12.11955779627715
 30
0.0
  0
VERTEX
  5
5DA
  8
LAYER_1
 10
12.87834503653883
 20
12.1106771206916
 30
0.0
  0
VERTEX
  5
5DB
  8
LAYER_1
 10
12.86068806071535
 20
12.10201572104643
 30
0.0
  0
VERTEX
  5
5DC
  8
LAYER_1
 10
12.84277321638598
 20
12.09357359734165
 30
0.0
  0
VERTEX
  5
5DD
  8
LAYER_1
 10
12.82460050355072
 20
12.08535074957725
 30
0.0
  0
VERTEX
  5
5DE
  8
LAYER_1
 10
12.80616992220957
 20
12.07734717775324
 30
0.0
  0
VERTEX
  5
5DF
  8
LAYER_1
 10
12.78748147236252
 20
12.0695628818696
 30
0.0
  0
VERTEX
  5
5E0
  8
LAYER_1
 10
12.76853515400958
 20
12.06199786192636
 30
0.0
  0
VERTEX
  5
5E1
  8
LAYER_1
 10
12.72986891178603
 20
12.04752564986102
 30
0.0
  0
VERTEX
  5
5E2
  8
LAYER_1
 10
12.69017119553891
 20
12.03393054155721
 30
0.0
  0
VERTEX
  5
5E3
  8
LAYER_1
 10
12.64944200526823
 20
12.02121253701494
 30
0.0
  0
VERTEX
  5
5E4
  8
LAYER_1
 10
12.60768134097398
 20
12.0093716362342
 30
0.0
  0
VERTEX
  5
5E5
  8
LAYER_1
 10
12.56488920265617
 20
11.998407839215
 30
0.0
  0
VERTEX
  5
5E6
  8
LAYER_1
 10
12.52106559031479
 20
11.98832114595734
 30
0.0
  0
VERTEX
  5
5E7
  8
LAYER_1
 10
12.47621050394984
 20
11.97911155646121
 30
0.0
  0
VERTEX
  5
5E8
  8
LAYER_1
 10
12.43032394356132
 20
11.97077907072662
 30
0.0
  0
VERTEX
  5
5E9
  8
LAYER_1
 10
12.38340590914925
 20
11.96332368875357
 30
0.0
  0
VERTEX
  5
5EA
  8
LAYER_1
 10
12.3354564007136
 20
11.95674541054204
 30
0.0
  0
VERTEX
  5
5EB
  8
LAYER_1
 10
12.28647541825439
 20
11.95104423609206
 30
0.0
  0
VERTEX
  5
5EC
  8
LAYER_1
 10
12.23646296177161
 20
11.94622016540361
 30
0.0
  0
VERTEX
  5
5ED
  8
LAYER_1
 10
12.18541903126527
 20
11.9422731984767
 30
0.0
  0
VERTEX
  5
5EE
  8
LAYER_1
 10
12.13334362673535
 20
11.93920333531133
 30
0.0
  0
VERTEX
  5
5EF
  8
LAYER_1
 10
12.08023674818188
 20
11.93701057590749
 30
0.0
  0
VERTEX
  5
5F0
  8
LAYER_1
 10
12.02609839560483
 20
11.93569492026518
 30
0.0
  0
VERTEX
  5
5F1
  8
LAYER_1
 10
11.97092856900422
 20
11.93525636838442
 30
0.0
  0
VERTEX
  5
5F2
  8
LAYER_1
 10
10.86440253077087
 20
11.93525636838442
 30
0.0
  0
VERTEX
  5
5F3
  8
LAYER_1
 10
10.86440253077087
 20
9.794056632062729
 30
0.0
  0
SEQEND
  5
C6F
  8
LAYER_1
  0
POLYLINE
  5
CD
  8
LAYER_1
 66
     1
 10
0.0
 20
0.0
 30
0.0
 70
     1
  0
VERTEX
  5
5F4
  8
LAYER_1
 10
10.86440253077087
 20
12.55677911063887
 30
0.0
  0
VERTEX
  5
5F5
  8
LAYER_1
 10
11.98170642002598
 20
12.55677911063887
 30
0.0
  0
VERTEX
  5
5F6
  8
LAYER_1
 10
12.01443642399145
 20
12.55701242023943
 30
0.0
  0
VERTEX
  5
5F7
  8
LAYER_1
 10
12.04661209837964
 20
12.55771234904114
 30
0.0
  0
VERTEX
  5
5F8
  8
LAYER_1
 10
12.07823344319053
 20
12.55887889704398
 30
0.0
  0
VERTEX
  5
5F9
  8
LAYER_1
 10
12.10930045842413
 20
12.56051206424796
 30
0.0
  0
VERTEX
  5
5FA
  8
LAYER_1
 10
12.13981314408044
 20
12.56261185065308
 30
0.0
  0
VERTEX
  5
5FB
  8
LAYER_1
 10
12.16977150015946
 20
12.56517825625933
 30
0.0
  0
VERTEX
  5
5FC
  8
LAYER_1
 10
12.19917552666119
 20
12.56821128106672
 30
0.0
  0
VERTEX
  5
5FD
  8
LAYER_1
 10
12.22802522358563
 20
12.57171092507525
 30
0.0
  0
VERTEX
  5
5FE
  8
LAYER_1
 10
12.25632059093278
 20
12.57567718828492
 30
0.0
  0
VERTEX
  5
5FF
  8
LAYER_1
 10
12.28406162870264
 20
12.58011007069572
 30
0.0
  0
VERTEX
  5
600
  8
LAYER_1
 10
12.31124833689521
 20
12.58500957230766
 30
0.0
  0
VERTEX
  5
601
  8
LAYER_1
 10
12.33788071551049
 20
12.59037569312074
 30
0.0
  0
VERTEX
  5
602
  8
LAYER_1
 10
12.36395876454847
 20
12.59620843313495
 30
0.0
  0
VERTEX
  5
603
  8
LAYER_1
 10
12.38948248400917
 20
12.6025077923503
 30
0.0
  0
VERTEX
  5
604
  8
LAYER_1
 10
12.41445187389257
 20
12.60927377076679
 30
0.0
  0
VERTEX
  5
605
  8
LAYER_1
 10
12.43886693419869
 20
12.61650636838442
 30
0.0
  0
VERTEX
  5
606
  8
LAYER_1
 10
12.46272766492751
 20
12.62420558520318
 30
0.0
  0
VERTEX
  5
607
  8
LAYER_1
 10
12.48603406607904
 20
12.63237142122308
 30
0.0
  0
VERTEX
  5
608
  8
LAYER_1
 10
12.50878613765328
 20
12.64100387644411
 30
0.0
  0
VERTEX
  5
609
  8
LAYER_1
 10
12.53098387965024
 20
12.65010295086629
 30
0.0
  0
VERTEX
  5
60A
  8
LAYER_1
 10
12.5526272920699
 20
12.6596686444896
 30
0.0
  0
VERTEX
  5
60B
  8
LAYER_1
 10
12.57371637491227
 20
12.66970095731405
 30
0.0
  0
VERTEX
  5
60C
  8
LAYER_1
 10
12.59425112817735
 20
12.68019988933963
 30
0.0
  0
VERTEX
  5
60D
  8
LAYER_1
 10
12.61423155186513
 20
12.69116544056635
 30
0.0
  0
VERTEX
  5
60E
  8
LAYER_1
 10
12.63365764597563
 20
12.70259761099421
 30
0.0
  0
VERTEX
  5
60F
  8
LAYER_1
 10
12.65252941050884
 20
12.71449640062321
 30
0.0
  0
VERTEX
  5
610
  8
LAYER_1
 10
12.67084684546475
 20
12.72686180945334
 30
0.0
  0
VERTEX
  5
611
  8
LAYER_1
 10
12.68860995084338
 20
12.73969383748461
 30
0.0
  0
VERTEX
  5
612
  8
LAYER_1
 10
12.70581872664471
 20
12.75299248471702
 30
0.0
  0
VERTEX
  5
613
  8
LAYER_1
 10
12.72247317286876
 20
12.76675775115057
 30
0.0
  0
VERTEX
  5
614
  8
LAYER_1
 10
12.73857328951551
 20
12.78098963678525
 30
0.0
  0
VERTEX
  5
615
  8
LAYER_1
 10
12.75411907658498
 20
12.79568814162107
 30
0.0
  0
VERTEX
  5
616
  8
LAYER_1
 10
12.76914912664266
 20
12.81085677407307
 30
0.0
  0
VERTEX
  5
617
  8
LAYER_1
 10
12.78370203225406
 20
12.8264990425563
 30
0.0
  0
VERTEX
  5
618
  8
LAYER_1
 10
12.79777779341919
 20
12.84261494707076
 30
0.0
  0
VERTEX
  5
619
  8
LAYER_1
 10
12.81137641013804
 20
12.85920448761645
 30
0.0
  0
VERTEX
  5
61A
  8
LAYER_1
 10
12.82449788241062
 20
12.87626766419337
 30
0.0
  0
VERTEX
  5
61B
  8
LAYER_1
 10
12.83714221023692
 20
12.89380447680152
 30
0.0
  0
VERTEX
  5
61C
  8
LAYER_1
 10
12.84930939361695
 20
12.9118149254409
 30
0.0
  0
VERTEX
  5
61D
  8
LAYER_1
 10
12.8609994325507
 20
12.93029901011151
 30
0.0
  0
VERTEX
  5
61E
  8
LAYER_1
 10
12.87221232703817
 20
12.94925673081335
 30
0.0
  0
VERTEX
  5
61F
  8
LAYER_1
 10
12.88294807707937
 20
12.96868808754641
 30
0.0
  0
VERTEX
  5
620
  8
LAYER_1
 10
12.8932066826743
 20
12.98859308031071
 30
0.0
  0
VERTEX
  5
621
  8
LAYER_1
 10
12.90298814382295
 20
13.00897170910624
 30
0.0
  0
VERTEX
  5
622
  8
LAYER_1
 10
12.91229246052532
 20
13.02982397393299
 30
0.0
  0
VERTEX
  5
623
  8
LAYER_1
 10
12.92111963278142
 20
13.05114987479098
 30
0.0
  0
VERTEX
  5
624
  8
LAYER_1
 10
12.92946966059124
 20
13.07294941168019
 30
0.0
  0
VERTEX
  5
625
  8
LAYER_1
 10
12.93734254395478
 20
13.09522258460063
 30
0.0
  0
VERTEX
  5
626
  8
LAYER_1
 10
12.94473828287206
 20
13.11796939355231
 30
0.0
  0
VERTEX
  5
627
  8
LAYER_1
 10
12.95165687734305
 20
13.14118983853521
 30
0.0
  0
VERTEX
  5
628
  8
LAYER_1
 10
12.95809832736777
 20
13.16488391954934
 30
0.0
  0
VERTEX
  5
629
  8
LAYER_1
 10
12.96406263294621
 20
13.1890516365947
 30
0.0
  0
VERTEX
  5
62A
  8
LAYER_1
 10
12.96954979407838
 20
13.21369298967129
 30
0.0
  0
VERTEX
  5
62B
  8
LAYER_1
 10
12.97455981076428
 20
13.23880797877911
 30
0.0
  0
VERTEX
  5
62C
  8
LAYER_1
 10
12.97909268300389
 20
13.26439660391816
 30
0.0
  0
VERTEX
  5
62D
  8
LAYER_1
 10
12.98314841079724
 20
13.29045886508844
 30
0.0
  0
VERTEX
  5
62E
  8
LAYER_1
 10
12.9867269941443
 20
13.31699476228995
 30
0.0
  0
VERTEX
  5
62F
  8
LAYER_1
 10
12.98982843304509
 20
13.34400429552268
 30
0.0
  0
VERTEX
  5
630
  8
LAYER_1
 10
12.99245272749961
 20
13.37148746478665
 30
0.0
  0
VERTEX
  5
631
  8
LAYER_1
 10
12.99459987750785
 20
13.39944427008185
 30
0.0
  0
VERTEX
  5
632
  8
LAYER_1
 10
12.99626988306981
 20
13.42787471140827
 30
0.0
  0
VERTEX
  5
633
  8
LAYER_1
 10
12.9974627441855
 20
13.45677878876593
 30
0.0
  0
VERTEX
  5
634
  8
LAYER_1
 10
12.99817846085492
 20
13.48615650215481
 30
0.0
  0
VERTEX
  5
635
  8
LAYER_1
 10
12.99841703307805
 20
13.51600785157492
 30
0.0
  0
VERTEX
  5
636
  8
LAYER_1
 10
12.99794690546187
 20
13.55472672002416
 30
0.0
  0
VERTEX
  5
637
  8
LAYER_1
 10
12.99653652261332
 20
13.59274390546418
 30
0.0
  0
VERTEX
  5
638
  8
LAYER_1
 10
12.9941858845324
 20
13.63005940789496
 30
0.0
  0
VERTEX
  5
639
  8
LAYER_1
 10
12.99089499121912
 20
13.66667322731652
 30
0.0
  0
VERTEX
  5
63A
  8
LAYER_1
 10
12.98666384267347
 20
13.70258536372885
 30
0.0
  0
VERTEX
  5
63B
  8
LAYER_1
 10
12.98149243889546
 20
13.73779581713195
 30
0.0
  0
VERTEX
  5
63C
  8
LAYER_1
 10
12.97538077988507
 20
13.77230458752581
 30
0.0
  0
VERTEX
  5
63D
  8
LAYER_1
 10
12.96832886564233
 20
13.80611167491045
 30
0.0
  0
VERTEX
  5
63E
  8
LAYER_1
 10
12.96033669616721
 20
13.83921707928587
 30
0.0
  0
VERTEX
  5
63F
  8
LAYER_1
 10
12.95140427145973
 20
13.87162080065205
 30
0.0
  0
VERTEX
  5
640
  8
LAYER_1
 10
12.94153159151988
 20
13.903322839009
 30
0.0
  0
VERTEX
  5
641
  8
LAYER_1
 10
12.93071865634766
 20
13.93432319435673
 30
0.0
  0
VERTEX
  5
642
  8
LAYER_1
 10
12.91896546594308
 20
13.96462186669523
 30
0.0
  0
VERTEX
  5
643
  8
LAYER_1
 10
12.90627202030614
 20
13.9942188560245
 30
0.0
  0
VERTEX
  5
644
  8
LAYER_1
 10
12.89263831943682
 20
14.02311416234453
 30
0.0
  0
VERTEX
  5
645
  8
LAYER_1
 10
12.87806436333514
 20
14.05130778565534
 30
0.0
  0
VERTEX
  5
646
  8
LAYER_1
 10
12.86282380837469
 20
14.07860325471434
 30
0.0
  0
VERTEX
  5
647
  8
LAYER_1
 10
12.84719031092908
 20
14.10480409827894
 30
0.0
  0
VERTEX
  5
648
  8
LAYER_1
 10
12.83116387099829
 20
14.12991031634915
 30
0.0
  0
VERTEX
  5
649
  8
LAYER_1
 10
12.81474448858234
 20
14.15392190892496
 30
0.0
  0
VERTEX
  5
64A
  8
LAYER_1
 10
12.79793216368122
 20
14.17683887600637
 30
0.0
  0
VERTEX
  5
64B
  8
LAYER_1
 10
12.78072689629493
 20
14.19866121759338
 30
0.0
  0
VERTEX
  5
64C
  8
LAYER_1
 10
12.76312868642347
 20
14.219388933686
 30
0.0
  0
VERTEX
  5
64D
  8
LAYER_1
 10
12.74513753406685
 20
14.23902202428422
 30
0.0
  0
VERTEX
  5
64E
  8
LAYER_1
 10
12.72675343922506
 20
14.25756048938804
 30
0.0
  0
VERTEX
  5
64F
  8
LAYER_1
 10
12.70797640189809
 20
14.27500432899747
 30
0.0
  0
VERTEX
  5
650
  8
LAYER_1
 10
12.68880642208597
 20
14.2913535431125
 30
0.0
  0
VERTEX
  5
651
  8
LAYER_1
 10
12.66924349978867
 20
14.30660813173313
 30
0.0
  0
VERTEX
  5
652
  8
LAYER_1
 10
12.6492876350062
 20
14.32076809485936
 30
0.0
  0
VERTEX
  5
653
  8
LAYER_1
 10
12.62893882773857
 20
14.3338334324912
 30
0.0
  0
VERTEX
  5
654
  8
LAYER_1
 10
12.60819707798577
 20
14.34580414462865
 30
0.0
  0
VERTEX
  5
655
  8
LAYER_1
 10
12.5870623857478
 20
14.35668023127169
 30
0.0
  0
VERTEX
  5
656
  8
LAYER_1
 10
12.57612841025649
 20
14.36176392467355
 30
0.0
  0
VERTEX
  5
657
  8
LAYER_1
 10
12.56465764726313
 20
14.36668623098329
 30
0.0
  0
VERTEX
  5
658
  8
LAYER_1
 10
12.5526500967677
 20
14.37144715020091
 30
0.0
  0
VERTEX
  5
659
  8
LAYER_1
 10
12.54010575877021
 20
14.37604668232641
 30
0.0
  0
VERTEX
  5
65A
  8
LAYER_1
 10
12.52702463327067
 20
14.38048482735978
 30
0.0
  0
VERTEX
  5
65B
  8
LAYER_1
 10
12.51340672026906
 20
14.38476158530103
 30
0.0
  0
VERTEX
  5
65C
  8
LAYER_1
 10
12.49925201976539
 20
14.38887695615015
 30
0.0
  0
VERTEX
  5
65D
  8
LAYER_1
 10
12.48456053175966
 20
14.39283093990716
 30
0.0
  0
VERTEX
  5
65E
  8
LAYER_1
 10
12.45356719324203
 20
14.4002547461448
 30
0.0
  0
VERTEX
  5
65F
  8
LAYER_1
 10
12.42042670471616
 20
14.40703300401395
 30
0.0
  0
VERTEX
  5
660
  8
LAYER_1
 10
12.38513906618204
 20
14.4131657135146
 30
0.0
  0
VERTEX
  5
661
  8
LAYER_1
 10
12.34770427763969
 20
14.41865287464677
 30
0.0
  0
VERTEX
  5
662
  8
LAYER_1
 10
12.3081223390891
 20
14.42349448741045
 30
0.0
  0
VERTEX
  5
663
  8
LAYER_1
 10
12.26639325053026
 20
14.42769055180564
 30
0.0
  0
VERTEX
  5
664
  8
LAYER_1
 10
12.22251701196319
 20
14.43124106783234
 30
0.0
  0
VERTEX
  5
665
  8
LAYER_1
 10
12.17649362338788
 20
14.43414603549055
 30
0.0
  0
VERTEX
  5
666
  8
LAYER_1
 10
12.12832308480433
 20
14.43640545478027
 30
0.0
  0
VERTEX
  5
667
  8
LAYER_1
 10
12.07800539621253
 20
14.43801932570149
 30
0.0
  0
VERTEX
  5
668
  8
LAYER_1
 10
12.0255405576125
 20
14.43898764825423
 30
0.0
  0
VERTEX
  5
669
  8
LAYER_1
 10
11.97092856900422
 20
14.43931042243847
 30
0.0
  0
VERTEX
  5
66A
  8
LAYER_1
 10
10.86440253077087
 20
14.43931042243847
 30
0.0
  0
SEQEND
  5
C70
  8
LAYER_1
  0
POLYLINE
  5
CE
  8
LAYER_1
 66
     1
 10
0.0
 20
0.0
 30
0.0
 70
     1
  0
VERTEX
  5
66B
  8
LAYER_1
 10
1.6875
 20
1.972388140747176
 30
0.0
  0
VERTEX
  5
66C
  8
LAYER_1
 10
1.6875
 20
4.838157037358818
 30
0.0
  0
VERTEX
  5
66D
  8
LAYER_1
 10
2.570163173327541
 20
4.838157037358818
 30
0.0
  0
VERTEX
  5
66E
  8
LAYER_1
 10
2.603241947813721
 20
4.837832745006041
 30
0.0
  0
VERTEX
  5
66F
  8
LAYER_1
 10
2.635449261172349
 20
4.836859867947708
 30
0.0
  0
VERTEX
  5
670
  8
LAYER_1
 10
2.666785113403426
 20
4.83523840618382
 30
0.0
  0
VERTEX
  5
671
  8
LAYER_1
 10
2.69724950450695
 20
4.832968359714378
 30
0.0
  0
VERTEX
  5
672
  8
LAYER_1
 10
2.726842434482922
 20
4.830049728539381
 30
0.0
  0
VERTEX
  5
673
  8
LAYER_1
 10
2.755563903331341
 20
4.826482512658829
 30
0.0
  0
VERTEX
  5
674
  8
LAYER_1
 10
2.783413911052209
 20
4.822266712072722
 30
0.0
  0
VERTEX
  5
675
  8
LAYER_1
 10
2.810392457645524
 20
4.81740232678106
 30
0.0
  0
VERTEX
  5
676
  8
LAYER_1
 10
2.836499543111287
 20
4.811889356783842
 30
0.0
  0
VERTEX
  5
677
  8
LAYER_1
 10
2.861735167449499
 20
4.80572780208107
 30
0.0
  0
VERTEX
  5
678
  8
LAYER_1
 10
2.886099330660159
 20
4.798917662672743
 30
0.0
  0
VERTEX
  5
679
  8
LAYER_1
 10
2.909592032743266
 20
4.791458938558861
 30
0.0
  0
VERTEX
  5
67A
  8
LAYER_1
 10
2.932213273698821
 20
4.783351629739424
 30
0.0
  0
VERTEX
  5
67B
  8
LAYER_1
 10
2.953963053526824
 20
4.774595736214432
 30
0.0
  0
VERTEX
  5
67C
  8
LAYER_1
 10
2.974841372227274
 20
4.765191257983886
 30
0.0
  0
VERTEX
  5
67D
  8
LAYER_1
 10
2.994848229800173
 20
4.755138195047784
 30
0.0
  0
VERTEX
  5
67E
  8
LAYER_1
 10
3.014197673515896
 20
4.74439836729101
 30
0.0
  0
VERTEX
  5
67F
  8
LAYER_1
 10
3.033103750644819
 20
4.732933594598447
 30
0.0
  0
VERTEX
  5
680
  8
LAYER_1
 10
3.051566461186943
 20
4.720743876970094
 30
0.0
  0
VERTEX
  5
681
  8
LAYER_1
 10
3.069585805142267
 20
4.707829214405951
 30
0.0
  0
VERTEX
  5
682
  8
LAYER_1
 10
3.087161782510792
 20
4.694189606906018
 30
0.0
  0
VERTEX
  5
683
  8
LAYER_1
 10
3.104294393292517
 20
4.679825054470297
 30
0.0
  0
VERTEX
  5
684
  8
LAYER_1
 10
3.120983637487443
 20
4.664735557098785
 30
0.0
  0
VERTEX
  5
685
  8
LAYER_1
 10
3.137229515095568
 20
4.648921114791485
 30
0.0
  0
VERTEX
  5
686
  8
LAYER_1
 10
3.153032026116895
 20
4.632381727548395
 30
0.0
  0
VERTEX
  5
687
  8
LAYER_1
 10
3.168391170551422
 20
4.615117395369515
 30
0.0
  0
VERTEX
  5
688
  8
LAYER_1
 10
3.18330694839915
 20
4.597128118254846
 30
0.0
  0
VERTEX
  5
689
  8
LAYER_1
 10
3.197779359660077
 20
4.578413896204387
 30
0.0
  0
VERTEX
  5
68A
  8
LAYER_1
 10
3.211808404334206
 20
4.558974729218138
 30
0.0
  0
VERTEX
  5
68B
  8
LAYER_1
 10
3.225394082421535
 20
4.5388106172961
 30
0.0
  0
VERTEX
  5
68C
  8
LAYER_1
 10
3.238536393922065
 20
4.517921560438273
 30
0.0
  0
VERTEX
  5
68D
  8
LAYER_1
 10
3.251235338835794
 20
4.496307558644657
 30
0.0
  0
VERTEX
  5
68E
  8
LAYER_1
 10
3.263322686030489
 20
4.474186119258559
 30
0.0
  0
VERTEX
  5
68F
  8
LAYER_1
 10
3.274630204373914
 20
4.45177474962329
 30
0.0
  0
VERTEX
  5
690
  8
LAYER_1
 10
3.285157893866067
 20
4.429073449738848
 30
0.0
  0
VERTEX
  5
691
  8
LAYER_1
 10
3.29490575450695
 20
4.406082219605233
 30
0.0
  0
VERTEX
  5
692
  8
LAYER_1
 10
3.303873786296562
 20
4.382801059222448
 30
0.0
  0
VERTEX
  5
693
  8
LAYER_1
 10
3.312061989234904
 20
4.359229968590491
 30
0.0
  0
VERTEX
  5
694
  8
LAYER_1
 10
3.319470363321975
 20
4.335368947709361
 30
0.0
  0
VERTEX
  5
695
  8
LAYER_1
 10
3.326098908557775
 20
4.31121799657906
 30
0.0
  0
VERTEX
  5
696
  8
LAYER_1
 10
3.331947624942305
 20
4.286777115199587
 30
0.0
  0
VERTEX
  5
697
  8
LAYER_1
 10
3.337016512475564
 20
4.262046303570943
 30
0.0
  0
VERTEX
  5
698
  8
LAYER_1
 10
3.341305571157553
 20
4.237025561693126
 30
0.0
  0
VERTEX
  5
699
  8
LAYER_1
 10
3.344814800988271
 20
4.211714889566137
 30
0.0
  0
VERTEX
  5
69A
  8
LAYER_1
 10
3.347544201967718
 20
4.186114287189976
 30
0.0
  0
VERTEX
  5
69B
  8
LAYER_1
 10
3.349493774095894
 20
4.160223754564644
 30
0.0
  0
VERTEX
  5
69C
  8
LAYER_1
 10
3.350663517372801
 20
4.134043291690139
 30
0.0
  0
VERTEX
  5
69D
  8
LAYER_1
 10
3.351053431798436
 20
4.107572898566463
 30
0.0
  0
VERTEX
  5
69E
  8
LAYER_1
 10
3.350717387128974
 20
4.083064963359815
 30
0.0
  0
VERTEX
  5
69F
  8
LAYER_1
 10
3.349709253120588
 20
4.058862230448386
 30
0.0
  0
VERTEX
  5
6A0
  8
LAYER_1
 10
3.348029029773278
 20
4.034964699832177
 30
0.0
  0
VERTEX
  5
6A1
  8
LAYER_1
 10
3.345676717087044
 20
4.011372371511185
 30
0.0
  0
VERTEX
  5
6A2
  8
LAYER_1
 10
3.342652315061885
 20
3.988085245485412
 30
0.0
  0
VERTEX
  5
6A3
  8
LAYER_1
 10
3.338955823697803
 20
3.965103321754859
 30
0.0
  0
VERTEX
  5
6A4
  8
LAYER_1
 10
3.334587242994797
 20
3.942426600319524
 30
0.0
  0
VERTEX
  5
6A5
  8
LAYER_1
 10
3.329546572952867
 20
3.920055081179409
 30
0.0
  0
VERTEX
  5
6A6
  8
LAYER_1
 10
3.323833813572012
 20
3.897988764334512
 30
0.0
  0
VERTEX
  5
6A7
  8
LAYER_1
 10
3.317448964852234
 20
3.876227649784834
 30
0.0
  0
VERTEX
  5
6A8
  8
LAYER_1
 10
3.310392026793532
 20
3.854771737530374
 30
0.0
  0
VERTEX
  5
6A9
  8
LAYER_1
 10
3.302662999395905
 20
3.833621027571134
 30
0.0
  0
VERTEX
  5
6AA
  8
LAYER_1
 10
3.294261882659355
 20
3.812775519907111
 30
0.0
  0
VERTEX
  5
6AB
  8
LAYER_1
 10
3.285188676583881
 20
3.792235214538309
 30
0.0
  0
VERTEX
  5
6AC
  8
LAYER_1
 10
3.275443381169482
 20
3.772000111464724
 30
0.0
  0
VERTEX
  5
6AD
  8
LAYER_1
 10
3.265025996416159
 20
3.752070210686359
 30
0.0
  0
VERTEX
  5
6AE
  8
LAYER_1
 10
3.25399772982096
 20
3.732537025166635
 30
0.0
  0
VERTEX
  5
6AF
  8
LAYER_1
 10
3.242419788880932
 20
3.713492067868972
 30
0.0
  0
VERTEX
  5
6B0
  8
LAYER_1
 10
3.230292173596074
 20
3.694935338793372
 30
0.0
  0
VERTEX
  5
6B1
  8
LAYER_1
 10
3.217614883966387
 20
3.676866837939834
 30
0.0
  0
VERTEX
  5
6B2
  8
LAYER_1
 10
3.204387919991871
 20
3.659286565308359
 30
0.0
  0
VERTEX
  5
6B3
  8
LAYER_1
 10
3.190611281672526
 20
3.642194520898946
 30
0.0
  0
VERTEX
  5
6B4
  8
LAYER_1
 10
3.176284969008351
 20
3.625590704711596
 30
0.0
  0
VERTEX
  5
6B5
  8
LAYER_1
 10
3.161408981999348
 20
3.609475116746307
 30
0.0
  0
VERTEX
  5
6B6
  8
LAYER_1
 10
3.145983320645515
 20
3.593847757003081
 30
0.0
  0
VERTEX
  5
6B7
  8
LAYER_1
 10
3.130007984946853
 20
3.578708625481918
 30
0.0
  0
VERTEX
  5
6B8
  8
LAYER_1
 10
3.113482974903362
 20
3.564057722182816
 30
0.0
  0
VERTEX
  5
6B9
  8
LAYER_1
 10
3.096408290515041
 20
3.549895047105777
 30
0.0
  0
VERTEX
  5
6BA
  8
LAYER_1
 10
3.078783931781891
 20
3.536220600250801
 30
0.0
  0
VERTEX
  5
6BB
  8
LAYER_1
 10
3.060609898703912
 20
3.523034381617887
 30
0.0
  0
VERTEX
  5
6BC
  8
LAYER_1
 10
3.041886191281104
 20
3.510336391207034
 30
0.0
  0
VERTEX
  5
6BD
  8
LAYER_1
 10
3.022612809513466
 20
3.498126629018245
 30
0.0
  0
VERTEX
  5
6BE
  8
LAYER_1
 10
3.047820753268217
 20
3.488424882797651
 30
0.0
  0
VERTEX
  5
6BF
  8
LAYER_1
 10
3.072351954482514
 20
3.47790572417497
 30
0.0
  0
VERTEX
  5
6C0
  8
LAYER_1
 10
3.096206413156358
 20
3.466569153150198
 30
0.0
  0
VERTEX
  5
6C1
  8
LAYER_1
 10
3.119384129289747
 20
3.454415169723338
 30
0.0
  0
VERTEX
  5
6C2
  8
LAYER_1
 10
3.141885102882682
 20
3.441443773894388
 30
0.0
  0
VERTEX
  5
6C3
  8
LAYER_1
 10
3.163709333935164
 20
3.427654965663349
 30
0.0
  0
VERTEX
  5
6C4
  8
LAYER_1
 10
3.184856822447192
 20
3.413048745030221
 30
0.0
  0
VERTEX
  5
6C5
  8
LAYER_1
 10
3.205327568418766
 20
3.397625111995004
 30
0.0
  0
VERTEX
  5
6C6
  8
LAYER_1
 10
3.225121571849885
 20
3.381384066557697
 30
0.0
  0
VERTEX
  5
6C7
  8
LAYER_1
 10
3.24423883274055
 20
3.364325608718302
 30
0.0
  0
VERTEX
  5
6C8
  8
LAYER_1
 10
3.262679351090762
 20
3.346449738476816
 30
0.0
  0
VERTEX
  5
6C9
  8
LAYER_1
 10
3.28044312690052
 20
3.327756455833243
 30
0.0
  0
VERTEX
  5
6CA
  8
LAYER_1
 10
3.297530160169825
 20
3.308245760787579
 30
0.0
  0
VERTEX
  5
6CB
  8
LAYER_1
 10
3.313940450898675
 20
3.287917653339826
 30
0.0
  0
VERTEX
  5
6CC
  8
LAYER_1
 10
3.329673999087071
 20
3.266772133489984
 30
0.0
  0
VERTEX
  5
6CD
  8
LAYER_1
 10
3.344730804735013
 20
3.244809201238053
 30
0.0
  0
VERTEX
  5
6CE
  8
LAYER_1
 10
3.358989288038424
 20
3.222112733524432
 30
0.0
  0
VERTEX
  5
6CF
  8
LAYER_1
 10
3.372327869193228
 20
3.198766607289517
 30
0.0
  0
VERTEX
  5
6D0
  8
LAYER_1
 10
3.384746548199425
 20
3.174770822533309
 30
0.0
  0
VERTEX
  5
6D1
  8
LAYER_1
 10
3.396245325057015
 20
3.150125379255809
 30
0.0
  0
VERTEX
  5
6D2
  8
LAYER_1
 10
3.406824199765998
 20
3.124830277457017
 30
0.0
  0
VERTEX
  5
6D3
  8
LAYER_1
 10
3.416483172326374
 20
3.098885517136932
 30
0.0
  0
VERTEX
  5
6D4
  8
LAYER_1
 10
3.425222242738142
 20
3.072291098295555
 30
0.0
  0
VERTEX
  5
6D5
  8
LAYER_1
 10
3.433041411001303
 20
3.045047020932884
 30
0.0
  0
VERTEX
  5
6D6
  8
LAYER_1
 10
3.439940677115857
 20
3.017153285048921
 30
0.0
  0
VERTEX
  5
6D7
  8
LAYER_1
 10
3.445920041081804
 20
2.988609890643666
 30
0.0
  0
VERTEX
  5
6D8
  8
LAYER_1
 10
3.450979502899143
 20
2.959416837717117
 30
0.0
  0
VERTEX
  5
6D9
  8
LAYER_1
 10
3.455119062567875
 20
2.929574126269276
 30
0.0
  0
VERTEX
  5
6DA
  8
LAYER_1
 10
3.458338720088
 20
2.899081756300143
 30
0.0
  0
VERTEX
  5
6DB
  8
LAYER_1
 10
3.460638475459518
 20
2.867939727809717
 30
0.0
  0
VERTEX
  5
6DC
  8
LAYER_1
 10
3.462018328682429
 20
2.836148040797998
 30
0.0
  0
VERTEX
  5
6DD
  8
LAYER_1
 10
3.462478279756733
 20
2.803706695264987
 30
0.0
  0
VERTEX
  5
6DE
  8
LAYER_1
 10
3.462062116501954
 20
2.771436981280713
 30
0.0
  0
VERTEX
  5
6DF
  8
LAYER_1
 10
3.460813626737619
 20
2.739663847418685
 30
0.0
  0
VERTEX
  5
6E0
  8
LAYER_1
 10
3.458732810463727
 20
2.7083872936789
 30
0.0
  0
VERTEX
  5
6E1
  8
LAYER_1
 10
3.455819667680278
 20
2.67760732006136
 30
0.0
  0
VERTEX
  5
6E2
  8
LAYER_1
 10
3.452074198387272
 20
2.647323926566063
 30
0.0
  0
VERTEX
  5
6E3
  8
LAYER_1
 10
3.447496402584709
 20
2.617537113193011
 30
0.0
  0
VERTEX
  5
6E4
  8
LAYER_1
 10
3.442086280272589
 20
2.588246879942203
 30
0.0
  0
VERTEX
  5
6E5
  8
LAYER_1
 10
3.435843831450912
 20
2.55945322681364
 30
0.0
  0
VERTEX
  5
6E6
  8
LAYER_1
 10
3.428769056119678
 20
2.53115615380732
 30
0.0
  0
VERTEX
  5
6E7
  8
LAYER_1
 10
3.420861954278887
 20
2.503355660923245
 30
0.0
  0
VERTEX
  5
6E8
  8
LAYER_1
 10
3.412122525928539
 20
2.476051748161415
 30
0.0
  0
VERTEX
  5
6E9
  8
LAYER_1
 10
3.402550771068635
 20
2.449244415521829
 30
0.0
  0
VERTEX
  5
6EA
  8
LAYER_1
 10
3.392146689699174
 20
2.422933663004486
 30
0.0
  0
VERTEX
  5
6EB
  8
LAYER_1
 10
3.380910281820156
 20
2.397119490609388
 30
0.0
  0
VERTEX
  5
6EC
  8
LAYER_1
 10
3.368841547431581
 20
2.371801898336535
 30
0.0
  0
VERTEX
  5
6ED
  8
LAYER_1
 10
3.355940486533449
 20
2.346980886185925
 30
0.0
  0
VERTEX
  5
6EE
  8
LAYER_1
 10
3.342344547540182
 20
2.322828383988447
 30
0.0
  0
VERTEX
  5
6EF
  8
LAYER_1
 10
3.328191178866203
 20
2.299516321574989
 30
0.0
  0
VERTEX
  5
6F0
  8
LAYER_1
 10
3.313480380511511
 20
2.27704469894555
 30
0.0
  0
VERTEX
  5
6F1
  8
LAYER_1
 10
3.298212152476107
 20
2.25541351610013
 30
0.0
  0
VERTEX
  5
6F2
  8
LAYER_1
 10
3.282386494759991
 20
2.234622773038729
 30
0.0
  0
VERTEX
  5
6F3
  8
LAYER_1
 10
3.266003407363162
 20
2.214672469761348
 30
0.0
  0
VERTEX
  5
6F4
  8
LAYER_1
 10
3.249062890285621
 20
2.195562606267987
 30
0.0
  0
VERTEX
  5
6F5
  8
LAYER_1
 10
3.231564943527367
 20
2.177293182558644
 30
0.0
  0
VERTEX
  5
6F6
  8
LAYER_1
 10
3.2135095670884
 20
2.159864198633321
 30
0.0
  0
VERTEX
  5
6F7
  8
LAYER_1
 10
3.194896760968722
 20
2.143275654492017
 30
0.0
  0
VERTEX
  5
6F8
  8
LAYER_1
 10
3.175726525168331
 20
2.127527550134733
 30
0.0
  0
VERTEX
  5
6F9
  8
LAYER_1
 10
3.155998859687228
 20
2.112619885561468
 30
0.0
  0
VERTEX
  5
6FA
  8
LAYER_1
 10
3.135713764525412
 20
2.098552660772222
 30
0.0
  0
VERTEX
  5
6FB
  8
LAYER_1
 10
3.114871239682884
 20
2.085325875766995
 30
0.0
  0
VERTEX
  5
6FC
  8
LAYER_1
 10
3.093471285159643
 20
2.072939530545789
 30
0.0
  0
VERTEX
  5
6FD
  8
LAYER_1
 10
3.07151390095569
 20
2.061393625108601
 30
0.0
  0
VERTEX
  5
6FE
  8
LAYER_1
 10
3.048758552345785
 20
2.050615617236709
 30
0.0
  0
VERTEX
  5
6FF
  8
LAYER_1
 10
3.024964704604691
 20
2.040532964711392
 30
0.0
  0
VERTEX
  5
700
  8
LAYER_1
 10
3.000132357732406
 20
2.031145667532648
 30
0.0
  0
VERTEX
  5
701
  8
LAYER_1
 10
2.974261511728931
 20
2.022453725700478
 30
0.0
  0
VERTEX
  5
702
  8
LAYER_1
 10
2.947352166594265
 20
2.01445713921488
 30
0.0
  0
VERTEX
  5
703
  8
LAYER_1
 10
2.919404322328409
 20
2.007155908075857
 30
0.0
  0
VERTEX
  5
704
  8
LAYER_1
 10
2.890417978931364
 20
2.000550032283408
 30
0.0
  0
VERTEX
  5
705
  8
LAYER_1
 10
2.860393136403127
 20
1.994639511837532
 30
0.0
  0
VERTEX
  5
706
  8
LAYER_1
 10
2.829329794743701
 20
1.98942434673823
 30
0.0
  0
VERTEX
  5
707
  8
LAYER_1
 10
2.797227953953084
 20
1.984904536985501
 30
0.0
  0
VERTEX
  5
708
  8
LAYER_1
 10
2.764087614031276
 20
1.981080082579346
 30
0.0
  0
VERTEX
  5
709
  8
LAYER_1
 10
2.729908774978279
 20
1.977950983519765
 30
0.0
  0
VERTEX
  5
70A
  8
LAYER_1
 10
2.694691436794091
 20
1.975517239806757
 30
0.0
  0
VERTEX
  5
70B
  8
LAYER_1
 10
2.658435599478714
 20
1.973778851440323
 30
0.0
  0
VERTEX
  5
70C
  8
LAYER_1
 10
2.621141263032145
 20
1.972735818420463
 30
0.0
  0
VERTEX
  5
70D
  8
LAYER_1
 10
2.582808427454387
 20
1.972388140747176
 30
0.0
  0
SEQEND
  5
C71
  8
LAYER_1
  0
POLYLINE
  5
CF
  8
LAYER_1
 66
     1
 10
0.0
 20
0.0
 30
0.0
 70
     1
  0
VERTEX
  5
70E
  8
LAYER_1
 10
1.998316681146828
 20
3.633986750651607
 30
0.0
  0
VERTEX
  5
70F
  8
LAYER_1
 10
2.507517240443093
 20
3.633986750651607
 30
0.0
  0
VERTEX
  5
710
  8
LAYER_1
 10
2.555651866074337
 20
3.634414367940921
 30
0.0
  0
VERTEX
  5
711
  8
LAYER_1
 10
2.600176561821242
 20
3.635697219808861
 30
0.0
  0
VERTEX
  5
712
  8
LAYER_1
 10
2.641091327683807
 20
3.63783530625543
 30
0.0
  0
VERTEX
  5
713
  8
LAYER_1
 10
2.678396163662033
 20
3.640828627280625
 30
0.0
  0
VERTEX
  5
714
  8
LAYER_1
 10
2.695694857944518
 20
3.642646000760208
 30
0.0
  0
VERTEX
  5
715
  8
LAYER_1
 10
2.712091069755918
 20
3.644677182884448
 30
0.0
  0
VERTEX
  5
716
  8
LAYER_1
 10
2.727584799096234
 20
3.646922173653344
 30
0.0
  0
VERTEX
  5
717
  8
LAYER_1
 10
2.742176045965464
 20
3.649380973066897
 30
0.0
  0
VERTEX
  5
718
  8
LAYER_1
 10
2.75586481036361
 20
3.652053581125107
 30
0.0
  0
VERTEX
  5
719
  8
LAYER_1
 10
2.76865109229067
 20
3.654939997827975
 30
0.0
  0
VERTEX
  5
71A
  8
LAYER_1
 10
2.780534891746647
 20
3.658040223175498
 30
0.0
  0
VERTEX
  5
71B
  8
LAYER_1
 10
2.791516208731537
 20
3.661354257167679
 30
0.0
  0
VERTEX
  5
71C
  8
LAYER_1
 10
2.806474819895912
 20
3.666703291295611
 30
0.0
  0
VERTEX
  5
71D
  8
LAYER_1
 10
2.820997461870791
 20
3.672487578735881
 30
0.0
  0
VERTEX
  5
71E
  8
LAYER_1
 10
2.835084134656174
 20
3.678707119488487
 30
0.0
  0
VERTEX
  5
71F
  8
LAYER_1
 10
2.848734838252063
 20
3.685361913553431
 30
0.0
  0
VERTEX
  5
720
  8
LAYER_1
 10
2.861949572658455
 20
3.692451960930712
 30
0.0
  0
VERTEX
  5
721
  8
LAYER_1
 10
2.874728337875352
 20
3.69997726162033
 30
0.0
  0
VERTEX
  5
722
  8
LAYER_1
 10
2.887071133902753
 20
3.707937815622285
 30
0.0
  0
VERTEX
  5
723
  8
LAYER_1
 10
2.89897796074066
 20
3.716333622936577
 30
0.0
  0
VERTEX
  5
724
  8
LAYER_1
 10
2.91044881838907
 20
3.725164683563206
 30
0.0
  0
VERTEX
  5
725
  8
LAYER_1
 10
2.921483706847985
 20
3.734430997502172
 30
0.0
  0
VERTEX
  5
726
  8
LAYER_1
 10
2.932082626117404
 20
3.744132564753475
 30
0.0
  0
VERTEX
  5
727
  8
LAYER_1
 10
2.942245576197328
 20
3.754269385317115
 30
0.0
  0
VERTEX
  5
728
  8
LAYER_1
 10
2.951972557087756
 20
3.764841459193092
 30
0.0
  0
VERTEX
  5
729
  8
LAYER_1
 10
2.961263568788689
 20
3.775848786381407
 30
0.0
  0
VERTEX
  5
72A
  8
LAYER_1
 10
2.970118611300125
 20
3.787291366882058
 30
0.0
  0
VERTEX
  5
72B
  8
LAYER_1
 10
2.978537684622067
 20
3.799169200695047
 30
0.0
  0
VERTEX
  5
72C
  8
LAYER_1
 10
2.986482489326536
 20
3.811535739981537
 30
0.0
  0
VERTEX
  5
72D
  8
LAYER_1
 10
2.993914725985555
 20
3.824444436902692
 30
0.0
  0
VERTEX
  5
72E
  8
LAYER_1
 10
3.000834394599125
 20
3.837895291458513
 30
0.0
  0
VERTEX
  5
72F
  8
LAYER_1
 10
3.007241495167245
 20
3.851888303649
 30
0.0
  0
VERTEX
  5
730
  8
LAYER_1
 10
3.013136027689916
 20
3.866423473474152
 30
0.0
  0
VERTEX
  5
731
  8
LAYER_1
 10
3.018517992167137
 20
3.881500800933969
 30
0.0
  0
VERTEX
  5
732
  8
LAYER_1
 10
3.023387388598908
 20
3.897120286028452
 30
0.0
  0
VERTEX
  5
733
  8
LAYER_1
 10
3.02774421698523
 20
3.913281928757602
 30
0.0
  0
VERTEX
  5
734
  8
LAYER_1
 10
3.031588477326101
 20
3.929985729121416
 30
0.0
  0
VERTEX
  5
735
  8
LAYER_1
 10
3.034920169621524
 20
3.947231687119895
 30
0.0
  0
VERTEX
  5
736
  8
LAYER_1
 10
3.037739293871497
 20
3.96501980275304
 30
0.0
  0
VERTEX
  5
737
  8
LAYER_1
 10
3.04004585007602
 20
3.983350076020851
 30
0.0
  0
VERTEX
  5
738
  8
LAYER_1
 10
3.041839838235094
 20
4.002222506923328
 30
0.0
  0
VERTEX
  5
739
  8
LAYER_1
 10
3.043121258348718
 20
4.02163709546047
 30
0.0
  0
VERTEX
  5
73A
  8
LAYER_1
 10
3.043890110416892
 20
4.041593841632277
 30
0.0
  0
VERTEX
  5
73B
  8
LAYER_1
 10
3.044146394439617
 20
4.062092745438749
 30
0.0
  0
VERTEX
  5
73C
  8
LAYER_1
 10
3.043913078142392
 20
4.081194257031928
 30
0.0
  0
VERTEX
  5
73D
  8
LAYER_1
 10
3.043213129250719
 20
4.099891059404865
 30
0.0
  0
VERTEX
  5
73E
  8
LAYER_1
 10
3.042046547764596
 20
4.118183152557559
 30
0.0
  0
VERTEX
  5
73F
  8
LAYER_1
 10
3.040413333684024
 20
4.136070536490009
 30
0.0
  0
VERTEX
  5
740
  8
LAYER_1
 10
3.038313487009003
 20
4.153553211202216
 30
0.0
  0
VERTEX
  5
741
  8
LAYER_1
 10
3.035747007739533
 20
4.170631176694179
 30
0.0
  0
VERTEX
  5
742
  8
LAYER_1
 10
3.032713895875613
 20
4.1873044329659
 30
0.0
  0
VERTEX
  5
743
  8
LAYER_1
 10
3.029214151417245
 20
4.203572980017376
 30
0.0
  0
VERTEX
  5
744
  8
LAYER_1
 10
3.025247774364428
 20
4.219436817848609
 30
0.0
  0
VERTEX
  5
745
  8
LAYER_1
 10
3.020814764717161
 20
4.2348959464596
 30
0.0
  0
VERTEX
  5
746
  8
LAYER_1
 10
3.015915122475445
 20
4.249950365850347
 30
0.0
  0
VERTEX
  5
747
  8
LAYER_1
 10
3.010548847639281
 20
4.264600076020852
 30
0.0
  0
VERTEX
  5
748
  8
LAYER_1
 10
3.004715940208667
 20
4.278845076971112
 30
0.0
  0
VERTEX
  5
749
  8
LAYER_1
 10
2.998416400183603
 20
4.292685368701129
 30
0.0
  0
VERTEX
  5
74A
  8
LAYER_1
 10
2.991650227564091
 20
4.306120951210903
 30
0.0
  0
VERTEX
  5
74B
  8
LAYER_1
 10
2.98441742235013
 20
4.319151824500434
 30
0.0
  0
VERTEX
  5
74C
  8
LAYER_1
 10
2.976798282096325
 20
4.331732172431581
 30
0.0
  0
VERTEX
  5
74D
  8
LAYER_1
 10
2.968873104357284
 20
4.343816178866202
 30
0.0
  0
VERTEX
  5
74E
  8
LAYER_1
 10
2.960641889133005
 20
4.3554038438043
 30
0.0
  0
VERTEX
  5
74F
  8
LAYER_1
 10
2.95210463642349
 20
4.366495167245873
 30
0.0
  0
VERTEX
  5
750
  8
LAYER_1
 10
2.943261346228737
 20
4.377090149190922
 30
0.0
  0
VERTEX
  5
751
  8
LAYER_1
 10
2.934112018548748
 20
4.387188789639444
 30
0.0
  0
VERTEX
  5
752
  8
LAYER_1
 10
2.924656653383521
 20
4.396791088591442
 30
0.0
  0
VERTEX
  5
753
  8
LAYER_1
 10
2.914895250733057
 20
4.405897046046915
 30
0.0
  0
VERTEX
  5
754
  8
LAYER_1
 10
2.904827810597356
 20
4.414506662005864
 30
0.0
  0
VERTEX
  5
755
  8
LAYER_1
 10
2.894454332976419
 20
4.422619936468287
 30
0.0
  0
VERTEX
  5
756
  8
LAYER_1
 10
2.883774817870244
 20
4.430236869434187
 30
0.0
  0
VERTEX
  5
757
  8
LAYER_1
 10
2.872789265278833
 20
4.437357460903561
 30
0.0
  0
VERTEX
  5
758
  8
LAYER_1
 10
2.861497675202184
 20
4.443981710876412
 30
0.0
  0
VERTEX
  5
759
  8
LAYER_1
 10
2.849900047640298
 20
4.450109619352737
 30
0.0
  0
VERTEX
  5
75A
  8
LAYER_1
 10
2.837996382593175
 20
4.455741186332537
 30
0.0
  0
VERTEX
  5
75B
  8
LAYER_1
 10
2.825786680060816
 20
4.460876411815812
 30
0.0
  0
VERTEX
  5
75C
  8
LAYER_1
 10
2.812808065803853
 20
4.465610746090356
 30
0.0
  0
VERTEX
  5
75D
  8
LAYER_1
 10
2.798597665582917
 20
4.470039639443961
 30
0.0
  0
VERTEX
  5
75E
  8
LAYER_1
 10
2.78315547939801
 20
4.474163091876628
 30
0.0
  0
VERTEX
  5
75F
  8
LAYER_1
 10
2.766481507249131
 20
4.477981103388357
 30
0.0
  0
VERTEX
  5
760
  8
LAYER_1
 10
2.748575749136281
 20
4.481493673979148
 30
0.0
  0
VERTEX
  5
761
  8
LAYER_1
 10
2.729438205059459
 20
4.484700803649
 30
0.0
  0
VERTEX
  5
762
  8
LAYER_1
 10
2.709068875018666
 20
4.487602492397914
 30
0.0
  0
VERTEX
  5
763
  8
LAYER_1
 10
2.6874677590139
 20
4.49019874022589
 30
0.0
  0
VERTEX
  5
764
  8
LAYER_1
 10
2.664634857045164
 20
4.492489547132926
 30
0.0
  0
VERTEX
  5
765
  8
LAYER_1
 10
2.640570169112456
 20
4.494474913119026
 30
0.0
  0
VERTEX
  5
766
  8
LAYER_1
 10
2.615273695215777
 20
4.496154838184187
 30
0.0
  0
VERTEX
  5
767
  8
LAYER_1
 10
2.588745435355126
 20
4.497529322328409
 30
0.0
  0
VERTEX
  5
768
  8
LAYER_1
 10
2.560985389530503
 20
4.498598365551693
 30
0.0
  0
VERTEX
  5
769
  8
LAYER_1
 10
2.531993557741909
 20
4.499361967854039
 30
0.0
  0
VERTEX
  5
76A
  8
LAYER_1
 10
2.501769939989343
 20
4.499820129235447
 30
0.0
  0
VERTEX
  5
76B
  8
LAYER_1
 10
2.470314536272806
 20
4.499972849695916
 30
0.0
  0
VERTEX
  5
76C
  8
LAYER_1
 10
1.998316681146828
 20
4.499972849695916
 30
0.0
  0
SEQEND
  5
C72
  8
LAYER_1
  0
POLYLINE
  5
D0
  8
LAYER_1
 66
     1
 10
0.0
 20
0.0
 30
0.0
 70
     1
  0
VERTEX
  5
76D
  8
LAYER_1
 10
1.998316681146828
 20
2.310572328410078
 30
0.0
  0
VERTEX
  5
76E
  8
LAYER_1
 10
2.583816382493483
 20
2.310572328410078
 30
0.0
  0
VERTEX
  5
76F
  8
LAYER_1
 10
2.630691064325858
 20
2.311122122067767
 30
0.0
  0
VERTEX
  5
770
  8
LAYER_1
 10
2.65293503801891
 20
2.311809364139878
 30
0.0
  0
VERTEX
  5
771
  8
LAYER_1
 10
2.674383433563206
 20
2.312771503040834
 30
0.0
  0
VERTEX
  5
772
  8
LAYER_1
 10
2.695036250958744
 20
2.314008538770634
 30
0.0
  0
VERTEX
  5
773
  8
LAYER_1
 10
2.714893490205528
 20
2.315520471329278
 30
0.0
  0
VERTEX
  5
774
  8
LAYER_1
 10
2.733955151303554
 20
2.317307300716767
 30
0.0
  0
VERTEX
  5
775
  8
LAYER_1
 10
2.752221234252823
 20
2.319369026933101
 30
0.0
  0
VERTEX
  5
776
  8
LAYER_1
 10
2.769691739053336
 20
2.321705649978279
 30
0.0
  0
VERTEX
  5
777
  8
LAYER_1
 10
2.786366665705093
 20
2.324317169852302
 30
0.0
  0
VERTEX
  5
778
  8
LAYER_1
 10
2.802246014208093
 20
2.327203586555169
 30
0.0
  0
VERTEX
  5
779
  8
LAYER_1
 10
2.817329784562336
 20
2.330364900086881
 30
0.0
  0
VERTEX
  5
77A
  8
LAYER_1
 10
2.831617976767824
 20
2.333801110447437
 30
0.0
  0
VERTEX
  5
77B
  8
LAYER_1
 10
2.845110590824554
 20
2.337512217636837
 30
0.0
  0
VERTEX
  5
77C
  8
LAYER_1
 10
2.857807626732528
 20
2.341498221655082
 30
0.0
  0
VERTEX
  5
77D
  8
LAYER_1
 10
2.869709084491745
 20
2.345759122502172
 30
0.0
  0
VERTEX
  5
77E
  8
LAYER_1
 10
2.88610326798453
 20
2.352368100428974
 30
0.0
  0
VERTEX
  5
77F
  8
LAYER_1
 10
2.902000394103632
 20
2.359488691898349
 30
0.0
  0
VERTEX
  5
780
  8
LAYER_1
 10
2.91740046284905
 20
2.367120896910294
 30
0.0
  0
VERTEX
  5
781
  8
LAYER_1
 10
2.932303474220785
 20
2.375264715464813
 30
0.0
  0
VERTEX
  5
782
  8
LAYER_1
 10
2.946709428218838
 20
2.383920147561902
 30
0.0
  0
VERTEX
  5
783
  8
LAYER_1
 10
2.960618324843206
 20
2.393087193201564
 30
0.0
  0
VERTEX
  5
784
  8
LAYER_1
 10
2.974030164093892
 20
2.402765852383796
 30
0.0
  0
VERTEX
  5
785
  8
LAYER_1
 10
2.986944945970894
 20
2.412956125108601
 30
0.0
  0
VERTEX
  5
786
  8
LAYER_1
 10
2.999362670474213
 20
2.423658011375977
 30
0.0
  0
VERTEX
  5
787
  8
LAYER_1
 10
3.011283337603849
 20
2.434871511185925
 30
0.0
  0
VERTEX
  5
788
  8
LAYER_1
 10
3.022706947359802
 20
2.446596624538445
 30
0.0
  0
VERTEX
  5
789
  8
LAYER_1
 10
3.033633499742071
 20
2.458833351433535
 30
0.0
  0
VERTEX
  5
78A
  8
LAYER_1
 10
3.044062994750657
 20
2.471581691871198
 30
0.0
  0
VERTEX
  5
78B
  8
LAYER_1
 10
3.053995432385561
 20
2.484841645851433
 30
0.0
  0
VERTEX
  5
78C
  8
LAYER_1
 10
3.06343081264678
 20
2.498613213374239
 30
0.0
  0
VERTEX
  5
78D
  8
LAYER_1
 10
3.072369135534317
 20
2.512896394439617
 30
0.0
  0
VERTEX
  5
78E
  8
LAYER_1
 10
3.080787373666241
 20
2.527668280978497
 30
0.0
  0
VERTEX
  5
78F
  8
LAYER_1
 10
3.088662499660621
 20
2.542905964921807
 30
0.0
  0
VERTEX
  5
790
  8
LAYER_1
 10
3.095994513517457
 20
2.558609446269548
 30
0.0
  0
VERTEX
  5
791
  8
LAYER_1
 10
3.102783415236749
 20
2.57477872502172
 30
0.0
  0
VERTEX
  5
792
  8
LAYER_1
 10
3.109029204818499
 20
2.591413801178323
 30
0.0
  0
VERTEX
  5
793
  8
LAYER_1
 10
3.114731882262705
 20
2.608514674739357
 30
0.0
  0
VERTEX
  5
794
  8
LAYER_1
 10
3.119891447569368
 20
2.626081345704822
 30
0.0
  0
VERTEX
  5
795
  8
LAYER_1
 10
3.124507900738487
 20
2.644113814074718
 30
0.0
  0
VERTEX
  5
796
  8
LAYER_1
 10
3.128581241770063
 20
2.662612079849044
 30
0.0
  0
VERTEX
  5
797
  8
LAYER_1
 10
3.132111470664095
 20
2.681576143027802
 30
0.0
  0
VERTEX
  5
798
  8
LAYER_1
 10
3.135098587420584
 20
2.70100600361099
 30
0.0
  0
VERTEX
  5
799
  8
LAYER_1
 10
3.13754259203953
 20
2.720901661598609
 30
0.0
  0
VERTEX
  5
79A
  8
LAYER_1
 10
3.139443484520932
 20
2.74126311699066
 30
0.0
  0
VERTEX
  5
79B
  8
LAYER_1
 10
3.140801264864791
 20
2.762090369787141
 30
0.0
  0
VERTEX
  5
79C
  8
LAYER_1
 10
3.141615933071106
 20
2.783383419988053
 30
0.0
  0
VERTEX
  5
79D
  8
LAYER_1
 10
3.141887489139878
 20
2.805142267593396
 30
0.0
  0
VERTEX
  5
79E
  8
LAYER_1
 10
3.141627446762071
 20
2.825228826156602
 30
0.0
  0
VERTEX
  5
79F
  8
LAYER_1
 10
3.140847319628651
 20
2.844925947545612
 30
0.0
  0
VERTEX
  5
7A0
  8
LAYER_1
 10
3.139547107739618
 20
2.864233631760425
 30
0.0
  0
VERTEX
  5
7A1
  8
LAYER_1
 10
3.137726811094971
 20
2.883151878801042
 30
0.0
  0
VERTEX
  5
7A2
  8
LAYER_1
 10
3.135386429694711
 20
2.901680688667463
 30
0.0
  0
VERTEX
  5
7A3
  8
LAYER_1
 10
3.132525963538838
 20
2.919820061359687
 30
0.0
  0
VERTEX
  5
7A4
  8
LAYER_1
 10
3.129145412627351
 20
2.937569996877714
 30
0.0
  0
VERTEX
  5
7A5
  8
LAYER_1
 10
3.125244776960251
 20
2.954930495221546
 30
0.0
  0
VERTEX
  5
7A6
  8
LAYER_1
 10
3.120824056537538
 20
2.971901556391181
 30
0.0
  0
VERTEX
  5
7A7
  8
LAYER_1
 10
3.115883251359211
 20
2.98848318038662
 30
0.0
  0
VERTEX
  5
7A8
  8
LAYER_1
 10
3.110422361425272
 20
3.004675367207863
 30
0.0
  0
VERTEX
  5
7A9
  8
LAYER_1
 10
3.104441386735719
 20
3.020478116854909
 30
0.0
  0
VERTEX
  5
7AA
  8
LAYER_1
 10
3.097940327290551
 20
3.035891429327758
 30
0.0
  0
VERTEX
  5
7AB
  8
LAYER_1
 10
3.090919183089772
 20
3.050915304626411
 30
0.0
  0
VERTEX
  5
7AC
  8
LAYER_1
 10
3.083377954133379
 20
3.065549742750868
 30
0.0
  0
VERTEX
  5
7AD
  8
LAYER_1
 10
3.075316640421372
 20
3.079794743701129
 30
0.0
  0
VERTEX
  5
7AE
  8
LAYER_1
 10
3.066815479851928
 20
3.093608309350564
 30
0.0
  0
VERTEX
  5
7AF
  8
LAYER_1
 10
3.057954710323224
 20
3.106948441572545
 30
0.0
  0
VERTEX
  5
7B0
  8
LAYER_1
 10
3.048734331835258
 20
3.119815140367072
 30
0.0
  0
VERTEX
  5
7B1
  8
LAYER_1
 10
3.039154344388032
 20
3.132208405734143
 30
0.0
  0
VERTEX
  5
7B2
  8
LAYER_1
 10
3.029214747981544
 20
3.144128237673761
 30
0.0
  0
VERTEX
  5
7B3
  8
LAYER_1
 10
3.018915542615795
 20
3.155574636185924
 30
0.0
  0
VERTEX
  5
7B4
  8
LAYER_1
 10
3.008256728290786
 20
3.166547601270634
 30
0.0
  0
VERTEX
  5
7B5
  8
LAYER_1
 10
2.997238305006515
 20
3.177047132927888
 30
0.0
  0
VERTEX
  5
7B6
  8
LAYER_1
 10
2.985860272762984
 20
3.187073231157688
 30
0.0
  0
VERTEX
  5
7B7
  8
LAYER_1
 10
2.974122631560192
 20
3.196625895960034
 30
0.0
  0
VERTEX
  5
7B8
  8
LAYER_1
 10
2.962025381398139
 20
3.205705127334926
 30
0.0
  0
VERTEX
  5
7B9
  8
LAYER_1
 10
2.949568522276824
 20
3.214310925282363
 30
0.0
  0
VERTEX
  5
7BA
  8
LAYER_1
 10
2.936752054196249
 20
3.222443289802346
 30
0.0
  0
VERTEX
  5
7BB
  8
LAYER_1
 10
2.923575977156412
 20
3.230102220894874
 30
0.0
  0
VERTEX
  5
7BC
  8
LAYER_1
 10
2.910040291157315
 20
3.237287718559948
 30
0.0
  0
VERTEX
  5
7BD
  8
LAYER_1
 10
2.896144996198957
 20
3.243999782797567
 30
0.0
  0
VERTEX
  5
7BE
  8
LAYER_1
 10
2.881568842406484
 20
3.250272775711338
 30
0.0
  0
VERTEX
  5
7BF
  8
LAYER_1
 10
2.865990579905041
 20
3.256141059404865
 30
0.0
  0
VERTEX
  5
7C0
  8
LAYER_1
 10
2.849410208694629
 20
3.261604633878148
 30
0.0
  0
VERTEX
  5
7C1
  8
LAYER_1
 10
2.831827728775249
 20
3.26666349913119
 30
0.0
  0
VERTEX
  5
7C2
  8
LAYER_1
 10
2.8132431401469
 20
3.271317655163987
 30
0.0
  0
VERTEX
  5
7C3
  8
LAYER_1
 10
2.793656442809581
 20
3.275567101976542
 30
0.0
  0
VERTEX
  5
7C4
  8
LAYER_1
 10
2.773067636763293
 20
3.279411839568852
 30
0.0
  0
VERTEX
  5
7C5
  8
LAYER_1
 10
2.751476722008036
 20
3.28285186794092
 30
0.0
  0
VERTEX
  5
7C6
  8
LAYER_1
 10
2.72888369854381
 20
3.285887187092745
 30
0.0
  0
VERTEX
  5
7C7
  8
LAYER_1
 10
2.705288566370615
 20
3.288517797024326
 30
0.0
  0
VERTEX
  5
7C8
  8
LAYER_1
 10
2.68069132548845
 20
3.290743697735664
 30
0.0
  0
VERTEX
  5
7C9
  8
LAYER_1
 10
2.655091975897317
 20
3.292564889226759
 30
0.0
  0
VERTEX
  5
7CA
  8
LAYER_1
 10
2.628490517597215
 20
3.29398137149761
 30
0.0
  0
VERTEX
  5
7CB
  8
LAYER_1
 10
2.600886950588143
 20
3.294993144548219
 30
0.0
  0
VERTEX
  5
7CC
  8
LAYER_1
 10
2.572281274870102
 20
3.295600208378583
 30
0.0
  0
VERTEX
  5
7CD
  8
LAYER_1
 10
2.542673490443093
 20
3.295802562988705
 30
0.0
  0
VERTEX
  5
7CE
  8
LAYER_1
 10
1.998316681146828
 20
3.295802562988705
 30
0.0
  0
SEQEND
  5
C73
  8
LAYER_1
  0
POLYLINE
  5
D1
  8
LAYER_1
 66
     1
 10
0.0
 20
0.0
 30
0.0
 70
     1
  0
VERTEX
  5
7CF
  8
LAYER_1
 10
3.800662467419634
 20
3.368130973066898
 30
0.0
  0
VERTEX
  5
7D0
  8
LAYER_1
 10
3.800977453369351
 20
3.413615898709003
 30
0.0
  0
VERTEX
  5
7D1
  8
LAYER_1
 10
3.801922411218504
 20
3.458438399353823
 30
0.0
  0
VERTEX
  5
7D2
  8
LAYER_1
 10
3.803497340967092
 20
3.502598475001357
 30
0.0
  0
VERTEX
  5
7D3
  8
LAYER_1
 10
3.805702242615116
 20
3.546096125651607
 30
0.0
  0
VERTEX
  5
7D4
  8
LAYER_1
 10
3.808537116162575
 20
3.588931351304572
 30
0.0
  0
VERTEX
  5
7D5
  8
LAYER_1
 10
3.812001961609468
 20
3.631104151960252
 30
0.0
  0
VERTEX
  5
7D6
  8
LAYER_1
 10
3.816096778955798
 20
3.672614527618647
 30
0.0
  0
VERTEX
  5
7D7
  8
LAYER_1
 10
3.820821568201562
 20
3.713462478279757
 30
0.0
  0
VERTEX
  5
7D8
  8
LAYER_1
 10
3.826176329346763
 20
3.753648003943582
 30
0.0
  0
VERTEX
  5
7D9
  8
LAYER_1
 10
3.832161062391398
 20
3.793171104610122
 30
0.0
  0
VERTEX
  5
7DA
  8
LAYER_1
 10
3.838775767335468
 20
3.832031780279376
 30
0.0
  0
VERTEX
  5
7DB
  8
LAYER_1
 10
3.846020444178973
 20
3.870230030951347
 30
0.0
  0
VERTEX
  5
7DC
  8
LAYER_1
 10
3.853895092921915
 20
3.907765856626031
 30
0.0
  0
VERTEX
  5
7DD
  8
LAYER_1
 10
3.862399713564291
 20
3.944639257303431
 30
0.0
  0
VERTEX
  5
7DE
  8
LAYER_1
 10
3.871534306106103
 20
3.980850232983546
 30
0.0
  0
VERTEX
  5
7DF
  8
LAYER_1
 10
3.881298870547349
 20
4.016398783666377
 30
0.0
  0
VERTEX
  5
7E0
  8
LAYER_1
 10
3.891693406888031
 20
4.051284909351923
 30
0.0
  0
VERTEX
  5
7E1
  8
LAYER_1
 10
3.902717915128148
 20
4.085508610040183
 30
0.0
  0
VERTEX
  5
7E2
  8
LAYER_1
 10
3.914372395267701
 20
4.119069885731157
 30
0.0
  0
VERTEX
  5
7E3
  8
LAYER_1
 10
3.926656847306689
 20
4.151968736424847
 30
0.0
  0
VERTEX
  5
7E4
  8
LAYER_1
 10
3.939571271245112
 20
4.184205162121253
 30
0.0
  0
VERTEX
  5
7E5
  8
LAYER_1
 10
3.953115667082971
 20
4.215779162820374
 30
0.0
  0
VERTEX
  5
7E6
  8
LAYER_1
 10
3.967290034820264
 20
4.246690738522208
 30
0.0
  0
VERTEX
  5
7E7
  8
LAYER_1
 10
3.982094374456993
 20
4.276939889226758
 30
0.0
  0
VERTEX
  5
7E8
  8
LAYER_1
 10
3.997528685993157
 20
4.306526614934024
 30
0.0
  0
VERTEX
  5
7E9
  8
LAYER_1
 10
4.013592969428757
 20
4.335450915644005
 30
0.0
  0
VERTEX
  5
7EA
  8
LAYER_1
 10
4.030287224763791
 20
4.363712791356701
 30
0.0
  0
VERTEX
  5
7EB
  8
LAYER_1
 10
4.047611451998261
 20
4.391312242072111
 30
0.0
  0
VERTEX
  5
7EC
  8
LAYER_1
 10
4.065565651132166
 20
4.418249267790236
 30
0.0
  0
VERTEX
  5
7ED
  8
LAYER_1
 10
4.084149822165507
 20
4.444523868511077
 30
0.0
  0
VERTEX
  5
7EE
  8
LAYER_1
 10
4.103363965098284
 20
4.470136044234632
 30
0.0
  0
VERTEX
  5
7EF
  8
LAYER_1
 10
4.123208079930494
 20
4.495085794960903
 30
0.0
  0
VERTEX
  5
7F0
  8
LAYER_1
 10
4.143521810178648
 20
4.519319668528725
 30
0.0
  0
VERTEX
  5
7F1
  8
LAYER_1
 10
4.164144799359251
 20
4.542784212776933
 30
0.0
  0
VERTEX
  5
7F2
  8
LAYER_1
 10
4.185077047472305
 20
4.565479427705528
 30
0.0
  0
VERTEX
  5
7F3
  8
LAYER_1
 10
4.20631855451781
 20
4.587405313314509
 30
0.0
  0
VERTEX
  5
7F4
  8
LAYER_1
 10
4.227869320495763
 20
4.608561869603877
 30
0.0
  0
VERTEX
  5
7F5
  8
LAYER_1
 10
4.249729345406168
 20
4.628949096573631
 30
0.0
  0
VERTEX
  5
7F6
  8
LAYER_1
 10
4.271898629249022
 20
4.648566994223772
 30
0.0
  0
VERTEX
  5
7F7
  8
LAYER_1
 10
4.294377172024326
 20
4.6674155625543
 30
0.0
  0
VERTEX
  5
7F8
  8
LAYER_1
 10
4.31716497373208
 20
4.685494801565214
 30
0.0
  0
VERTEX
  5
7F9
  8
LAYER_1
 10
4.340262034372284
 20
4.702804711256515
 30
0.0
  0
VERTEX
  5
7FA
  8
LAYER_1
 10
4.363668353944938
 20
4.719345291628203
 30
0.0
  0
VERTEX
  5
7FB
  8
LAYER_1
 10
4.387383932450042
 20
4.735116542680277
 30
0.0
  0
VERTEX
  5
7FC
  8
LAYER_1
 10
4.411408769887595
 20
4.750118464412738
 30
0.0
  0
VERTEX
  5
7FD
  8
LAYER_1
 10
4.4357428662576
 20
4.764351056825586
 30
0.0
  0
VERTEX
  5
7FE
  8
LAYER_1
 10
4.460386221560054
 20
4.77781431991882
 30
0.0
  0
VERTEX
  5
7FF
  8
LAYER_1
 10
4.485338835794959
 20
4.79050825369244
 30
0.0
  0
VERTEX
  5
800
  8
LAYER_1
 10
4.510600708962313
 20
4.802432858146449
 30
0.0
  0
VERTEX
  5
801
  8
LAYER_1
 10
4.536171841062117
 20
4.813588133280843
 30
0.0
  0
VERTEX
  5
802
  8
LAYER_1
 10
4.562052232094372
 20
4.823974079095623
 30
0.0
  0
VERTEX
  5
803
  8
LAYER_1
 10
4.588241882059077
 20
4.83359069559079
 30
0.0
  0
VERTEX
  5
804
  8
LAYER_1
 10
4.614740790956231
 20
4.842437982766344
 30
0.0
  0
VERTEX
  5
805
  8
LAYER_1
 10
4.641548958785837
 20
4.850515940622285
 30
0.0
  0
VERTEX
  5
806
  8
LAYER_1
 10
4.668666385547891
 20
4.857824569158612
 30
0.0
  0
VERTEX
  5
807
  8
LAYER_1
 10
4.696093071242396
 20
4.864363868375325
 30
0.0
  0
VERTEX
  5
808
  8
LAYER_1
 10
4.723829015869351
 20
4.870133838272426
 30
0.0
  0
VERTEX
  5
809
  8
LAYER_1
 10
4.751874219428755
 20
4.875134478849913
 30
0.0
  0
VERTEX
  5
80A
  8
LAYER_1
 10
4.78022868192061
 20
4.879365790107786
 30
0.0
  0
VERTEX
  5
80B
  8
LAYER_1
 10
4.808892403344916
 20
4.882827772046046
 30
0.0
  0
VERTEX
  5
80C
  8
LAYER_1
 10
4.83786538370167
 20
4.885520424664693
 30
0.0
  0
VERTEX
  5
80D
  8
LAYER_1
 10
4.867147622990876
 20
4.887443747963727
 30
0.0
  0
VERTEX
  5
80E
  8
LAYER_1
 10
4.896739121212531
 20
4.888597741943147
 30
0.0
  0
VERTEX
  5
80F
  8
LAYER_1
 10
4.926639878366636
 20
4.888982406602953
 30
0.0
  0
VERTEX
  5
810
  8
LAYER_1
 10
4.946012468777149
 20
4.888810596084926
 30
0.0
  0
VERTEX
  5
811
  8
LAYER_1
 10
4.965278154865334
 20
4.888295164530843
 30
0.0
  0
VERTEX
  5
812
  8
LAYER_1
 10
4.984436936631189
 20
4.887436111940704
 30
0.0
  0
VERTEX
  5
813
  8
LAYER_1
 10
5.003488814074716
 20
4.886233438314509
 30
0.0
  0
VERTEX
  5
814
  8
LAYER_1
 10
5.022433787195915
 20
4.884687143652259
 30
0.0
  0
VERTEX
  5
815
  8
LAYER_1
 10
5.041271855994786
 20
4.882797227953953
 30
0.0
  0
VERTEX
  5
816
  8
LAYER_1
 10
5.060003020471328
 20
4.880563691219592
 30
0.0
  0
VERTEX
  5
817
  8
LAYER_1
 10
5.078627280625541
 20
4.877986533449175
 30
0.0
  0
VERTEX
  5
818
  8
LAYER_1
 10
5.097144636457426
 20
4.875065754642702
 30
0.0
  0
VERTEX
  5
819
  8
LAYER_1
 10
5.115555087966984
 20
4.871801354800174
 30
0.0
  0
VERTEX
  5
81A
  8
LAYER_1
 10
5.133858635154212
 20
4.86819333392159
 30
0.0
  0
VERTEX
  5
81B
  8
LAYER_1
 10
5.152055278019112
 20
4.86424169200695
 30
0.0
  0
VERTEX
  5
81C
  8
LAYER_1
 10
5.170145016561684
 20
4.859946429056255
 30
0.0
  0
VERTEX
  5
81D
  8
LAYER_1
 10
5.188127850781928
 20
4.855307545069505
 30
0.0
  0
VERTEX
  5
81E
  8
LAYER_1
 10
5.206003780679842
 20
4.850325040046699
 30
0.0
  0
VERTEX
  5
81F
  8
LAYER_1
 10
5.223772806255429
 20
4.844998913987837
 30
0.0
  0
VERTEX
  5
820
  8
LAYER_1
 10
5.241434927508687
 20
4.83932916689292
 30
0.0
  0
VERTEX
  5
821
  8
LAYER_1
 10
5.258990144439617
 20
4.833315798761946
 30
0.0
  0
VERTEX
  5
822
  8
LAYER_1
 10
5.276438457048218
 20
4.826958809594919
 30
0.0
  0
VERTEX
  5
823
  8
LAYER_1
 10
5.29377986533449
 20
4.820258199391834
 30
0.0
  0
VERTEX
  5
824
  8
LAYER_1
 10
5.311014369298435
 20
4.813213968152694
 30
0.0
  0
VERTEX
  5
825
  8
LAYER_1
 10
5.328141968940051
 20
4.805826115877498
 30
0.0
  0
VERTEX
  5
826
  8
LAYER_1
 10
5.345162664259338
 20
4.798094642566247
 30
0.0
  0
VERTEX
  5
827
  8
LAYER_1
 10
5.362076455256298
 20
4.79001954821894
 30
0.0
  0
VERTEX
  5
828
  8
LAYER_1
 10
5.378883341930928
 20
4.781600832835578
 30
0.0
  0
VERTEX
  5
829
  8
LAYER_1
 10
5.395583324283231
 20
4.77283849641616
 30
0.0
  0
VERTEX
  5
82A
  8
LAYER_1
 10
5.412176402313205
 20
4.763732538960687
 30
0.0
  0
VERTEX
  5
82B
  8
LAYER_1
 10
5.42866257602085
 20
4.754282960469157
 30
0.0
  0
VERTEX
  5
82C
  8
LAYER_1
 10
5.445041845406167
 20
4.744489760941573
 30
0.0
  0
VERTEX
  5
82D
  8
LAYER_1
 10
5.461314210469157
 20
4.734352940377932
 30
0.0
  0
VERTEX
  5
82E
  8
LAYER_1
 10
5.477479671209816
 20
4.723872498778237
 30
0.0
  0
VERTEX
  5
82F
  8
LAYER_1
 10
5.493538227628148
 20
4.713048436142484
 30
0.0
  0
VERTEX
  5
830
  8
LAYER_1
 10
5.509439291071621
 20
4.701896979019602
 30
0.0
  0
VERTEX
  5
831
  8
LAYER_1
 10
5.525132272887705
 20
4.690434353958514
 30
0.0
  0
VERTEX
  5
832
  8
LAYER_1
 10
5.5406171730764
 20
4.678660560959219
 30
0.0
  0
VERTEX
  5
833
  8
LAYER_1
 10
5.555893991637705
 20
4.666575600021719
 30
0.0
  0
VERTEX
  5
834
  8
LAYER_1
 10
5.570962728571622
 20
4.654179471146014
 30
0.0
  0
VERTEX
  5
835
  8
LAYER_1
 10
5.585823383878148
 20
4.641472174332102
 30
0.0
  0
VERTEX
  5
836
  8
LAYER_1
 10
5.600475957557286
 20
4.628453709579984
 30
0.0
  0
VERTEX
  5
837
  8
LAYER_1
 10
5.614920449609034
 20
4.615124076889661
 30
0.0
  0
VERTEX
  5
838
  8
LAYER_1
 10
5.629156860033394
 20
4.60148327626113
 30
0.0
  0
VERTEX
  5
839
  8
LAYER_1
 10
5.643185188830364
 20
4.587531307694395
 30
0.0
  0
VERTEX
  5
83A
  8
LAYER_1
 10
5.657005435999944
 20
4.573268171189453
 30
0.0
  0
VERTEX
  5
83B
  8
LAYER_1
 10
5.670617601542135
 20
4.558693866746307
 30
0.0
  0
VERTEX
  5
83C
  8
LAYER_1
 10
5.684021685456938
 20
4.543808394364953
 30
0.0
  0
VERTEX
  5
83D
  8
LAYER_1
 10
5.697217687744351
 20
4.528611754045395
 30
0.0
  0
VERTEX
  5
83E
  8
LAYER_1
 10
5.710205608404375
 20
4.51310394578763
 30
0.0
  0
VERTEX
  5
83F
  8
LAYER_1
 10
5.72298544743701
 20
4.497284969591659
 30
0.0
  0
VERTEX
  5
840
  8
LAYER_1
 10
5.735557204842255
 20
4.481154825457482
 30
0.0
  0
VERTEX
  5
841
  8
LAYER_1
 10
5.747920880620111
 20
4.464713513385099
 30
0.0
  0
VERTEX
  5
842
  8
LAYER_1
 10
5.760076474770578
 20
4.447961033374511
 30
0.0
  0
VERTEX
  5
843
  8
LAYER_1
 10
5.772023987293656
 20
4.430897385425716
 30
0.0
  0
VERTEX
  5
844
  8
LAYER_1
 10
5.783763418189345
 20
4.413522569538716
 30
0.0
  0
VERTEX
  5
845
  8
LAYER_1
 10
5.795294767457644
 20
4.395836585713511
 30
0.0
  0
VERTEX
  5
846
  8
LAYER_1
 10
5.806618035098555
 20
4.377839433950098
 30
0.0
  0
VERTEX
  5
847
  8
LAYER_1
 10
5.817733221112075
 20
4.35953111424848
 30
0.0
  0
VERTEX
  5
848
  8
LAYER_1
 10
5.828640325498207
 20
4.340911626608656
 30
0.0
  0
VERTEX
  5
849
  8
LAYER_1
 10
5.839339348256949
 20
4.321980971030626
 30
0.0
  0
VERTEX
  5
84A
  8
LAYER_1
 10
5.849830289388303
 20
4.302739147514389
 30
0.0
  0
VERTEX
  5
84B
  8
LAYER_1
 10
5.860113148892267
 20
4.283186156059947
 30
0.0
  0
VERTEX
  5
84C
  8
LAYER_1
 10
5.870187926768841
 20
4.263321996667299
 30
0.0
  0
VERTEX
  5
84D
  8
LAYER_1
 10
5.880054623018026
 20
4.243146669336445
 30
0.0
  0
VERTEX
  5
84E
  8
LAYER_1
 10
5.889713237639823
 20
4.222660174067386
 30
0.0
  0
VERTEX
  5
84F
  8
LAYER_1
 10
5.89916377063423
 20
4.201862510860121
 30
0.0
  0
VERTEX
  5
850
  8
LAYER_1
 10
5.908364223874619
 20
4.180784223806743
 30
0.0
  0
VERTEX
  5
851
  8
LAYER_1
 10
5.91727259923436
 20
4.159455856999347
 30
0.0
  0
VERTEX
  5
852
  8
LAYER_1
 10
5.925888896713454
 20
4.137877410437934
 30
0.0
  0
VERTEX
  5
853
  8
LAYER_1
 10
5.9342131163119
 20
4.116048884122501
 30
0.0
  0
VERTEX
  5
854
  8
LAYER_1
 10
5.9422452580297
 20
4.093970278053051
 30
0.0
  0
VERTEX
  5
855
  8
LAYER_1
 10
5.949985321866853
 20
4.071641592229582
 30
0.0
  0
VERTEX
  5
856
  8
LAYER_1
 10
5.95743330782336
 20
4.049062826652095
 30
0.0
  0
VERTEX
  5
857
  8
LAYER_1
 10
5.964589215899217
 20
4.026233981320591
 30
0.0
  0
VERTEX
  5
858
  8
LAYER_1
 10
5.971453046094428
 20
4.003155056235068
 30
0.0
  0
VERTEX
  5
859
  8
LAYER_1
 10
5.978024798408992
 20
3.979826051395525
 30
0.0
  0
VERTEX
  5
85A
  8
LAYER_1
 10
5.984304472842908
 20
3.956246966801965
 30
0.0
  0
VERTEX
  5
85B
  8
LAYER_1
 10
5.990292069396176
 20
3.932417802454387
 30
0.0
  0
VERTEX
  5
85C
  8
LAYER_1
 10
5.995987588068799
 20
3.90833855835279
 30
0.0
  0
VERTEX
  5
85D
  8
LAYER_1
 10
6.001391028860773
 20
3.884009234497176
 30
0.0
  0
VERTEX
  5
85E
  8
LAYER_1
 10
6.0065023917721
 20
3.859429830887543
 30
0.0
  0
VERTEX
  5
85F
  8
LAYER_1
 10
6.011321676802779
 20
3.834600347523892
 30
0.0
  0
VERTEX
  5
860
  8
LAYER_1
 10
6.015848883952811
 20
3.809520784406223
 30
0.0
  0
VERTEX
  5
861
  8
LAYER_1
 10
6.020084013222196
 20
3.784191141534535
 30
0.0
  0
VERTEX
  5
862
  8
LAYER_1
 10
6.024027064610935
 20
3.758611418908829
 30
0.0
  0
VERTEX
  5
863
  8
LAYER_1
 10
6.027678038119025
 20
3.732781616529105
 30
0.0
  0
VERTEX
  5
864
  8
LAYER_1
 10
6.03103693374647
 20
3.706701734395362
 30
0.0
  0
VERTEX
  5
865
  8
LAYER_1
 10
6.034103751493266
 20
3.680371772507602
 30
0.0
  0
VERTEX
  5
866
  8
LAYER_1
 10
6.036878491359415
 20
3.653791730865823
 30
0.0
  0
VERTEX
  5
867
  8
LAYER_1
 10
6.039361153344917
 20
3.626961609470026
 30
0.0
  0
VERTEX
  5
868
  8
LAYER_1
 10
6.041551737449772
 20
3.59988140832021
 30
0.0
  0
VERTEX
  5
869
  8
LAYER_1
 10
6.043450243673979
 20
3.572551127416377
 30
0.0
  0
VERTEX
  5
86A
  8
LAYER_1
 10
6.045056672017539
 20
3.544970766758525
 30
0.0
  0
VERTEX
  5
86B
  8
LAYER_1
 10
6.046371022480451
 20
3.517140326346655
 30
0.0
  0
VERTEX
  5
86C
  8
LAYER_1
 10
6.048123489764334
 20
3.46072920626086
 30
0.0
  0
VERTEX
  5
86D
  8
LAYER_1
 10
6.048707645525629
 20
3.403317767158992
 30
0.0
  0
VERTEX
  5
86E
  8
LAYER_1
 10
6.048425112673761
 20
3.363719260765095
 30
0.0
  0
VERTEX
  5
86F
  8
LAYER_1
 10
6.047577514118157
 20
3.324582733764118
 30
0.0
  0
VERTEX
  5
870
  8
LAYER_1
 10
6.046164849858818
 20
3.28590818615606
 30
0.0
  0
VERTEX
  5
871
  8
LAYER_1
 10
6.044187119895742
 20
3.247695617940921
 30
0.0
  0
VERTEX
  5
872
  8
LAYER_1
 10
6.041644324228931
 20
3.209945029118701
 30
0.0
  0
VERTEX
  5
873
  8
LAYER_1
 10
6.038536462858383
 20
3.1726564196894
 30
0.0
  0
VERTEX
  5
874
  8
LAYER_1
 10
6.0348635357841
 20
3.135829789653019
 30
0.0
  0
VERTEX
  5
875
  8
LAYER_1
 10
6.030625543006081
 20
3.099465139009557
 30
0.0
  0
VERTEX
  5
876
  8
LAYER_1
 10
6.025822484524325
 20
3.063562467759013
 30
0.0
  0
VERTEX
  5
877
  8
LAYER_1
 10
6.020454360338834
 20
3.02812177590139
 30
0.0
  0
VERTEX
  5
878
  8
LAYER_1
 10
6.014521170449608
 20
2.993143063436686
 30
0.0
  0
VERTEX
  5
879
  8
LAYER_1
 10
6.008022914856645
 20
2.9586263303649
 30
0.0
  0
VERTEX
  5
87A
  8
LAYER_1
 10
6.000959593559947
 20
2.924571576686034
 30
0.0
  0
VERTEX
  5
87B
  8
LAYER_1
 10
5.993331206559512
 20
2.890978802400087
 30
0.0
  0
VERTEX
  5
87C
  8
LAYER_1
 10
5.985137753855342
 20
2.857848007507059
 30
0.0
  0
VERTEX
  5
87D
  8
LAYER_1
 10
5.976379235447435
 20
2.82517919200695
 30
0.0
  0
VERTEX
  5
87E
  8
LAYER_1
 10
5.967055651335794
 20
2.792972355899761
 30
0.0
  0
VERTEX
  5
87F
  8
LAYER_1
 10
5.957167001520416
 20
2.761227499185491
 30
0.0
  0
VERTEX
  5
880
  8
LAYER_1
 10
5.946713286001302
 20
2.729944621864139
 30
0.0
  0
VERTEX
  5
881
  8
LAYER_1
 10
5.935694504778452
 20
2.699123723935708
 30
0.0
  0
VERTEX
  5
882
  8
LAYER_1
 10
5.924110657851867
 20
2.668764805400195
 30
0.0
  0
VERTEX
  5
883
  8
LAYER_1
 10
5.911961745221546
 20
2.638867866257602
 30
0.0
  0
VERTEX
  5
884
  8
LAYER_1
 10
5.899247766887489
 20
2.609432906507927
 30
0.0
  0
VERTEX
  5
885
  8
LAYER_1
 10
5.885968722849695
 20
2.580459926151172
 30
0.0
  0
VERTEX
  5
886
  8
LAYER_1
 10
5.872124613108165
 20
2.551948925187337
 30
0.0
  0
VERTEX
  5
887
  8
LAYER_1
 10
5.8577154376629
 20
2.52389990361642
 30
0.0
  0
VERTEX
  5
888
  8
LAYER_1
 10
5.8427411965139
 20
2.496312861438423
 30
0.0
  0
VERTEX
  5
889
  8
LAYER_1
 10
5.827201889661163
 20
2.469187798653345
 30
0.0
  0
VERTEX
  5
88A
  8
LAYER_1
 10
5.811097517104691
 20
2.442524715261186
 30
0.0
  0
VERTEX
  5
88B
  8
LAYER_1
 10
5.794428078844482
 20
2.416323611261946
 30
0.0
  0
VERTEX
  5
88C
  8
LAYER_1
 10
5.777193574880537
 20
2.390584486655626
 30
0.0
  0
VERTEX
  5
88D
  8
LAYER_1
 10
5.759394005212857
 20
2.365307341442224
 30
0.0
  0
VERTEX
  5
88E
  8
LAYER_1
 10
5.739286447586338
 20
2.338126917490225
 30
0.0
  0
VERTEX
  5
88F
  8
LAYER_1
 10
5.718793270797132
 20
2.311809364139878
 30
0.0
  0
VERTEX
  5
890
  8
LAYER_1
 10
5.697914474845242
 20
2.286354681391181
 30
0.0
  0
VERTEX
  5
891
  8
LAYER_1
 10
5.676650059730668
 20
2.261762869244135
 30
0.0
  0
VERTEX
  5
892
  8
LAYER_1
 10
5.655000025453409
 20
2.23803392769874
 30
0.0
  0
VERTEX
  5
893
  8
LAYER_1
 10
5.632964372013465
 20
2.215167856754996
 30
0.0
  0
VERTEX
  5
894
  8
LAYER_1
 10
5.610543099410838
 20
2.193164656412902
 30
0.0
  0
VERTEX
  5
895
  8
LAYER_1
 10
5.587736207645524
 20
2.172024326672458
 30
0.0
  0
VERTEX
  5
896
  8
LAYER_1
 10
5.564543696717528
 20
2.151746867533666
 30
0.0
  0
VERTEX
  5
897
  8
LAYER_1
 10
5.540965566626846
 20
2.132332278996524
 30
0.0
  0
VERTEX
  5
898
  8
LAYER_1
 10
5.51700181737348
 20
2.113780561061033
 30
0.0
  0
VERTEX
  5
899
  8
LAYER_1
 10
5.492652448957427
 20
2.096091713727193
 30
0.0
  0
VERTEX
  5
89A
  8
LAYER_1
 10
5.467917461378692
 20
2.079265736995004
 30
0.0
  0
VERTEX
  5
89B
  8
LAYER_1
 10
5.442796854637271
 20
2.063302630864465
 30
0.0
  0
VERTEX
  5
89C
  8
LAYER_1
 10
5.417290628733166
 20
2.048202395335577
 30
0.0
  0
VERTEX
  5
89D
  8
LAYER_1
 10
5.391398783666376
 20
2.03396503040834
 30
0.0
  0
VERTEX
  5
89E
  8
LAYER_1
 10
5.365121319436902
 20
2.020590536082754
 30
0.0
  0
VERTEX
  5
89F
  8
LAYER_1
 10
5.338458236044743
 20
2.008078912358818
 30
0.0
  0
VERTEX
  5
8A0
  8
LAYER_1
 10
5.3114095334899
 20
1.996430159236533
 30
0.0
  0
VERTEX
  5
8A1
  8
LAYER_1
 10
5.28397521177237
 20
1.985644276715899
 30
0.0
  0
VERTEX
  5
8A2
  8
LAYER_1
 10
5.256155270892157
 20
1.975721264796915
 30
0.0
  0
VERTEX
  5
8A3
  8
LAYER_1
 10
5.227949710849259
 20
1.966661123479583
 30
0.0
  0
VERTEX
  5
8A4
  8
LAYER_1
 10
5.199358531643678
 20
1.9584638527639
 30
0.0
  0
VERTEX
  5
8A5
  8
LAYER_1
 10
5.170381733275411
 20
1.951129452649869
 30
0.0
  0
VERTEX
  5
8A6
  8
LAYER_1
 10
5.14101931574446
 20
1.944657923137489
 30
0.0
  0
VERTEX
  5
8A7
  8
LAYER_1
 10
5.111271279050824
 20
1.939049264226759
 30
0.0
  0
VERTEX
  5
8A8
  8
LAYER_1
 10
5.081137623194504
 20
1.93430347591768
 30
0.0
  0
VERTEX
  5
8A9
  8
LAYER_1
 10
5.050618348175498
 20
1.930420558210251
 30
0.0
  0
VERTEX
  5
8AA
  8
LAYER_1
 10
5.019713453993809
 20
1.927400511104474
 30
0.0
  0
VERTEX
  5
8AB
  8
LAYER_1
 10
4.988422940649434
 20
1.925243334600347
 30
0.0
  0
VERTEX
  5
8AC
  8
LAYER_1
 10
4.956746808142375
 20
1.923949028697871
 30
0.0
  0
VERTEX
  5
8AD
  8
LAYER_1
 10
4.924685056472631
 20
1.923517593397046
 30
0.0
  0
VERTEX
  5
8AE
  8
LAYER_1
 10
4.892384679083404
 20
1.923960482732406
 30
0.0
  0
VERTEX
  5
8AF
  8
LAYER_1
 10
4.860481374891398
 20
1.925289150738488
 30
0.0
  0
VERTEX
  5
8B0
  8
LAYER_1
 10
4.828975143896612
 20
1.927503597415291
 30
0.0
  0
VERTEX
  5
8B1
  8
LAYER_1
 10
4.797865986099044
 20
1.930603822762815
 30
0.0
  0
VERTEX
  5
8B2
  8
LAYER_1
 10
4.767153901498697
 20
1.93458982678106
 30
0.0
  0
VERTEX
  5
8B3
  8
LAYER_1
 10
4.736838890095568
 20
1.939461609470026
 30
0.0
  0
VERTEX
  5
8B4
  8
LAYER_1
 10
4.706920951889661
 20
1.945219170829713
 30
0.0
  0
VERTEX
  5
8B5
  8
LAYER_1
 10
4.677400086880972
 20
1.951862510860121
 30
0.0
  0
VERTEX
  5
8B6
  8
LAYER_1
 10
4.648276295069504
 20
1.959391629561251
 30
0.0
  0
VERTEX
  5
8B7
  8
LAYER_1
 10
4.619549576455255
 20
1.967806526933101
 30
0.0
  0
VERTEX
  5
8B8
  8
LAYER_1
 10
4.591219931038227
 20
1.977107202975673
 30
0.0
  0
VERTEX
  5
8B9
  8
LAYER_1
 10
4.563287358818418
 20
1.987293657688966
 30
0.0
  0
VERTEX
  5
8BA
  8
LAYER_1
 10
4.535751859795829
 20
1.99836589107298
 30
0.0
  0
VERTEX
  5
8BB
  8
LAYER_1
 10
4.508613433970459
 20
2.010323903127714
 30
0.0
  0
VERTEX
  5
8BC
  8
LAYER_1
 10
4.48187208134231
 20
2.023167693853171
 30
0.0
  0
VERTEX
  5
8BD
  8
LAYER_1
 10
4.45552780191138
 20
2.036897263249348
 30
0.0
  0
VERTEX
  5
8BE
  8
LAYER_1
 10
4.42958059567767
 20
2.051512611316246
 30
0.0
  0
VERTEX
  5
8BF
  8
LAYER_1
 10
4.40403046264118
 20
2.067013738053865
 30
0.0
  0
VERTEX
  5
8C0
  8
LAYER_1
 10
4.37887740280191
 20
2.083400643462206
 30
0.0
  0
VERTEX
  5
8C1
  8
LAYER_1
 10
4.35412141615986
 20
2.100673327541267
 30
0.0
  0
VERTEX
  5
8C2
  8
LAYER_1
 10
4.329762502715029
 20
2.118831790291051
 30
0.0
  0
VERTEX
  5
8C3
  8
LAYER_1
 10
4.305800662467418
 20
2.137876031711555
 30
0.0
  0
VERTEX
  5
8C4
  8
LAYER_1
 10
4.282235895417028
 20
2.15780605180278
 30
0.0
  0
VERTEX
  5
8C5
  8
LAYER_1
 10
4.259068201563856
 20
2.178621850564726
 30
0.0
  0
VERTEX
  5
8C6
  8
LAYER_1
 10
4.236297580907905
 20
2.200323427997393
 30
0.0
  0
VERTEX
  5
8C7
  8
LAYER_1
 10
4.213924033449174
 20
2.222910784100781
 30
0.0
  0
VERTEX
  5
8C8
  8
LAYER_1
 10
4.191947559187662
 20
2.246383918874891
 30
0.0
  0
VERTEX
  5
8C9
  8
LAYER_1
 10
4.17036815812337
 20
2.270742832319721
 30
0.0
  0
VERTEX
  5
8CA
  8
LAYER_1
 10
4.149185830256299
 20
2.295987524435273
 30
0.0
  0
VERTEX
  5
8CB
  8
LAYER_1
 10
4.128400575586446
 20
2.322117995221546
 30
0.0
  0
VERTEX
  5
8CC
  8
LAYER_1
 10
4.108012394113814
 20
2.34913424467854
 30
0.0
  0
VERTEX
  5
8CD
  8
LAYER_1
 10
4.0880212858384
 20
2.377036272806255
 30
0.0
  0
VERTEX
  5
8CE
  8
LAYER_1
 10
4.070341983533339
 20
2.402859393665833
 30
0.0
  0
VERTEX
  5
8CF
  8
LAYER_1
 10
4.053223928920502
 20
2.429014681526932
 30
0.0
  0
VERTEX
  5
8D0
  8
LAYER_1
 10
4.036667121999891
 20
2.455502136389552
 30
0.0
  0
VERTEX
  5
8D1
  8
LAYER_1
 10
4.020671562771502
 20
2.482321758253692
 30
0.0
  0
VERTEX
  5
8D2
  8
LAYER_1
 10
4.005237251235338
 20
2.509473547119352
 30
0.0
  0
VERTEX
  5
8D3
  8
LAYER_1
 10
3.990364187391397
 20
2.536957502986533
 30
0.0
  0
VERTEX
  5
8D4
  8
LAYER_1
 10
3.976052371239682
 20
2.564773625855234
 30
0.0
  0
VERTEX
  5
8D5
  8
LAYER_1
 10
3.96230180278019
 20
2.592921915725455
 30
0.0
  0
VERTEX
  5
8D6
  8
LAYER_1
 10
3.949112482012922
 20
2.621402372597198
 30
0.0
  0
VERTEX
  5
8D7
  8
LAYER_1
 10
3.936484408937879
 20
2.65021499647046
 30
0.0
  0
VERTEX
  5
8D8
  8
LAYER_1
 10
3.92441758355506
 20
2.679359787345243
 30
0.0
  0
VERTEX
  5
8D9
  8
LAYER_1
 10
3.912912005864465
 20
2.708836745221546
 30
0.0
  0
VERTEX
  5
8DA
  8
LAYER_1
 10
3.901967675866094
 20
2.73864587009937
 30
0.0
  0
VERTEX
  5
8DB
  8
LAYER_1
 10
3.891584593559947
 20
2.768787161978714
 30
0.0
  0
VERTEX
  5
8DC
  8
LAYER_1
 10
3.881762758946024
 20
2.799260620859578
 30
0.0
  0
VERTEX
  5
8DD
  8
LAYER_1
 10
3.872502172024325
 20
2.830066246741963
 30
0.0
  0
VERTEX
  5
8DE
  8
LAYER_1
 10
3.863802832794851
 20
2.861204039625869
 30
0.0
  0
VERTEX
  5
8DF
  8
LAYER_1
 10
3.855664741257601
 20
2.892673999511294
 30
0.0
  0
VERTEX
  5
8E0
  8
LAYER_1
 10
3.848087897412575
 20
2.92447612639824
 30
0.0
  0
VERTEX
  5
8E1
  8
LAYER_1
 10
3.841072301259773
 20
2.956610420286707
 30
0.0
  0
VERTEX
  5
8E2
  8
LAYER_1
 10
3.834617952799196
 20
2.989076881176694
 30
0.0
  0
VERTEX
  5
8E3
  8
LAYER_1
 10
3.828724852030842
 20
3.021875509068201
 30
0.0
  0
VERTEX
  5
8E4
  8
LAYER_1
 10
3.823392998954712
 20
3.055006303961229
 30
0.0
  0
VERTEX
  5
8E5
  8
LAYER_1
 10
3.818622393570807
 20
3.088469265855777
 30
0.0
  0
VERTEX
  5
8E6
  8
LAYER_1
 10
3.814413035879126
 20
3.122264394751846
 30
0.0
  0
VERTEX
  5
8E7
  8
LAYER_1
 10
3.810764925879669
 20
3.156391690649435
 30
0.0
  0
VERTEX
  5
8E8
  8
LAYER_1
 10
3.807678063572436
 20
3.190851153548545
 30
0.0
  0
VERTEX
  5
8E9
  8
LAYER_1
 10
3.805152448957427
 20
3.225642783449175
 30
0.0
  0
VERTEX
  5
8EA
  8
LAYER_1
 10
3.803188082034643
 20
3.260766580351325
 30
0.0
  0
VERTEX
  5
8EB
  8
LAYER_1
 10
3.801784962804082
 20
3.296222544254996
 30
0.0
  0
VERTEX
  5
8EC
  8
LAYER_1
 10
3.800943091265746
 20
3.332010675160187
 30
0.0
  0
SEQEND
  5
C74
  8
LAYER_1
  0
POLYLINE
  5
D2
  8
LAYER_1
 66
     1
 10
0.0
 20
0.0
 30
0.0
 70
     1
  0
VERTEX
  5
8ED
  8
LAYER_1
 10
4.121253258036488
 20
3.363213374239791
 30
0.0
  0
VERTEX
  5
8EE
  8
LAYER_1
 10
4.121481384224314
 20
3.330307096320582
 30
0.0
  0
VERTEX
  5
8EF
  8
LAYER_1
 10
4.122165762787792
 20
3.297865124395057
 30
0.0
  0
VERTEX
  5
8F0
  8
LAYER_1
 10
4.123306393726921
 20
3.265887458463216
 30
0.0
  0
VERTEX
  5
8F1
  8
LAYER_1
 10
4.124903277041701
 20
3.23437409852506
 30
0.0
  0
VERTEX
  5
8F2
  8
LAYER_1
 10
4.126956412732134
 20
3.203325044580587
 30
0.0
  0
VERTEX
  5
8F3
  8
LAYER_1
 10
4.129465800798217
 20
3.172740296629799
 30
0.0
  0
VERTEX
  5
8F4
  8
LAYER_1
 10
4.132431441239953
 20
3.142619854672694
 30
0.0
  0
VERTEX
  5
8F5
  8
LAYER_1
 10
4.13585333405734
 20
3.112963718709274
 30
0.0
  0
VERTEX
  5
8F6
  8
LAYER_1
 10
4.139731479250379
 20
3.083771888739538
 30
0.0
  0
VERTEX
  5
8F7
  8
LAYER_1
 10
4.144065876819068
 20
3.055044364763487
 30
0.0
  0
VERTEX
  5
8F8
  8
LAYER_1
 10
4.148856526763411
 20
3.026781146781119
 30
0.0
  0
VERTEX
  5
8F9
  8
LAYER_1
 10
4.154103429083404
 20
2.998982234792436
 30
0.0
  0
VERTEX
  5
8FA
  8
LAYER_1
 10
4.15980658377905
 20
2.971647628797436
 30
0.0
  0
VERTEX
  5
8FB
  8
LAYER_1
 10
4.165965990850346
 20
2.944777328796121
 30
0.0
  0
VERTEX
  5
8FC
  8
LAYER_1
 10
4.172581650297294
 20
2.91837133478849
 30
0.0
  0
VERTEX
  5
8FD
  8
LAYER_1
 10
4.179653562119894
 20
2.892429646774543
 30
0.0
  0
VERTEX
  5
8FE
  8
LAYER_1
 10
4.187181726318146
 20
2.866952264754281
 30
0.0
  0
VERTEX
  5
8FF
  8
LAYER_1
 10
4.195166142892049
 20
2.841939188727702
 30
0.0
  0
VERTEX
  5
900
  8
LAYER_1
 10
4.203606811841604
 20
2.817390418694808
 30
0.0
  0
VERTEX
  5
901
  8
LAYER_1
 10
4.21250373316681
 20
2.793305954655598
 30
0.0
  0
VERTEX
  5
902
  8
LAYER_1
 10
4.221856906867667
 20
2.769685796610072
 30
0.0
  0
VERTEX
  5
903
  8
LAYER_1
 10
4.231666332944177
 20
2.74652994455823
 30
0.0
  0
VERTEX
  5
904
  8
LAYER_1
 10
4.241932011396338
 20
2.723838398500072
 30
0.0
  0
VERTEX
  5
905
  8
LAYER_1
 10
4.252653942224152
 20
2.701611158435599
 30
0.0
  0
VERTEX
  5
906
  8
LAYER_1
 10
4.263832125427616
 20
2.679848224364809
 30
0.0
  0
VERTEX
  5
907
  8
LAYER_1
 10
4.275466561006732
 20
2.658549596287704
 30
0.0
  0
VERTEX
  5
908
  8
LAYER_1
 10
4.287557248961499
 20
2.637715274204283
 30
0.0
  0
VERTEX
  5
909
  8
LAYER_1
 10
4.300104189291918
 20
2.617345258114546
 30
0.0
  0
VERTEX
  5
90A
  8
LAYER_1
 10
4.313107381997989
 20
2.597439548018494
 30
0.0
  0
VERTEX
  5
90B
  8
LAYER_1
 10
4.326566827079711
 20
2.577998143916125
 30
0.0
  0
VERTEX
  5
90C
  8
LAYER_1
 10
4.340482524537085
 20
2.559021045807441
 30
0.0
  0
VERTEX
  5
90D
  8
LAYER_1
 10
4.354854474370112
 20
2.540508253692441
 30
0.0
  0
VERTEX
  5
90E
  8
LAYER_1
 10
4.369552864187391
 20
2.522513249560504
 30
0.0
  0
VERTEX
  5
90F
  8
LAYER_1
 10
4.384447881597523
 20
2.50508951540101
 30
0.0
  0
VERTEX
  5
910
  8
LAYER_1
 10
4.39953952660051
 20
2.488237051213957
 30
0.0
  0
VERTEX
  5
911
  8
LAYER_1
 10
4.41482779919635
 20
2.471955856999348
 30
0.0
  0
VERTEX
  5
912
  8
LAYER_1
 10
4.430312699385044
 20
2.45624593275718
 30
0.0
  0
VERTEX
  5
913
  8
LAYER_1
 10
4.445994227166593
 20
2.441107278487456
 30
0.0
  0
VERTEX
  5
914
  8
LAYER_1
 10
4.461872382540996
 20
2.426539894190173
 30
0.0
  0
VERTEX
  5
915
  8
LAYER_1
 10
4.477947165508253
 20
2.412543779865334
 30
0.0
  0
VERTEX
  5
916
  8
LAYER_1
 10
4.494218576068363
 20
2.399118935512937
 30
0.0
  0
VERTEX
  5
917
  8
LAYER_1
 10
4.510686614221328
 20
2.386265361132982
 30
0.0
  0
VERTEX
  5
918
  8
LAYER_1
 10
4.527351279967147
 20
2.373983056725469
 30
0.0
  0
VERTEX
  5
919
  8
LAYER_1
 10
4.54421257330582
 20
2.362272022290399
 30
0.0
  0
VERTEX
  5
91A
  8
LAYER_1
 10
4.561270494237347
 20
2.351132257827771
 30
0.0
  0
VERTEX
  5
91B
  8
LAYER_1
 10
4.578525042761727
 20
2.340563763337586
 30
0.0
  0
VERTEX
  5
91C
  8
LAYER_1
 10
4.595976218878963
 20
2.330566538819843
 30
0.0
  0
VERTEX
  5
91D
  8
LAYER_1
 10
4.613624022589052
 20
2.321140584274544
 30
0.0
  0
VERTEX
  5
91E
  8
LAYER_1
 10
4.631468453891995
 20
2.312285899701686
 30
0.0
  0
VERTEX
  5
91F
  8
LAYER_1
 10
4.649509512787792
 20
2.304002485101271
 30
0.0
  0
VERTEX
  5
920
  8
LAYER_1
 10
4.667747199276443
 20
2.296290340473297
 30
0.0
  0
VERTEX
  5
921
  8
LAYER_1
 10
4.686181513357949
 20
2.289149465817767
 30
0.0
  0
VERTEX
  5
922
  8
LAYER_1
 10
4.704812455032307
 20
2.282579861134679
 30
0.0
  0
VERTEX
  5
923
  8
LAYER_1
 10
4.723640024299521
 20
2.276581526424033
 30
0.0
  0
VERTEX
  5
924
  8
LAYER_1
 10
4.742664221159588
 20
2.27115446168583
 30
0.0
  0
VERTEX
  5
925
  8
LAYER_1
 10
4.761885045612511
 20
2.266298666920069
 30
0.0
  0
VERTEX
  5
926
  8
LAYER_1
 10
4.781302497658286
 20
2.262014142126751
 30
0.0
  0
VERTEX
  5
927
  8
LAYER_1
 10
4.800916577296915
 20
2.258300887305875
 30
0.0
  0
VERTEX
  5
928
  8
LAYER_1
 10
4.820727284528398
 20
2.255158902457441
 30
0.0
  0
VERTEX
  5
929
  8
LAYER_1
 10
4.840734619352736
 20
2.252588187581451
 30
0.0
  0
VERTEX
  5
92A
  8
LAYER_1
 10
4.860938581769927
 20
2.250588742677902
 30
0.0
  0
VERTEX
  5
92B
  8
LAYER_1
 10
4.881339171779972
 20
2.249160567746796
 30
0.0
  0
VERTEX
  5
92C
  8
LAYER_1
 10
4.901936389382872
 20
2.248303662788132
 30
0.0
  0
VERTEX
  5
92D
  8
LAYER_1
 10
4.922730234578626
 20
2.248018027801911
 30
0.0
  0
VERTEX
  5
92E
  8
LAYER_1
 10
4.944003240219103
 20
2.248306526296766
 30
0.0
  0
VERTEX
  5
92F
  8
LAYER_1
 10
4.965060528209166
 20
2.249172021781331
 30
0.0
  0
VERTEX
  5
930
  8
LAYER_1
 10
4.985902098548816
 20
2.250614514255606
 30
0.0
  0
VERTEX
  5
931
  8
LAYER_1
 10
5.006527951238053
 20
2.252634003719591
 30
0.0
  0
VERTEX
  5
932
  8
LAYER_1
 10
5.026938086276878
 20
2.255230490173286
 30
0.0
  0
VERTEX
  5
933
  8
LAYER_1
 10
5.04713250366529
 20
2.258403973616692
 30
0.0
  0
VERTEX
  5
934
  8
LAYER_1
 10
5.067111203403289
 20
2.262154454049807
 30
0.0
  0
VERTEX
  5
935
  8
LAYER_1
 10
5.086874185490876
 20
2.266481931472632
 30
0.0
  0
VERTEX
  5
936
  8
LAYER_1
 10
5.106421449928051
 20
2.271386405885167
 30
0.0
  0
VERTEX
  5
937
  8
LAYER_1
 10
5.125752996714812
 20
2.276867877287413
 30
0.0
  0
VERTEX
  5
938
  8
LAYER_1
 10
5.144868825851161
 20
2.282926345679368
 30
0.0
  0
VERTEX
  5
939
  8
LAYER_1
 10
5.163768937337097
 20
2.289561811061033
 30
0.0
  0
VERTEX
  5
93A
  8
LAYER_1
 10
5.182453331172622
 20
2.296774273432409
 30
0.0
  0
VERTEX
  5
93B
  8
LAYER_1
 10
5.200922007357732
 20
2.304563732793494
 30
0.0
  0
VERTEX
  5
93C
  8
LAYER_1
 10
5.21917496589243
 20
2.31293018914429
 30
0.0
  0
VERTEX
  5
93D
  8
LAYER_1
 10
5.237212206776714
 20
2.321873642484795
 30
0.0
  0
VERTEX
  5
93E
  8
LAYER_1
 10
5.255033730010588
 20
2.331394092815011
 30
0.0
  0
VERTEX
  5
93F
  8
LAYER_1
 10
5.272639535594047
 20
2.341491540134936
 30
0.0
  0
VERTEX
  5
940
  8
LAYER_1
 10
5.290029623527094
 20
2.352165984444572
 30
0.0
  0
VERTEX
  5
941
  8
LAYER_1
 10
5.307203993809729
 20
2.363417425743918
 30
0.0
  0
VERTEX
  5
942
  8
LAYER_1
 10
5.324162646441952
 20
2.375245864032974
 30
0.0
  0
VERTEX
  5
943
  8
LAYER_1
 10
5.34090558142376
 20
2.38765129931174
 30
0.0
  0
VERTEX
  5
944
  8
LAYER_1
 10
5.357432798755157
 20
2.400633731580216
 30
0.0
  0
VERTEX
  5
945
  8
LAYER_1
 10
5.37374429843614
 20
2.414193160838401
 30
0.0
  0
VERTEX
  5
946
  8
LAYER_1
 10
5.389840080466712
 20
2.428329587086297
 30
0.0
  0
VERTEX
  5
947
  8
LAYER_1
 10
5.405720144846871
 20
2.443043010323903
 30
0.0
  0
VERTEX
  5
948
  8
LAYER_1
 10
5.421384491576617
 20
2.458333430551219
 30
0.0
  0
VERTEX
  5
949
  8
LAYER_1
 10
5.43683312065595
 20
2.474200847768245
 30
0.0
  0
VERTEX
  5
94A
  8
LAYER_1
 10
5.452066032084871
 20
2.490645261974981
 30
0.0
  0
VERTEX
  5
94B
  8
LAYER_1
 10
5.467083225863379
 20
2.507666673171427
 30
0.0
  0
VERTEX
  5
94C
  8
LAYER_1
 10
5.481884701991475
 20
2.525265081357583
 30
0.0
  0
VERTEX
  5
94D
  8
LAYER_1
 10
5.496470460469156
 20
2.543440486533449
 30
0.0
  0
VERTEX
  5
94E
  8
LAYER_1
 10
5.510722142939562
 20
2.562175707647222
 30
0.0
  0
VERTEX
  5
94F
  8
LAYER_1
 10
5.524521391045828
 20
2.5814535636471
 30
0.0
  0
VERTEX
  5
950
  8
LAYER_1
 10
5.537868204787955
 20
2.601274054533082
 30
0.0
  0
VERTEX
  5
951
  8
LAYER_1
 10
5.550762584165941
 20
2.621637180305169
 30
0.0
  0
VERTEX
  5
952
  8
LAYER_1
 10
5.563204529179789
 20
2.64254294096336
 30
0.0
  0
VERTEX
  5
953
  8
LAYER_1
 10
5.575194039829495
 20
2.663991336507656
 30
0.0
  0
VERTEX
  5
954
  8
LAYER_1
 10
5.586731116115063
 20
2.685982366938056
 30
0.0
  0
VERTEX
  5
955
  8
LAYER_1
 10
5.597815758036489
 20
2.708516032254561
 30
0.0
  0
VERTEX
  5
956
  8
LAYER_1
 10
5.608447965593777
 20
2.731592332457169
 30
0.0
  0
VERTEX
  5
957
  8
LAYER_1
 10
5.618627738786923
 20
2.755211267545883
 30
0.0
  0
VERTEX
  5
958
  8
LAYER_1
 10
5.628355077615931
 20
2.779372837520701
 30
0.0
  0
VERTEX
  5
959
  8
LAYER_1
 10
5.637629982080798
 20
2.804077042381624
 30
0.0
  0
VERTEX
  5
95A
  8
LAYER_1
 10
5.646452452181526
 20
2.829323882128651
 30
0.0
  0
VERTEX
  5
95B
  8
LAYER_1
 10
5.654822487918113
 20
2.855113356761783
 30
0.0
  0
VERTEX
  5
95C
  8
LAYER_1
 10
5.662740089290562
 20
2.881445466281018
 30
0.0
  0
VERTEX
  5
95D
  8
LAYER_1
 10
5.670205256298869
 20
2.908320210686359
 30
0.0
  0
VERTEX
  5
95E
  8
LAYER_1
 10
5.677217988943038
 20
2.935737589977804
 30
0.0
  0
VERTEX
  5
95F
  8
LAYER_1
 10
5.683778287223066
 20
2.963697604155354
 30
0.0
  0
VERTEX
  5
960
  8
LAYER_1
 10
5.689886151138955
 20
2.992200253219008
 30
0.0
  0
VERTEX
  5
961
  8
LAYER_1
 10
5.695541580690703
 20
3.021245537168766
 30
0.0
  0
VERTEX
  5
962
  8
LAYER_1
 10
5.700744575878312
 20
3.050833456004629
 30
0.0
  0
VERTEX
  5
963
  8
LAYER_1
 10
5.705495136701781
 20
3.080964009726596
 30
0.0
  0
VERTEX
  5
964
  8
LAYER_1
 10
5.70979326316111
 20
3.111637198334668
 30
0.0
  0
VERTEX
  5
965
  8
LAYER_1
 10
5.713638955256299
 20
3.142853021828844
 30
0.0
  0
VERTEX
  5
966
  8
LAYER_1
 10
5.717032212987348
 20
3.174611480209125
 30
0.0
  0
VERTEX
  5
967
  8
LAYER_1
 10
5.719973036354257
 20
3.206912573475511
 30
0.0
  0
VERTEX
  5
968
  8
LAYER_1
 10
5.722461425357027
 20
3.239756301628
 30
0.0
  0
VERTEX
  5
969
  8
LAYER_1
 10
5.724497379995656
 20
3.273142664666594
 30
0.0
  0
VERTEX
  5
96A
  8
LAYER_1
 10
5.726080900270146
 20
3.307071662591293
 30
0.0
  0
VERTEX
  5
96B
  8
LAYER_1
 10
5.727211986180494
 20
3.341543295402096
 30
0.0
  0
VERTEX
  5
96C
  8
LAYER_1
 10
5.727890637726704
 20
3.376557563099003
 30
0.0
  0
VERTEX
  5
96D
  8
LAYER_1
 10
5.728116854908774
 20
3.412114465682015
 30
0.0
  0
VERTEX
  5
96E
  8
LAYER_1
 10
5.727651057504343
 20
3.458029633496348
 30
0.0
  0
VERTEX
  5
96F
  8
LAYER_1
 10
5.726253665291051
 20
3.503333442217365
 30
0.0
  0
VERTEX
  5
970
  8
LAYER_1
 10
5.723924678268896
 20
3.548025891845067
 30
0.0
  0
VERTEX
  5
971
  8
LAYER_1
 10
5.720664096437879
 20
3.592106982379453
 30
0.0
  0
VERTEX
  5
972
  8
LAYER_1
 10
5.716471919798002
 20
3.635576713820523
 30
0.0
  0
VERTEX
  5
973
  8
LAYER_1
 10
5.711348148349261
 20
3.678435086168277
 30
0.0
  0
VERTEX
  5
974
  8
LAYER_1
 10
5.705292782091659
 20
3.720682099422716
 30
0.0
  0
VERTEX
  5
975
  8
LAYER_1
 10
5.698305821025195
 20
3.76231775358384
 30
0.0
  0
VERTEX
  5
976
  8
LAYER_1
 10
5.690387265149869
 20
3.803342048651648
 30
0.0
  0
VERTEX
  5
977
  8
LAYER_1
 10
5.681537114465682
 20
3.84375498462614
 30
0.0
  0
VERTEX
  5
978
  8
LAYER_1
 10
5.671755368972632
 20
3.883556561507317
 30
0.0
  0
VERTEX
  5
979
  8
LAYER_1
 10
5.661042028670721
 20
3.922746779295178
 30
0.0
  0
VERTEX
  5
97A
  8
LAYER_1
 10
5.649397093559948
 20
3.961325637989723
 30
0.0
  0
VERTEX
  5
97B
  8
LAYER_1
 10
5.636820563640311
 20
3.999293137590953
 30
0.0
  0
VERTEX
  5
97C
  8
LAYER_1
 10
5.623312438911815
 20
4.036649278098867
 30
0.0
  0
VERTEX
  5
97D
  8
LAYER_1
 10
5.608872719374456
 20
4.073394059513466
 30
0.0
  0
VERTEX
  5
97E
  8
LAYER_1
 10
5.597025429653561
 20
4.100929140941045
 30
0.0
  0
VERTEX
  5
97F
  8
LAYER_1
 10
5.584452717745438
 20
4.127768509083473
 30
0.0
  0
VERTEX
  5
980
  8
LAYER_1
 10
5.571154583650086
 20
4.153912163940747
 30
0.0
  0
VERTEX
  5
981
  8
LAYER_1
 10
5.557131027367506
 20
4.179360105512869
 30
0.0
  0
VERTEX
  5
982
  8
LAYER_1
 10
5.542382048897696
 20
4.204112333799837
 30
0.0
  0
VERTEX
  5
983
  8
LAYER_1
 10
5.526907648240659
 20
4.228168848801653
 30
0.0
  0
VERTEX
  5
984
  8
LAYER_1
 10
5.510707825396394
 20
4.251529650518315
 30
0.0
  0
VERTEX
  5
985
  8
LAYER_1
 10
5.493782580364899
 20
4.274194738949825
 30
0.0
  0
VERTEX
  5
986
  8
LAYER_1
 10
5.476131913146176
 20
4.296164114096182
 30
0.0
  0
VERTEX
  5
987
  8
LAYER_1
 10
5.457755823740223
 20
4.317437775957387
 30
0.0
  0
VERTEX
  5
988
  8
LAYER_1
 10
5.438654312147044
 20
4.338015724533438
 30
0.0
  0
VERTEX
  5
989
  8
LAYER_1
 10
5.418827378366636
 20
4.357897959824337
 30
0.0
  0
VERTEX
  5
98A
  8
LAYER_1
 10
5.398275022399
 20
4.377084481830082
 30
0.0
  0
VERTEX
  5
98B
  8
LAYER_1
 10
5.376997244244134
 20
4.395575290550676
 30
0.0
  0
VERTEX
  5
98C
  8
LAYER_1
 10
5.354994043902041
 20
4.413370385986116
 30
0.0
  0
VERTEX
  5
98D
  8
LAYER_1
 10
5.332265421372718
 20
4.430469768136403
 30
0.0
  0
VERTEX
  5
98E
  8
LAYER_1
 10
5.30904045734687
 20
4.446697808471997
 30
0.0
  0
VERTEX
  5
98F
  8
LAYER_1
 10
5.285548232515202
 20
4.461878878463361
 30
0.0
  0
VERTEX
  5
990
  8
LAYER_1
 10
5.261788746877713
 20
4.476012978110491
 30
0.0
  0
VERTEX
  5
991
  8
LAYER_1
 10
5.237762000434403
 20
4.48910010741339
 30
0.0
  0
VERTEX
  5
992
  8
LAYER_1
 10
5.213467993185271
 20
4.501140266372056
 30
0.0
  0
VERTEX
  5
993
  8
LAYER_1
 10
5.18890672513032
 20
4.512133454986492
 30
0.0
  0
VERTEX
  5
994
  8
LAYER_1
 10
5.164078196269546
 20
4.522079673256695
 30
0.0
  0
VERTEX
  5
995
  8
LAYER_1
 10
5.138982406602953
 20
4.530978921182666
 30
0.0
  0
VERTEX
  5
996
  8
LAYER_1
 10
5.113619356130537
 20
4.538831198764405
 30
0.0
  0
VERTEX
  5
997
  8
LAYER_1
 10
5.087989044852302
 20
4.545636506001913
 30
0.0
  0
VERTEX
  5
998
  8
LAYER_1
 10
5.062091472768245
 20
4.551394842895188
 30
0.0
  0
VERTEX
  5
999
  8
LAYER_1
 10
5.035926639878366
 20
4.556106209444232
 30
0.0
  0
VERTEX
  5
99A
  8
LAYER_1
 10
5.009494546182667
 20
4.559770605649044
 30
0.0
  0
VERTEX
  5
99B
  8
LAYER_1
 10
4.982795191681146
 20
4.562388031509625
 30
0.0
  0
VERTEX
  5
99C
  8
LAYER_1
 10
4.955828576373804
 20
4.563958487025972
 30
0.0
  0
VERTEX
  5
99D
  8
LAYER_1
 10
4.928594700260642
 20
4.564481972198088
 30
0.0
  0
VERTEX
  5
99E
  8
LAYER_1
 10
4.906724175818582
 20
4.564195382708989
 30
0.0
  0
VERTEX
  5
99F
  8
LAYER_1
 10
4.885096095107516
 20
4.563335614241692
 30
0.0
  0
VERTEX
  5
9A0
  8
LAYER_1
 10
4.863710458127443
 20
4.561902666796195
 30
0.0
  0
VERTEX
  5
9A1
  8
LAYER_1
 10
4.842567264878366
 20
4.559896540372502
 30
0.0
  0
VERTEX
  5
9A2
  8
LAYER_1
 10
4.821666515360285
 20
4.557317234970609
 30
0.0
  0
VERTEX
  5
9A3
  8
LAYER_1
 10
4.801008209573197
 20
4.55416475059052
 30
0.0
  0
VERTEX
  5
9A4
  8
LAYER_1
 10
4.780592347517104
 20
4.550439087232229
 30
0.0
  0
VERTEX
  5
9A5
  8
LAYER_1
 10
4.760418929192006
 20
4.546140244895743
 30
0.0
  0
VERTEX
  5
9A6
  8
LAYER_1
 10
4.740487954597904
 20
4.541268223581057
 30
0.0
  0
VERTEX
  5
9A7
  8
LAYER_1
 10
4.720799423734796
 20
4.535823023288174
 30
0.0
  0
VERTEX
  5
9A8
  8
LAYER_1
 10
4.701353336602683
 20
4.529804644017091
 30
0.0
  0
VERTEX
  5
9A9
  8
LAYER_1
 10
4.682149693201564
 20
4.523213085767811
 30
0.0
  0
VERTEX
  5
9AA
  8
LAYER_1
 10
4.66318849353144
 20
4.516048348540332
 30
0.0
  0
VERTEX
  5
9AB
  8
LAYER_1
 10
4.644469737592312
 20
4.508310432334655
 30
0.0
  0
VERTEX
  5
9AC
  8
LAYER_1
 10
4.625993425384177
 20
4.499999337150779
 30
0.0
  0
VERTEX
  5
9AD
  8
LAYER_1
 10
4.607759556907037
 20
4.491115062988706
 30
0.0
  0
VERTEX
  5
9AE
  8
LAYER_1
 10
4.589768132160891
 20
4.481657609848433
 30
0.0
  0
VERTEX
  5
9AF
  8
LAYER_1
 10
4.572019151145742
 20
4.471626977729963
 30
0.0
  0
VERTEX
  5
9B0
  8
LAYER_1
 10
4.554512613861586
 20
4.461023166633294
 30
0.0
  0
VERTEX
  5
9B1
  8
LAYER_1
 10
4.537248520308427
 20
4.449846176558427
 30
0.0
  0
VERTEX
  5
9B2
  8
LAYER_1
 10
4.520226870486262
 20
4.438096007505361
 30
0.0
  0
VERTEX
  5
9B3
  8
LAYER_1
 10
4.503447664395091
 20
4.425772659474099
 30
0.0
  0
VERTEX
  5
9B4
  8
LAYER_1
 10
4.486910902034915
 20
4.412876132464636
 30
0.0
  0
VERTEX
  5
9B5
  8
LAYER_1
 10
4.470616583405733
 20
4.399406426476976
 30
0.0
  0
VERTEX
  5
9B6
  8
LAYER_1
 10
4.454564708507546
 20
4.385363541511117
 30
0.0
  0
VERTEX
  5
9B7
  8
LAYER_1
 10
4.438755277340356
 20
4.370747477567061
 30
0.0
  0
VERTEX
  5
9B8
  8
LAYER_1
 10
4.423188289904158
 20
4.355558234644805
 30
0.0
  0
VERTEX
  5
9B9
  8
LAYER_1
 10
4.407863746198956
 20
4.339795812744352
 30
0.0
  0
VERTEX
  5
9BA
  8
LAYER_1
 10
4.392781646224749
 20
4.3234602118657
 30
0.0
  0
VERTEX
  5
9BB
  8
LAYER_1
 10
4.377941989981537
 20
4.306551432008851
 30
0.0
  0
VERTEX
  5
9BC
  8
LAYER_1
 10
4.363344777469319
 20
4.289069473173802
 30
0.0
  0
VERTEX
  5
9BD
  8
LAYER_1
 10
4.348990008688096
 20
4.271014335360555
 30
0.0
  0
VERTEX
  5
9BE
  8
LAYER_1
 10
4.334978860942929
 20
4.252359262660313
 30
0.0
  0
VERTEX
  5
9BF
  8
LAYER_1
 10
4.321412511538878
 20
4.233077499164279
 30
0.0
  0
VERTEX
  5
9C0
  8
LAYER_1
 10
4.308290960475944
 20
4.213169044872453
 30
0.0
  0
VERTEX
  5
9C1
  8
LAYER_1
 10
4.295614207754126
 20
4.192633899784833
 30
0.0
  0
VERTEX
  5
9C2
  8
LAYER_1
 10
4.283382253373423
 20
4.171472063901422
 30
0.0
  0
VERTEX
  5
9C3
  8
LAYER_1
 10
4.271595097333839
 20
4.149683537222218
 30
0.0
  0
VERTEX
  5
9C4
  8
LAYER_1
 10
4.26025273963537
 20
4.127268319747222
 30
0.0
  0
VERTEX
  5
9C5
  8
LAYER_1
 10
4.249355180278018
 20
4.104226411476433
 30
0.0
  0
VERTEX
  5
9C6
  8
LAYER_1
 10
4.238902419261781
 20
4.080557812409852
 30
0.0
  0
VERTEX
  5
9C7
  8
LAYER_1
 10
4.228894456586662
 20
4.056262522547478
 30
0.0
  0
VERTEX
  5
9C8
  8
LAYER_1
 10
4.219331292252659
 20
4.031340541889313
 30
0.0
  0
VERTEX
  5
9C9
  8
LAYER_1
 10
4.210212926259773
 20
4.005791870435355
 30
0.0
  0
VERTEX
  5
9CA
  8
LAYER_1
 10
4.201539358608003
 20
3.979616508185605
 30
0.0
  0
VERTEX
  5
9CB
  8
LAYER_1
 10
4.19331058929735
 20
3.952814455140062
 30
0.0
  0
VERTEX
  5
9CC
  8
LAYER_1
 10
4.185526618327811
 20
3.925385711298726
 30
0.0
  0
VERTEX
  5
9CD
  8
LAYER_1
 10
4.178187445699391
 20
3.897330276661598
 30
0.0
  0
VERTEX
  5
9CE
  8
LAYER_1
 10
4.171293071412085
 20
3.868648151228678
 30
0.0
  0
VERTEX
  5
9CF
  8
LAYER_1
 10
4.164843495465897
 20
3.839339334999966
 30
0.0
  0
VERTEX
  5
9D0
  8
LAYER_1
 10
4.158838717860826
 20
3.809403827975461
 30
0.0
  0
VERTEX
  5
9D1
  8
LAYER_1
 10
4.153278738596871
 20
3.778841630155164
 30
0.0
  0
VERTEX
  5
9D2
  8
LAYER_1
 10
4.148163557674032
 20
3.747652741539074
 30
0.0
  0
VERTEX
  5
9D3
  8
LAYER_1
 10
4.14349317509231
 20
3.715837162127192
 30
0.0
  0
VERTEX
  5
9D4
  8
LAYER_1
 10
4.139267590851704
 20
3.683394891919518
 30
0.0
  0
VERTEX
  5
9D5
  8
LAYER_1
 10
4.135486804952214
 20
3.650325930916051
 30
0.0
  0
VERTEX
  5
9D6
  8
LAYER_1
 10
4.132150817393841
 20
3.616630279116792
 30
0.0
  0
VERTEX
  5
9D7
  8
LAYER_1
 10
4.129259628176584
 20
3.58230793652174
 30
0.0
  0
VERTEX
  5
9D8
  8
LAYER_1
 10
4.126813237300443
 20
3.547358903130896
 30
0.0
  0
VERTEX
  5
9D9
  8
LAYER_1
 10
4.12481164476542
 20
3.51178317894426
 30
0.0
  0
VERTEX
  5
9DA
  8
LAYER_1
 10
4.123254850571512
 20
3.475580763961831
 30
0.0
  0
VERTEX
  5
9DB
  8
LAYER_1
 10
4.122142854718721
 20
3.438751658183611
 30
0.0
  0
VERTEX
  5
9DC
  8
LAYER_1
 10
4.121475657207046
 20
3.401295861609597
 30
0.0
  0
SEQEND
  5
C75
  8
LAYER_1
  0
POLYLINE
  5
D3
  8
LAYER_1
 66
     1
 10
0.0
 20
0.0
 30
0.0
 70
     1
  0
VERTEX
  5
9DD
  8
LAYER_1
 10
7.045666811468289
 20
1.972388140747176
 30
0.0
  0
VERTEX
  5
9DE
  8
LAYER_1
 10
7.045666811468289
 20
4.499972849695916
 30
0.0
  0
VERTEX
  5
9DF
  8
LAYER_1
 10
6.271557341442225
 20
4.499972849695916
 30
0.0
  0
VERTEX
  5
9E0
  8
LAYER_1
 10
6.271557341442225
 20
4.838157037358818
 30
0.0
  0
VERTEX
  5
9E1
  8
LAYER_1
 10
8.134502606429193
 20
4.838157037358818
 30
0.0
  0
VERTEX
  5
9E2
  8
LAYER_1
 10
8.134502606429193
 20
4.499972849695916
 30
0.0
  0
VERTEX
  5
9E3
  8
LAYER_1
 10
7.356483492615118
 20
4.499972849695916
 30
0.0
  0
VERTEX
  5
9E4
  8
LAYER_1
 10
7.356483492615118
 20
1.972388140747176
 30
0.0
  0
SEQEND
  5
C76
  8
LAYER_1
  0
POLYLINE
  5
D4
  8
LAYER_1
 66
     1
 10
0.0
 20
0.0
 30
0.0
 70
     1
  0
VERTEX
  5
9E5
  8
LAYER_1
 10
9.051314074717638
 20
1.972388140747176
 30
0.0
  0
VERTEX
  5
9E6
  8
LAYER_1
 10
9.051314074717638
 20
4.499972849695916
 30
0.0
  0
VERTEX
  5
9E7
  8
LAYER_1
 10
8.277204604691573
 20
4.499972849695916
 30
0.0
  0
VERTEX
  5
9E8
  8
LAYER_1
 10
8.277204604691573
 20
4.838157037358818
 30
0.0
  0
VERTEX
  5
9E9
  8
LAYER_1
 10
10.14014986967854
 20
4.838157037358818
 30
0.0
  0
VERTEX
  5
9EA
  8
LAYER_1
 10
10.14014986967854
 20
4.499972849695916
 30
0.0
  0
VERTEX
  5
9EB
  8
LAYER_1
 10
9.362130755864467
 20
4.499972849695916
 30
0.0
  0
VERTEX
  5
9EC
  8
LAYER_1
 10
9.362130755864467
 20
1.972388140747176
 30
0.0
  0
SEQEND
  5
C77
  8
LAYER_1
  0
POLYLINE
  5
D5
  8
LAYER_1
 66
     1
 10
0.0
 20
0.0
 30
0.0
 70
     1
  0
VERTEX
  5
9ED
  8
LAYER_1
 10
10.310219374457
 20
3.368130973066898
 30
0.0
  0
VERTEX
  5
9EE
  8
LAYER_1
 10
10.31053436040671
 20
3.413615898709003
 30
0.0
  0
VERTEX
  5
9EF
  8
LAYER_1
 10
10.31147931825587
 20
3.458438399353823
 30
0.0
  0
VERTEX
  5
9F0
  8
LAYER_1
 10
10.31305424800446
 20
3.502598475001357
 30
0.0
  0
VERTEX
  5
9F1
  8
LAYER_1
 10
10.31525914965248
 20
3.546096125651607
 30
0.0
  0
VERTEX
  5
9F2
  8
LAYER_1
 10
10.31809402319994
 20
3.588931351304572
 30
0.0
  0
VERTEX
  5
9F3
  8
LAYER_1
 10
10.32155886864683
 20
3.631104151960252
 30
0.0
  0
VERTEX
  5
9F4
  8
LAYER_1
 10
10.32565368599316
 20
3.672614527618647
 30
0.0
  0
VERTEX
  5
9F5
  8
LAYER_1
 10
10.33037847523892
 20
3.713462478279757
 30
0.0
  0
VERTEX
  5
9F6
  8
LAYER_1
 10
10.33573323638412
 20
3.753648003943582
 30
0.0
  0
VERTEX
  5
9F7
  8
LAYER_1
 10
10.34171796942876
 20
3.793171104610122
 30
0.0
  0
VERTEX
  5
9F8
  8
LAYER_1
 10
10.34833267437283
 20
3.832031780279376
 30
0.0
  0
VERTEX
  5
9F9
  8
LAYER_1
 10
10.35557735121633
 20
3.870230030951347
 30
0.0
  0
VERTEX
  5
9FA
  8
LAYER_1
 10
10.36345199995928
 20
3.907765856626031
 30
0.0
  0
VERTEX
  5
9FB
  8
LAYER_1
 10
10.37195662060165
 20
3.944639257303431
 30
0.0
  0
VERTEX
  5
9FC
  8
LAYER_1
 10
10.38109121314346
 20
3.980850232983546
 30
0.0
  0
VERTEX
  5
9FD
  8
LAYER_1
 10
10.39085577758471
 20
4.016398783666377
 30
0.0
  0
VERTEX
  5
9FE
  8
LAYER_1
 10
10.40125031392539
 20
4.051284909351923
 30
0.0
  0
VERTEX
  5
9FF
  8
LAYER_1
 10
10.41227482216551
 20
4.085508610040183
 30
0.0
  0
VERTEX
  5
A00
  8
LAYER_1
 10
10.42392930230506
 20
4.119069885731157
 30
0.0
  0
VERTEX
  5
A01
  8
LAYER_1
 10
10.43621375434405
 20
4.151968736424847
 30
0.0
  0
VERTEX
  5
A02
  8
LAYER_1
 10
10.44912817828247
 20
4.184205162121253
 30
0.0
  0
VERTEX
  5
A03
  8
LAYER_1
 10
10.46267257412033
 20
4.215779162820374
 30
0.0
  0
VERTEX
  5
A04
  8
LAYER_1
 10
10.47684694185762
 20
4.246690738522208
 30
0.0
  0
VERTEX
  5
A05
  8
LAYER_1
 10
10.49165128149435
 20
4.276939889226758
 30
0.0
  0
VERTEX
  5
A06
  8
LAYER_1
 10
10.50708559303052
 20
4.306526614934024
 30
0.0
  0
VERTEX
  5
A07
  8
LAYER_1
 10
10.52314987646612
 20
4.335450915644005
 30
0.0
  0
VERTEX
  5
A08
  8
LAYER_1
 10
10.53984413180115
 20
4.363712791356701
 30
0.0
  0
VERTEX
  5
A09
  8
LAYER_1
 10
10.55716835903562
 20
4.391312242072111
 30
0.0
  0
VERTEX
  5
A0A
  8
LAYER_1
 10
10.57512255816953
 20
4.418249267790236
 30
0.0
  0
VERTEX
  5
A0B
  8
LAYER_1
 10
10.59370672920287
 20
4.444523868511077
 30
0.0
  0
VERTEX
  5
A0C
  8
LAYER_1
 10
10.61292087213564
 20
4.470136044234632
 30
0.0
  0
VERTEX
  5
A0D
  8
LAYER_1
 10
10.63276498696785
 20
4.495085794960903
 30
0.0
  0
VERTEX
  5
A0E
  8
LAYER_1
 10
10.65307871721601
 20
4.519319668528725
 30
0.0
  0
VERTEX
  5
A0F
  8
LAYER_1
 10
10.67370170639661
 20
4.542784212776933
 30
0.0
  0
VERTEX
  5
A10
  8
LAYER_1
 10
10.69463395450967
 20
4.565479427705528
 30
0.0
  0
VERTEX
  5
A11
  8
LAYER_1
 10
10.71587546155517
 20
4.587405313314509
 30
0.0
  0
VERTEX
  5
A12
  8
LAYER_1
 10
10.73742622753312
 20
4.608561869603877
 30
0.0
  0
VERTEX
  5
A13
  8
LAYER_1
 10
10.75928625244353
 20
4.628949096573631
 30
0.0
  0
VERTEX
  5
A14
  8
LAYER_1
 10
10.78145553628638
 20
4.648566994223772
 30
0.0
  0
VERTEX
  5
A15
  8
LAYER_1
 10
10.80393407906169
 20
4.6674155625543
 30
0.0
  0
VERTEX
  5
A16
  8
LAYER_1
 10
10.82672188076944
 20
4.685494801565214
 30
0.0
  0
VERTEX
  5
A17
  8
LAYER_1
 10
10.84981894140964
 20
4.702804711256515
 30
0.0
  0
VERTEX
  5
A18
  8
LAYER_1
 10
10.8732252609823
 20
4.719345291628203
 30
0.0
  0
VERTEX
  5
A19
  8
LAYER_1
 10
10.8969408394874
 20
4.735116542680277
 30
0.0
  0
VERTEX
  5
A1A
  8
LAYER_1
 10
10.92096567692496
 20
4.750118464412738
 30
0.0
  0
VERTEX
  5
A1B
  8
LAYER_1
 10
10.94529977329496
 20
4.764351056825586
 30
0.0
  0
VERTEX
  5
A1C
  8
LAYER_1
 10
10.96994312859741
 20
4.77781431991882
 30
0.0
  0
VERTEX
  5
A1D
  8
LAYER_1
 10
10.99489574283232
 20
4.79050825369244
 30
0.0
  0
VERTEX
  5
A1E
  8
LAYER_1
 10
11.02015761599967
 20
4.802432858146449
 30
0.0
  0
VERTEX
  5
A1F
  8
LAYER_1
 10
11.04572874809948
 20
4.813588133280843
 30
0.0
  0
VERTEX
  5
A20
  8
LAYER_1
 10
11.07160913913173
 20
4.823974079095623
 30
0.0
  0
VERTEX
  5
A21
  8
LAYER_1
 10
11.09779878909644
 20
4.83359069559079
 30
0.0
  0
VERTEX
  5
A22
  8
LAYER_1
 10
11.12429769799359
 20
4.842437982766344
 30
0.0
  0
VERTEX
  5
A23
  8
LAYER_1
 10
11.1511058658232
 20
4.850515940622285
 30
0.0
  0
VERTEX
  5
A24
  8
LAYER_1
 10
11.17822329258525
 20
4.857824569158612
 30
0.0
  0
VERTEX
  5
A25
  8
LAYER_1
 10
11.20564997827976
 20
4.864363868375325
 30
0.0
  0
VERTEX
  5
A26
  8
LAYER_1
 10
11.23338592290671
 20
4.870133838272426
 30
0.0
  0
VERTEX
  5
A27
  8
LAYER_1
 10
11.26143112646612
 20
4.875134478849913
 30
0.0
  0
VERTEX
  5
A28
  8
LAYER_1
 10
11.28978558895797
 20
4.879365790107786
 30
0.0
  0
VERTEX
  5
A29
  8
LAYER_1
 10
11.31844931038228
 20
4.882827772046046
 30
0.0
  0
VERTEX
  5
A2A
  8
LAYER_1
 10
11.34742229073903
 20
4.885520424664693
 30
0.0
  0
VERTEX
  5
A2B
  8
LAYER_1
 10
11.37670453002824
 20
4.887443747963727
 30
0.0
  0
VERTEX
  5
A2C
  8
LAYER_1
 10
11.40629602824989
 20
4.888597741943147
 30
0.0
  0
VERTEX
  5
A2D
  8
LAYER_1
 10
11.436196785404
 20
4.888982406602953
 30
0.0
  0
VERTEX
  5
A2E
  8
LAYER_1
 10
11.45556937581451
 20
4.888810596084926
 30
0.0
  0
VERTEX
  5
A2F
  8
LAYER_1
 10
11.4748350619027
 20
4.888295164530843
 30
0.0
  0
VERTEX
  5
A30
  8
LAYER_1
 10
11.49399384366855
 20
4.887436111940704
 30
0.0
  0
VERTEX
  5
A31
  8
LAYER_1
 10
11.51304572111208
 20
4.886233438314509
 30
0.0
  0
VERTEX
  5
A32
  8
LAYER_1
 10
11.53199069423328
 20
4.884687143652259
 30
0.0
  0
VERTEX
  5
A33
  8
LAYER_1
 10
11.55082876303215
 20
4.882797227953953
 30
0.0
  0
VERTEX
  5
A34
  8
LAYER_1
 10
11.56955992750869
 20
4.880563691219592
 30
0.0
  0
VERTEX
  5
A35
  8
LAYER_1
 10
11.5881841876629
 20
4.877986533449175
 30
0.0
  0
VERTEX
  5
A36
  8
LAYER_1
 10
11.60670154349479
 20
4.875065754642702
 30
0.0
  0
VERTEX
  5
A37
  8
LAYER_1
 10
11.62511199500435
 20
4.871801354800174
 30
0.0
  0
VERTEX
  5
A38
  8
LAYER_1
 10
11.64341554219158
 20
4.86819333392159
 30
0.0
  0
VERTEX
  5
A39
  8
LAYER_1
 10
11.66161218505647
 20
4.86424169200695
 30
0.0
  0
VERTEX
  5
A3A
  8
LAYER_1
 10
11.67970192359905
 20
4.859946429056255
 30
0.0
  0
VERTEX
  5
A3B
  8
LAYER_1
 10
11.69768475781929
 20
4.855307545069505
 30
0.0
  0
VERTEX
  5
A3C
  8
LAYER_1
 10
11.7155606877172
 20
4.850325040046699
 30
0.0
  0
VERTEX
  5
A3D
  8
LAYER_1
 10
11.73332971329279
 20
4.844998913987837
 30
0.0
  0
VERTEX
  5
A3E
  8
LAYER_1
 10
11.75099183454605
 20
4.83932916689292
 30
0.0
  0
VERTEX
  5
A3F
  8
LAYER_1
 10
11.76854705147698
 20
4.833315798761946
 30
0.0
  0
VERTEX
  5
A40
  8
LAYER_1
 10
11.78599536408558
 20
4.826958809594919
 30
0.0
  0
VERTEX
  5
A41
  8
LAYER_1
 10
11.80333677237185
 20
4.820258199391834
 30
0.0
  0
VERTEX
  5
A42
  8
LAYER_1
 10
11.8205712763358
 20
4.813213968152694
 30
0.0
  0
VERTEX
  5
A43
  8
LAYER_1
 10
11.83769887597741
 20
4.805826115877498
 30
0.0
  0
VERTEX
  5
A44
  8
LAYER_1
 10
11.8547195712967
 20
4.798094642566247
 30
0.0
  0
VERTEX
  5
A45
  8
LAYER_1
 10
11.87163336229366
 20
4.79001954821894
 30
0.0
  0
VERTEX
  5
A46
  8
LAYER_1
 10
11.88844024896829
 20
4.781600832835578
 30
0.0
  0
VERTEX
  5
A47
  8
LAYER_1
 10
11.90514023132059
 20
4.77283849641616
 30
0.0
  0
VERTEX
  5
A48
  8
LAYER_1
 10
11.92173330935056
 20
4.763732538960687
 30
0.0
  0
VERTEX
  5
A49
  8
LAYER_1
 10
11.93821948305821
 20
4.754282960469157
 30
0.0
  0
VERTEX
  5
A4A
  8
LAYER_1
 10
11.95459875244353
 20
4.744489760941573
 30
0.0
  0
VERTEX
  5
A4B
  8
LAYER_1
 10
11.97087111750652
 20
4.734352940377932
 30
0.0
  0
VERTEX
  5
A4C
  8
LAYER_1
 10
11.98703657824718
 20
4.723872498778237
 30
0.0
  0
VERTEX
  5
A4D
  8
LAYER_1
 10
12.00309513466551
 20
4.713048436142484
 30
0.0
  0
VERTEX
  5
A4E
  8
LAYER_1
 10
12.01899619810898
 20
4.701896979019602
 30
0.0
  0
VERTEX
  5
A4F
  8
LAYER_1
 10
12.03468917992507
 20
4.690434353958514
 30
0.0
  0
VERTEX
  5
A50
  8
LAYER_1
 10
12.05017408011376
 20
4.678660560959219
 30
0.0
  0
VERTEX
  5
A51
  8
LAYER_1
 10
12.06545089867507
 20
4.666575600021719
 30
0.0
  0
VERTEX
  5
A52
  8
LAYER_1
 10
12.08051963560898
 20
4.654179471146014
 30
0.0
  0
VERTEX
  5
A53
  8
LAYER_1
 10
12.09538029091551
 20
4.641472174332102
 30
0.0
  0
VERTEX
  5
A54
  8
LAYER_1
 10
12.11003286459465
 20
4.628453709579984
 30
0.0
  0
VERTEX
  5
A55
  8
LAYER_1
 10
12.12447735664639
 20
4.615124076889661
 30
0.0
  0
VERTEX
  5
A56
  8
LAYER_1
 10
12.13871376707075
 20
4.60148327626113
 30
0.0
  0
VERTEX
  5
A57
  8
LAYER_1
 10
12.15274209586772
 20
4.587531307694395
 30
0.0
  0
VERTEX
  5
A58
  8
LAYER_1
 10
12.1665623430373
 20
4.573268171189453
 30
0.0
  0
VERTEX
  5
A59
  8
LAYER_1
 10
12.1801745085795
 20
4.558693866746307
 30
0.0
  0
VERTEX
  5
A5A
  8
LAYER_1
 10
12.1935785924943
 20
4.543808394364953
 30
0.0
  0
VERTEX
  5
A5B
  8
LAYER_1
 10
12.20677459478171
 20
4.528611754045395
 30
0.0
  0
VERTEX
  5
A5C
  8
LAYER_1
 10
12.21976251544174
 20
4.51310394578763
 30
0.0
  0
VERTEX
  5
A5D
  8
LAYER_1
 10
12.23254235447437
 20
4.497284969591659
 30
0.0
  0
VERTEX
  5
A5E
  8
LAYER_1
 10
12.24511411187962
 20
4.481154825457482
 30
0.0
  0
VERTEX
  5
A5F
  8
LAYER_1
 10
12.25747778765747
 20
4.464713513385099
 30
0.0
  0
VERTEX
  5
A60
  8
LAYER_1
 10
12.26963338180794
 20
4.447961033374511
 30
0.0
  0
VERTEX
  5
A61
  8
LAYER_1
 10
12.28158089433102
 20
4.430897385425716
 30
0.0
  0
VERTEX
  5
A62
  8
LAYER_1
 10
12.29332032522671
 20
4.413522569538716
 30
0.0
  0
VERTEX
  5
A63
  8
LAYER_1
 10
12.304851674495
 20
4.395836585713511
 30
0.0
  0
VERTEX
  5
A64
  8
LAYER_1
 10
12.31617494213592
 20
4.377839433950098
 30
0.0
  0
VERTEX
  5
A65
  8
LAYER_1
 10
12.32729012814944
 20
4.35953111424848
 30
0.0
  0
VERTEX
  5
A66
  8
LAYER_1
 10
12.33819723253557
 20
4.340911626608656
 30
0.0
  0
VERTEX
  5
A67
  8
LAYER_1
 10
12.34889625529431
 20
4.321980971030626
 30
0.0
  0
VERTEX
  5
A68
  8
LAYER_1
 10
12.35938719642566
 20
4.302739147514389
 30
0.0
  0
VERTEX
  5
A69
  8
LAYER_1
 10
12.36967005592963
 20
4.283186156059947
 30
0.0
  0
VERTEX
  5
A6A
  8
LAYER_1
 10
12.3797448338062
 20
4.263321996667299
 30
0.0
  0
VERTEX
  5
A6B
  8
LAYER_1
 10
12.38961153005539
 20
4.243146669336445
 30
0.0
  0
VERTEX
  5
A6C
  8
LAYER_1
 10
12.39927014467719
 20
4.222660174067386
 30
0.0
  0
VERTEX
  5
A6D
  8
LAYER_1
 10
12.40872067767159
 20
4.201862510860121
 30
0.0
  0
VERTEX
  5
A6E
  8
LAYER_1
 10
12.41792113091198
 20
4.180784223806743
 30
0.0
  0
VERTEX
  5
A6F
  8
LAYER_1
 10
12.42682950627172
 20
4.159455856999347
 30
0.0
  0
VERTEX
  5
A70
  8
LAYER_1
 10
12.43544580375081
 20
4.137877410437934
 30
0.0
  0
VERTEX
  5
A71
  8
LAYER_1
 10
12.44377002334926
 20
4.116048884122501
 30
0.0
  0
VERTEX
  5
A72
  8
LAYER_1
 10
12.45180216506706
 20
4.093970278053051
 30
0.0
  0
VERTEX
  5
A73
  8
LAYER_1
 10
12.45954222890421
 20
4.071641592229582
 30
0.0
  0
VERTEX
  5
A74
  8
LAYER_1
 10
12.46699021486072
 20
4.049062826652095
 30
0.0
  0
VERTEX
  5
A75
  8
LAYER_1
 10
12.47414612293658
 20
4.026233981320591
 30
0.0
  0
VERTEX
  5
A76
  8
LAYER_1
 10
12.48100995313179
 20
4.003155056235068
 30
0.0
  0
VERTEX
  5
A77
  8
LAYER_1
 10
12.48758170544635
 20
3.979826051395525
 30
0.0
  0
VERTEX
  5
A78
  8
LAYER_1
 10
12.49386137988027
 20
3.956246966801965
 30
0.0
  0
VERTEX
  5
A79
  8
LAYER_1
 10
12.49984897643354
 20
3.932417802454387
 30
0.0
  0
VERTEX
  5
A7A
  8
LAYER_1
 10
12.50554449510616
 20
3.90833855835279
 30
0.0
  0
VERTEX
  5
A7B
  8
LAYER_1
 10
12.51094793589813
 20
3.884009234497176
 30
0.0
  0
VERTEX
  5
A7C
  8
LAYER_1
 10
12.51605929880946
 20
3.859429830887543
 30
0.0
  0
VERTEX
  5
A7D
  8
LAYER_1
 10
12.52087858384014
 20
3.834600347523892
 30
0.0
  0
VERTEX
  5
A7E
  8
LAYER_1
 10
12.52540579099017
 20
3.809520784406223
 30
0.0
  0
VERTEX
  5
A7F
  8
LAYER_1
 10
12.52964092025956
 20
3.784191141534535
 30
0.0
  0
VERTEX
  5
A80
  8
LAYER_1
 10
12.53358397164829
 20
3.758611418908829
 30
0.0
  0
VERTEX
  5
A81
  8
LAYER_1
 10
12.53723494515638
 20
3.732781616529105
 30
0.0
  0
VERTEX
  5
A82
  8
LAYER_1
 10
12.54059384078383
 20
3.706701734395362
 30
0.0
  0
VERTEX
  5
A83
  8
LAYER_1
 10
12.54366065853062
 20
3.680371772507602
 30
0.0
  0
VERTEX
  5
A84
  8
LAYER_1
 10
12.54643539839677
 20
3.653791730865823
 30
0.0
  0
VERTEX
  5
A85
  8
LAYER_1
 10
12.54891806038228
 20
3.626961609470026
 30
0.0
  0
VERTEX
  5
A86
  8
LAYER_1
 10
12.55110864448713
 20
3.59988140832021
 30
0.0
  0
VERTEX
  5
A87
  8
LAYER_1
 10
12.55300715071134
 20
3.572551127416377
 30
0.0
  0
VERTEX
  5
A88
  8
LAYER_1
 10
12.5546135790549
 20
3.544970766758525
 30
0.0
  0
VERTEX
  5
A89
  8
LAYER_1
 10
12.55592792951781
 20
3.517140326346655
 30
0.0
  0
VERTEX
  5
A8A
  8
LAYER_1
 10
12.55768039680169
 20
3.46072920626086
 30
0.0
  0
VERTEX
  5
A8B
  8
LAYER_1
 10
12.55826455256299
 20
3.403317767158992
 30
0.0
  0
VERTEX
  5
A8C
  8
LAYER_1
 10
12.55798201971112
 20
3.363719260765095
 30
0.0
  0
VERTEX
  5
A8D
  8
LAYER_1
 10
12.55713442115552
 20
3.324582733764118
 30
0.0
  0
VERTEX
  5
A8E
  8
LAYER_1
 10
12.55572175689618
 20
3.28590818615606
 30
0.0
  0
VERTEX
  5
A8F
  8
LAYER_1
 10
12.5537440269331
 20
3.247695617940921
 30
0.0
  0
VERTEX
  5
A90
  8
LAYER_1
 10
12.55120123126629
 20
3.209945029118701
 30
0.0
  0
VERTEX
  5
A91
  8
LAYER_1
 10
12.54809336989574
 20
3.1726564196894
 30
0.0
  0
VERTEX
  5
A92
  8
LAYER_1
 10
12.54442044282146
 20
3.135829789653019
 30
0.0
  0
VERTEX
  5
A93
  8
LAYER_1
 10
12.54018245004344
 20
3.099465139009557
 30
0.0
  0
VERTEX
  5
A94
  8
LAYER_1
 10
12.53537939156169
 20
3.063562467759013
 30
0.0
  0
VERTEX
  5
A95
  8
LAYER_1
 10
12.5300112673762
 20
3.02812177590139
 30
0.0
  0
VERTEX
  5
A96
  8
LAYER_1
 10
12.52407807748697
 20
2.993143063436686
 30
0.0
  0
VERTEX
  5
A97
  8
LAYER_1
 10
12.51757982189401
 20
2.9586263303649
 30
0.0
  0
VERTEX
  5
A98
  8
LAYER_1
 10
12.51051650059731
 20
2.924571576686034
 30
0.0
  0
VERTEX
  5
A99
  8
LAYER_1
 10
12.50288811359687
 20
2.890978802400087
 30
0.0
  0
VERTEX
  5
A9A
  8
LAYER_1
 10
12.4946946608927
 20
2.857848007507059
 30
0.0
  0
VERTEX
  5
A9B
  8
LAYER_1
 10
12.4859361424848
 20
2.82517919200695
 30
0.0
  0
VERTEX
  5
A9C
  8
LAYER_1
 10
12.47661255837316
 20
2.792972355899761
 30
0.0
  0
VERTEX
  5
A9D
  8
LAYER_1
 10
12.46672390855778
 20
2.761227499185491
 30
0.0
  0
VERTEX
  5
A9E
  8
LAYER_1
 10
12.45627019303866
 20
2.729944621864139
 30
0.0
  0
VERTEX
  5
A9F
  8
LAYER_1
 10
12.44525141181581
 20
2.699123723935708
 30
0.0
  0
VERTEX
  5
AA0
  8
LAYER_1
 10
12.43366756488923
 20
2.668764805400195
 30
0.0
  0
VERTEX
  5
AA1
  8
LAYER_1
 10
12.42151865225891
 20
2.638867866257602
 30
0.0
  0
VERTEX
  5
AA2
  8
LAYER_1
 10
12.40880467392485
 20
2.609432906507927
 30
0.0
  0
VERTEX
  5
AA3
  8
LAYER_1
 10
12.39552562988706
 20
2.580459926151172
 30
0.0
  0
VERTEX
  5
AA4
  8
LAYER_1
 10
12.38168152014553
 20
2.551948925187337
 30
0.0
  0
VERTEX
  5
AA5
  8
LAYER_1
 10
12.36727234470026
 20
2.52389990361642
 30
0.0
  0
VERTEX
  5
AA6
  8
LAYER_1
 10
12.35229810355126
 20
2.496312861438423
 30
0.0
  0
VERTEX
  5
AA7
  8
LAYER_1
 10
12.33675879669853
 20
2.469187798653345
 30
0.0
  0
VERTEX
  5
AA8
  8
LAYER_1
 10
12.32065442414205
 20
2.442524715261186
 30
0.0
  0
VERTEX
  5
AA9
  8
LAYER_1
 10
12.30398498588184
 20
2.416323611261946
 30
0.0
  0
VERTEX
  5
AAA
  8
LAYER_1
 10
12.2867504819179
 20
2.390584486655626
 30
0.0
  0
VERTEX
  5
AAB
  8
LAYER_1
 10
12.26895091225022
 20
2.365307341442224
 30
0.0
  0
VERTEX
  5
AAC
  8
LAYER_1
 10
12.2488433546237
 20
2.338126917490225
 30
0.0
  0
VERTEX
  5
AAD
  8
LAYER_1
 10
12.22835017783449
 20
2.311809364139878
 30
0.0
  0
VERTEX
  5
AAE
  8
LAYER_1
 10
12.2074713818826
 20
2.286354681391181
 30
0.0
  0
VERTEX
  5
AAF
  8
LAYER_1
 10
12.18620696676803
 20
2.261762869244135
 30
0.0
  0
VERTEX
  5
AB0
  8
LAYER_1
 10
12.16455693249077
 20
2.23803392769874
 30
0.0
  0
VERTEX
  5
AB1
  8
LAYER_1
 10
12.14252127905083
 20
2.215167856754996
 30
0.0
  0
VERTEX
  5
AB2
  8
LAYER_1
 10
12.1201000064482
 20
2.193164656412902
 30
0.0
  0
VERTEX
  5
AB3
  8
LAYER_1
 10
12.09729311468288
 20
2.172024326672458
 30
0.0
  0
VERTEX
  5
AB4
  8
LAYER_1
 10
12.07410060375489
 20
2.151746867533666
 30
0.0
  0
VERTEX
  5
AB5
  8
LAYER_1
 10
12.05052247366421
 20
2.132332278996524
 30
0.0
  0
VERTEX
  5
AB6
  8
LAYER_1
 10
12.02655872441084
 20
2.113780561061033
 30
0.0
  0
VERTEX
  5
AB7
  8
LAYER_1
 10
12.00220935599479
 20
2.096091713727193
 30
0.0
  0
VERTEX
  5
AB8
  8
LAYER_1
 10
11.97747436841605
 20
2.079265736995004
 30
0.0
  0
VERTEX
  5
AB9
  8
LAYER_1
 10
11.95235376167463
 20
2.063302630864465
 30
0.0
  0
VERTEX
  5
ABA
  8
LAYER_1
 10
11.92684753577053
 20
2.048202395335577
 30
0.0
  0
VERTEX
  5
ABB
  8
LAYER_1
 10
11.90095569070374
 20
2.03396503040834
 30
0.0
  0
VERTEX
  5
ABC
  8
LAYER_1
 10
11.87467822647426
 20
2.020590536082754
 30
0.0
  0
VERTEX
  5
ABD
  8
LAYER_1
 10
11.8480151430821
 20
2.008078912358818
 30
0.0
  0
VERTEX
  5
ABE
  8
LAYER_1
 10
11.82096644052726
 20
1.996430159236533
 30
0.0
  0
VERTEX
  5
ABF
  8
LAYER_1
 10
11.79353211880973
 20
1.985644276715899
 30
0.0
  0
VERTEX
  5
AC0
  8
LAYER_1
 10
11.76571217792952
 20
1.975721264796915
 30
0.0
  0
VERTEX
  5
AC1
  8
LAYER_1
 10
11.73750661788662
 20
1.966661123479583
 30
0.0
  0
VERTEX
  5
AC2
  8
LAYER_1
 10
11.70891543868104
 20
1.9584638527639
 30
0.0
  0
VERTEX
  5
AC3
  8
LAYER_1
 10
11.67993864031277
 20
1.951129452649869
 30
0.0
  0
VERTEX
  5
AC4
  8
LAYER_1
 10
11.65057622278182
 20
1.944657923137489
 30
0.0
  0
VERTEX
  5
AC5
  8
LAYER_1
 10
11.62082818608818
 20
1.939049264226759
 30
0.0
  0
VERTEX
  5
AC6
  8
LAYER_1
 10
11.59069453023186
 20
1.93430347591768
 30
0.0
  0
VERTEX
  5
AC7
  8
LAYER_1
 10
11.56017525521286
 20
1.930420558210251
 30
0.0
  0
VERTEX
  5
AC8
  8
LAYER_1
 10
11.52927036103117
 20
1.927400511104474
 30
0.0
  0
VERTEX
  5
AC9
  8
LAYER_1
 10
11.49797984768679
 20
1.925243334600347
 30
0.0
  0
VERTEX
  5
ACA
  8
LAYER_1
 10
11.46630371517974
 20
1.923949028697871
 30
0.0
  0
VERTEX
  5
ACB
  8
LAYER_1
 10
11.43424196350999
 20
1.923517593397046
 30
0.0
  0
VERTEX
  5
ACC
  8
LAYER_1
 10
11.40194158612077
 20
1.923960482732406
 30
0.0
  0
VERTEX
  5
ACD
  8
LAYER_1
 10
11.37003828192876
 20
1.925289150738488
 30
0.0
  0
VERTEX
  5
ACE
  8
LAYER_1
 10
11.33853205093397
 20
1.927503597415291
 30
0.0
  0
VERTEX
  5
ACF
  8
LAYER_1
 10
11.3074228931364
 20
1.930603822762815
 30
0.0
  0
VERTEX
  5
AD0
  8
LAYER_1
 10
11.27671080853606
 20
1.93458982678106
 30
0.0
  0
VERTEX
  5
AD1
  8
LAYER_1
 10
11.24639579713293
 20
1.939461609470026
 30
0.0
  0
VERTEX
  5
AD2
  8
LAYER_1
 10
11.21647785892702
 20
1.945219170829713
 30
0.0
  0
VERTEX
  5
AD3
  8
LAYER_1
 10
11.18695699391833
 20
1.951862510860121
 30
0.0
  0
VERTEX
  5
AD4
  8
LAYER_1
 10
11.15783320210686
 20
1.959391629561251
 30
0.0
  0
VERTEX
  5
AD5
  8
LAYER_1
 10
11.12910648349261
 20
1.967806526933101
 30
0.0
  0
VERTEX
  5
AD6
  8
LAYER_1
 10
11.10077683807559
 20
1.977107202975673
 30
0.0
  0
VERTEX
  5
AD7
  8
LAYER_1
 10
11.07284426585578
 20
1.987293657688966
 30
0.0
  0
VERTEX
  5
AD8
  8
LAYER_1
 10
11.04530876683319
 20
1.99836589107298
 30
0.0
  0
VERTEX
  5
AD9
  8
LAYER_1
 10
11.01817034100782
 20
2.010323903127714
 30
0.0
  0
VERTEX
  5
ADA
  8
LAYER_1
 10
10.99142898837967
 20
2.023167693853171
 30
0.0
  0
VERTEX
  5
ADB
  8
LAYER_1
 10
10.96508470894874
 20
2.036897263249348
 30
0.0
  0
VERTEX
  5
ADC
  8
LAYER_1
 10
10.93913750271503
 20
2.051512611316246
 30
0.0
  0
VERTEX
  5
ADD
  8
LAYER_1
 10
10.91358736967854
 20
2.067013738053865
 30
0.0
  0
VERTEX
  5
ADE
  8
LAYER_1
 10
10.88843430983927
 20
2.083400643462206
 30
0.0
  0
VERTEX
  5
ADF
  8
LAYER_1
 10
10.86367832319722
 20
2.100673327541267
 30
0.0
  0
VERTEX
  5
AE0
  8
LAYER_1
 10
10.83931940975239
 20
2.118831790291051
 30
0.0
  0
VERTEX
  5
AE1
  8
LAYER_1
 10
10.81535756950478
 20
2.137876031711555
 30
0.0
  0
VERTEX
  5
AE2
  8
LAYER_1
 10
10.79179280245439
 20
2.15780605180278
 30
0.0
  0
VERTEX
  5
AE3
  8
LAYER_1
 10
10.76862510860122
 20
2.178621850564726
 30
0.0
  0
VERTEX
  5
AE4
  8
LAYER_1
 10
10.74585448794526
 20
2.200323427997393
 30
0.0
  0
VERTEX
  5
AE5
  8
LAYER_1
 10
10.72348094048653
 20
2.222910784100781
 30
0.0
  0
VERTEX
  5
AE6
  8
LAYER_1
 10
10.70150446622502
 20
2.246383918874891
 30
0.0
  0
VERTEX
  5
AE7
  8
LAYER_1
 10
10.67992506516073
 20
2.270742832319721
 30
0.0
  0
VERTEX
  5
AE8
  8
LAYER_1
 10
10.65874273729366
 20
2.295987524435273
 30
0.0
  0
VERTEX
  5
AE9
  8
LAYER_1
 10
10.63795748262381
 20
2.322117995221546
 30
0.0
  0
VERTEX
  5
AEA
  8
LAYER_1
 10
10.61756930115117
 20
2.34913424467854
 30
0.0
  0
VERTEX
  5
AEB
  8
LAYER_1
 10
10.59757819287576
 20
2.377036272806255
 30
0.0
  0
VERTEX
  5
AEC
  8
LAYER_1
 10
10.5798988905707
 20
2.402859393665833
 30
0.0
  0
VERTEX
  5
AED
  8
LAYER_1
 10
10.56278083595786
 20
2.429014681526932
 30
0.0
  0
VERTEX
  5
AEE
  8
LAYER_1
 10
10.54622402903725
 20
2.455502136389552
 30
0.0
  0
VERTEX
  5
AEF
  8
LAYER_1
 10
10.53022846980886
 20
2.482321758253692
 30
0.0
  0
VERTEX
  5
AF0
  8
LAYER_1
 10
10.5147941582727
 20
2.509473547119352
 30
0.0
  0
VERTEX
  5
AF1
  8
LAYER_1
 10
10.49992109442876
 20
2.536957502986533
 30
0.0
  0
VERTEX
  5
AF2
  8
LAYER_1
 10
10.48560927827704
 20
2.564773625855234
 30
0.0
  0
VERTEX
  5
AF3
  8
LAYER_1
 10
10.47185870981755
 20
2.592921915725455
 30
0.0
  0
VERTEX
  5
AF4
  8
LAYER_1
 10
10.45866938905028
 20
2.621402372597198
 30
0.0
  0
VERTEX
  5
AF5
  8
LAYER_1
 10
10.44604131597524
 20
2.65021499647046
 30
0.0
  0
VERTEX
  5
AF6
  8
LAYER_1
 10
10.43397449059242
 20
2.679359787345243
 30
0.0
  0
VERTEX
  5
AF7
  8
LAYER_1
 10
10.42246891290182
 20
2.708836745221546
 30
0.0
  0
VERTEX
  5
AF8
  8
LAYER_1
 10
10.41152458290345
 20
2.73864587009937
 30
0.0
  0
VERTEX
  5
AF9
  8
LAYER_1
 10
10.40114150059731
 20
2.768787161978714
 30
0.0
  0
VERTEX
  5
AFA
  8
LAYER_1
 10
10.39131966598338
 20
2.799260620859578
 30
0.0
  0
VERTEX
  5
AFB
  8
LAYER_1
 10
10.38205907906169
 20
2.830066246741963
 30
0.0
  0
VERTEX
  5
AFC
  8
LAYER_1
 10
10.37335973983221
 20
2.861204039625869
 30
0.0
  0
VERTEX
  5
AFD
  8
LAYER_1
 10
10.36522164829496
 20
2.892673999511294
 30
0.0
  0
VERTEX
  5
AFE
  8
LAYER_1
 10
10.35764480444994
 20
2.92447612639824
 30
0.0
  0
VERTEX
  5
AFF
  8
LAYER_1
 10
10.35062920829713
 20
2.956610420286707
 30
0.0
  0
VERTEX
  5
B00
  8
LAYER_1
 10
10.34417485983656
 20
2.989076881176694
 30
0.0
  0
VERTEX
  5
B01
  8
LAYER_1
 10
10.3382817590682
 20
3.021875509068201
 30
0.0
  0
VERTEX
  5
B02
  8
LAYER_1
 10
10.33294990599207
 20
3.055006303961229
 30
0.0
  0
VERTEX
  5
B03
  8
LAYER_1
 10
10.32817930060817
 20
3.088469265855777
 30
0.0
  0
VERTEX
  5
B04
  8
LAYER_1
 10
10.32396994291649
 20
3.122264394751846
 30
0.0
  0
VERTEX
  5
B05
  8
LAYER_1
 10
10.32032183291703
 20
3.156391690649435
 30
0.0
  0
VERTEX
  5
B06
  8
LAYER_1
 10
10.3172349706098
 20
3.190851153548545
 30
0.0
  0
VERTEX
  5
B07
  8
LAYER_1
 10
10.31470935599479
 20
3.225642783449175
 30
0.0
  0
VERTEX
  5
B08
  8
LAYER_1
 10
10.312744989072
 20
3.260766580351325
 30
0.0
  0
VERTEX
  5
B09
  8
LAYER_1
 10
10.31134186984144
 20
3.296222544254996
 30
0.0
  0
VERTEX
  5
B0A
  8
LAYER_1
 10
10.31049999830311
 20
3.332010675160187
 30
0.0
  0
SEQEND
  5
C78
  8
LAYER_1
  0
POLYLINE
  5
D6
  8
LAYER_1
 66
     1
 10
0.0
 20
0.0
 30
0.0
 70
     1
  0
VERTEX
  5
B0B
  8
LAYER_1
 10
10.63081016507385
 20
3.363213374239791
 30
0.0
  0
VERTEX
  5
B0C
  8
LAYER_1
 10
10.63103829126168
 20
3.330307096320582
 30
0.0
  0
VERTEX
  5
B0D
  8
LAYER_1
 10
10.63172266982515
 20
3.297865124395057
 30
0.0
  0
VERTEX
  5
B0E
  8
LAYER_1
 10
10.63286330076428
 20
3.265887458463216
 30
0.0
  0
VERTEX
  5
B0F
  8
LAYER_1
 10
10.63446018407906
 20
3.23437409852506
 30
0.0
  0
VERTEX
  5
B10
  8
LAYER_1
 10
10.6365133197695
 20
3.203325044580587
 30
0.0
  0
VERTEX
  5
B11
  8
LAYER_1
 10
10.63902270783558
 20
3.172740296629799
 30
0.0
  0
VERTEX
  5
B12
  8
LAYER_1
 10
10.64198834827731
 20
3.142619854672694
 30
0.0
  0
VERTEX
  5
B13
  8
LAYER_1
 10
10.6454102410947
 20
3.112963718709274
 30
0.0
  0
VERTEX
  5
B14
  8
LAYER_1
 10
10.64928838628774
 20
3.083771888739538
 30
0.0
  0
VERTEX
  5
B15
  8
LAYER_1
 10
10.65362278385643
 20
3.055044364763487
 30
0.0
  0
VERTEX
  5
B16
  8
LAYER_1
 10
10.65841343380077
 20
3.026781146781119
 30
0.0
  0
VERTEX
  5
B17
  8
LAYER_1
 10
10.66366033612077
 20
2.998982234792436
 30
0.0
  0
VERTEX
  5
B18
  8
LAYER_1
 10
10.66936349081641
 20
2.971647628797436
 30
0.0
  0
VERTEX
  5
B19
  8
LAYER_1
 10
10.67552289788771
 20
2.944777328796121
 30
0.0
  0
VERTEX
  5
B1A
  8
LAYER_1
 10
10.68213855733466
 20
2.91837133478849
 30
0.0
  0
VERTEX
  5
B1B
  8
LAYER_1
 10
10.68921046915725
 20
2.892429646774543
 30
0.0
  0
VERTEX
  5
B1C
  8
LAYER_1
 10
10.69673863335551
 20
2.866952264754281
 30
0.0
  0
VERTEX
  5
B1D
  8
LAYER_1
 10
10.70472304992941
 20
2.841939188727702
 30
0.0
  0
VERTEX
  5
B1E
  8
LAYER_1
 10
10.71316371887896
 20
2.817390418694808
 30
0.0
  0
VERTEX
  5
B1F
  8
LAYER_1
 10
10.72206064020417
 20
2.793305954655598
 30
0.0
  0
VERTEX
  5
B20
  8
LAYER_1
 10
10.73141381390503
 20
2.769685796610072
 30
0.0
  0
VERTEX
  5
B21
  8
LAYER_1
 10
10.74122323998154
 20
2.74652994455823
 30
0.0
  0
VERTEX
  5
B22
  8
LAYER_1
 10
10.7514889184337
 20
2.723838398500072
 30
0.0
  0
VERTEX
  5
B23
  8
LAYER_1
 10
10.76221084926151
 20
2.701611158435599
 30
0.0
  0
VERTEX
  5
B24
  8
LAYER_1
 10
10.77338903246498
 20
2.679848224364809
 30
0.0
  0
VERTEX
  5
B25
  8
LAYER_1
 10
10.78502346804409
 20
2.658549596287704
 30
0.0
  0
VERTEX
  5
B26
  8
LAYER_1
 10
10.79711415599886
 20
2.637715274204283
 30
0.0
  0
VERTEX
  5
B27
  8
LAYER_1
 10
10.80966109632928
 20
2.617345258114546
 30
0.0
  0
VERTEX
  5
B28
  8
LAYER_1
 10
10.82266428903535
 20
2.597439548018494
 30
0.0
  0
VERTEX
  5
B29
  8
LAYER_1
 10
10.83612373411707
 20
2.577998143916125
 30
0.0
  0
VERTEX
  5
B2A
  8
LAYER_1
 10
10.85003943157445
 20
2.559021045807441
 30
0.0
  0
VERTEX
  5
B2B
  8
LAYER_1
 10
10.86441138140747
 20
2.540508253692441
 30
0.0
  0
VERTEX
  5
B2C
  8
LAYER_1
 10
10.87910977122475
 20
2.522513249560504
 30
0.0
  0
VERTEX
  5
B2D
  8
LAYER_1
 10
10.89400478863488
 20
2.50508951540101
 30
0.0
  0
VERTEX
  5
B2E
  8
LAYER_1
 10
10.90909643363787
 20
2.488237051213957
 30
0.0
  0
VERTEX
  5
B2F
  8
LAYER_1
 10
10.92438470623371
 20
2.471955856999348
 30
0.0
  0
VERTEX
  5
B30
  8
LAYER_1
 10
10.9398696064224
 20
2.45624593275718
 30
0.0
  0
VERTEX
  5
B31
  8
LAYER_1
 10
10.95555113420395
 20
2.441107278487456
 30
0.0
  0
VERTEX
  5
B32
  8
LAYER_1
 10
10.97142928957835
 20
2.426539894190173
 30
0.0
  0
VERTEX
  5
B33
  8
LAYER_1
 10
10.98750407254561
 20
2.412543779865334
 30
0.0
  0
VERTEX
  5
B34
  8
LAYER_1
 10
11.00377548310572
 20
2.399118935512937
 30
0.0
  0
VERTEX
  5
B35
  8
LAYER_1
 10
11.02024352125869
 20
2.386265361132982
 30
0.0
  0
VERTEX
  5
B36
  8
LAYER_1
 10
11.03690818700451
 20
2.373983056725469
 30
0.0
  0
VERTEX
  5
B37
  8
LAYER_1
 10
11.05376948034318
 20
2.362272022290399
 30
0.0
  0
VERTEX
  5
B38
  8
LAYER_1
 10
11.07082740127471
 20
2.351132257827771
 30
0.0
  0
VERTEX
  5
B39
  8
LAYER_1
 10
11.08808194979909
 20
2.340563763337586
 30
0.0
  0
VERTEX
  5
B3A
  8
LAYER_1
 10
11.10553312591632
 20
2.330566538819843
 30
0.0
  0
VERTEX
  5
B3B
  8
LAYER_1
 10
11.12318092962641
 20
2.321140584274544
 30
0.0
  0
VERTEX
  5
B3C
  8
LAYER_1
 10
11.14102536092935
 20
2.312285899701686
 30
0.0
  0
VERTEX
  5
B3D
  8
LAYER_1
 10
11.15906641982515
 20
2.304002485101271
 30
0.0
  0
VERTEX
  5
B3E
  8
LAYER_1
 10
11.1773041063138
 20
2.296290340473297
 30
0.0
  0
VERTEX
  5
B3F
  8
LAYER_1
 10
11.19573842039531
 20
2.289149465817767
 30
0.0
  0
VERTEX
  5
B40
  8
LAYER_1
 10
11.21436936206967
 20
2.282579861134679
 30
0.0
  0
VERTEX
  5
B41
  8
LAYER_1
 10
11.23319693133688
 20
2.276581526424033
 30
0.0
  0
VERTEX
  5
B42
  8
LAYER_1
 10
11.25222112819695
 20
2.27115446168583
 30
0.0
  0
VERTEX
  5
B43
  8
LAYER_1
 10
11.27144195264987
 20
2.266298666920069
 30
0.0
  0
VERTEX
  5
B44
  8
LAYER_1
 10
11.29085940469565
 20
2.262014142126751
 30
0.0
  0
VERTEX
  5
B45
  8
LAYER_1
 10
11.31047348433427
 20
2.258300887305875
 30
0.0
  0
VERTEX
  5
B46
  8
LAYER_1
 10
11.33028419156576
 20
2.255158902457441
 30
0.0
  0
VERTEX
  5
B47
  8
LAYER_1
 10
11.3502915263901
 20
2.252588187581451
 30
0.0
  0
VERTEX
  5
B48
  8
LAYER_1
 10
11.37049548880729
 20
2.250588742677902
 30
0.0
  0
VERTEX
  5
B49
  8
LAYER_1
 10
11.39089607881733
 20
2.249160567746796
 30
0.0
  0
VERTEX
  5
B4A
  8
LAYER_1
 10
11.41149329642023
 20
2.248303662788132
 30
0.0
  0
VERTEX
  5
B4B
  8
LAYER_1
 10
11.43228714161599
 20
2.248018027801911
 30
0.0
  0
VERTEX
  5
B4C
  8
LAYER_1
 10
11.45356014725646
 20
2.248306526296766
 30
0.0
  0
VERTEX
  5
B4D
  8
LAYER_1
 10
11.47461743524653
 20
2.249172021781331
 30
0.0
  0
VERTEX
  5
B4E
  8
LAYER_1
 10
11.49545900558618
 20
2.250614514255606
 30
0.0
  0
VERTEX
  5
B4F
  8
LAYER_1
 10
11.51608485827541
 20
2.252634003719591
 30
0.0
  0
VERTEX
  5
B50
  8
LAYER_1
 10
11.53649499331424
 20
2.255230490173286
 30
0.0
  0
VERTEX
  5
B51
  8
LAYER_1
 10
11.55668941070265
 20
2.258403973616692
 30
0.0
  0
VERTEX
  5
B52
  8
LAYER_1
 10
11.57666811044065
 20
2.262154454049807
 30
0.0
  0
VERTEX
  5
B53
  8
LAYER_1
 10
11.59643109252824
 20
2.266481931472632
 30
0.0
  0
VERTEX
  5
B54
  8
LAYER_1
 10
11.61597835696541
 20
2.271386405885167
 30
0.0
  0
VERTEX
  5
B55
  8
LAYER_1
 10
11.63530990375217
 20
2.276867877287413
 30
0.0
  0
VERTEX
  5
B56
  8
LAYER_1
 10
11.65442573288852
 20
2.282926345679368
 30
0.0
  0
VERTEX
  5
B57
  8
LAYER_1
 10
11.67332584437446
 20
2.289561811061033
 30
0.0
  0
VERTEX
  5
B58
  8
LAYER_1
 10
11.69201023820998
 20
2.296774273432409
 30
0.0
  0
VERTEX
  5
B59
  8
LAYER_1
 10
11.71047891439509
 20
2.304563732793494
 30
0.0
  0
VERTEX
  5
B5A
  8
LAYER_1
 10
11.72873187292979
 20
2.31293018914429
 30
0.0
  0
VERTEX
  5
B5B
  8
LAYER_1
 10
11.74676911381408
 20
2.321873642484795
 30
0.0
  0
VERTEX
  5
B5C
  8
LAYER_1
 10
11.76459063704795
 20
2.331394092815011
 30
0.0
  0
VERTEX
  5
B5D
  8
LAYER_1
 10
11.78219644263141
 20
2.341491540134936
 30
0.0
  0
VERTEX
  5
B5E
  8
LAYER_1
 10
11.79958653056445
 20
2.352165984444572
 30
0.0
  0
VERTEX
  5
B5F
  8
LAYER_1
 10
11.81676090084709
 20
2.363417425743918
 30
0.0
  0
VERTEX
  5
B60
  8
LAYER_1
 10
11.83371955347931
 20
2.375245864032974
 30
0.0
  0
VERTEX
  5
B61
  8
LAYER_1
 10
11.85046248846112
 20
2.38765129931174
 30
0.0
  0
VERTEX
  5
B62
  8
LAYER_1
 10
11.86698970579252
 20
2.400633731580216
 30
0.0
  0
VERTEX
  5
B63
  8
LAYER_1
 10
11.8833012054735
 20
2.414193160838401
 30
0.0
  0
VERTEX
  5
B64
  8
LAYER_1
 10
11.89939698750407
 20
2.428329587086297
 30
0.0
  0
VERTEX
  5
B65
  8
LAYER_1
 10
11.91527705188423
 20
2.443043010323903
 30
0.0
  0
VERTEX
  5
B66
  8
LAYER_1
 10
11.93094139861398
 20
2.458333430551219
 30
0.0
  0
VERTEX
  5
B67
  8
LAYER_1
 10
11.94639002769331
 20
2.474200847768245
 30
0.0
  0
VERTEX
  5
B68
  8
LAYER_1
 10
11.96162293912223
 20
2.490645261974981
 30
0.0
  0
VERTEX
  5
B69
  8
LAYER_1
 10
11.97664013290074
 20
2.507666673171427
 30
0.0
  0
VERTEX
  5
B6A
  8
LAYER_1
 10
11.99144160902884
 20
2.525265081357583
 30
0.0
  0
VERTEX
  5
B6B
  8
LAYER_1
 10
12.00602736750652
 20
2.543440486533449
 30
0.0
  0
VERTEX
  5
B6C
  8
LAYER_1
 10
12.02027904997692
 20
2.562175707647222
 30
0.0
  0
VERTEX
  5
B6D
  8
LAYER_1
 10
12.03407829808319
 20
2.5814535636471
 30
0.0
  0
VERTEX
  5
B6E
  8
LAYER_1
 10
12.04742511182532
 20
2.601274054533082
 30
0.0
  0
VERTEX
  5
B6F
  8
LAYER_1
 10
12.0603194912033
 20
2.621637180305169
 30
0.0
  0
VERTEX
  5
B70
  8
LAYER_1
 10
12.07276143621715
 20
2.64254294096336
 30
0.0
  0
VERTEX
  5
B71
  8
LAYER_1
 10
12.08475094686686
 20
2.663991336507656
 30
0.0
  0
VERTEX
  5
B72
  8
LAYER_1
 10
12.09628802315242
 20
2.685982366938056
 30
0.0
  0
VERTEX
  5
B73
  8
LAYER_1
 10
12.10737266507385
 20
2.708516032254561
 30
0.0
  0
VERTEX
  5
B74
  8
LAYER_1
 10
12.11800487263114
 20
2.731592332457169
 30
0.0
  0
VERTEX
  5
B75
  8
LAYER_1
 10
12.12818464582428
 20
2.755211267545883
 30
0.0
  0
VERTEX
  5
B76
  8
LAYER_1
 10
12.13791198465329
 20
2.779372837520701
 30
0.0
  0
VERTEX
  5
B77
  8
LAYER_1
 10
12.14718688911816
 20
2.804077042381624
 30
0.0
  0
VERTEX
  5
B78
  8
LAYER_1
 10
12.15600935921888
 20
2.829323882128651
 30
0.0
  0
VERTEX
  5
B79
  8
LAYER_1
 10
12.16437939495547
 20
2.855113356761783
 30
0.0
  0
VERTEX
  5
B7A
  8
LAYER_1
 10
12.17229699632792
 20
2.881445466281018
 30
0.0
  0
VERTEX
  5
B7B
  8
LAYER_1
 10
12.17976216333623
 20
2.908320210686359
 30
0.0
  0
VERTEX
  5
B7C
  8
LAYER_1
 10
12.1867748959804
 20
2.935737589977804
 30
0.0
  0
VERTEX
  5
B7D
  8
LAYER_1
 10
12.19333519426043
 20
2.963697604155354
 30
0.0
  0
VERTEX
  5
B7E
  8
LAYER_1
 10
12.19944305817631
 20
2.992200253219008
 30
0.0
  0
VERTEX
  5
B7F
  8
LAYER_1
 10
12.20509848772806
 20
3.021245537168766
 30
0.0
  0
VERTEX
  5
B80
  8
LAYER_1
 10
12.21030148291567
 20
3.050833456004629
 30
0.0
  0
VERTEX
  5
B81
  8
LAYER_1
 10
12.21505204373914
 20
3.080964009726596
 30
0.0
  0
VERTEX
  5
B82
  8
LAYER_1
 10
12.21935017019847
 20
3.111637198334668
 30
0.0
  0
VERTEX
  5
B83
  8
LAYER_1
 10
12.22319586229366
 20
3.142853021828844
 30
0.0
  0
VERTEX
  5
B84
  8
LAYER_1
 10
12.22658912002471
 20
3.174611480209125
 30
0.0
  0
VERTEX
  5
B85
  8
LAYER_1
 10
12.22952994339162
 20
3.206912573475511
 30
0.0
  0
VERTEX
  5
B86
  8
LAYER_1
 10
12.23201833239439
 20
3.239756301628
 30
0.0
  0
VERTEX
  5
B87
  8
LAYER_1
 10
12.23405428703301
 20
3.273142664666594
 30
0.0
  0
VERTEX
  5
B88
  8
LAYER_1
 10
12.2356378073075
 20
3.307071662591293
 30
0.0
  0
VERTEX
  5
B89
  8
LAYER_1
 10
12.23676889321785
 20
3.341543295402096
 30
0.0
  0
VERTEX
  5
B8A
  8
LAYER_1
 10
12.23744754476406
 20
3.376557563099003
 30
0.0
  0
VERTEX
  5
B8B
  8
LAYER_1
 10
12.23767376194613
 20
3.412114465682015
 30
0.0
  0
VERTEX
  5
B8C
  8
LAYER_1
 10
12.2372079645417
 20
3.458029633496348
 30
0.0
  0
VERTEX
  5
B8D
  8
LAYER_1
 10
12.23581057232841
 20
3.503333442217365
 30
0.0
  0
VERTEX
  5
B8E
  8
LAYER_1
 10
12.23348158530625
 20
3.548025891845067
 30
0.0
  0
VERTEX
  5
B8F
  8
LAYER_1
 10
12.23022100347524
 20
3.592106982379453
 30
0.0
  0
VERTEX
  5
B90
  8
LAYER_1
 10
12.22602882683536
 20
3.635576713820523
 30
0.0
  0
VERTEX
  5
B91
  8
LAYER_1
 10
12.22090505538662
 20
3.678435086168277
 30
0.0
  0
VERTEX
  5
B92
  8
LAYER_1
 10
12.21484968912902
 20
3.720682099422716
 30
0.0
  0
VERTEX
  5
B93
  8
LAYER_1
 10
12.20786272806255
 20
3.76231775358384
 30
0.0
  0
VERTEX
  5
B94
  8
LAYER_1
 10
12.19994417218723
 20
3.803342048651648
 30
0.0
  0
VERTEX
  5
B95
  8
LAYER_1
 10
12.19109402150304
 20
3.84375498462614
 30
0.0
  0
VERTEX
  5
B96
  8
LAYER_1
 10
12.18131227600999
 20
3.883556561507317
 30
0.0
  0
VERTEX
  5
B97
  8
LAYER_1
 10
12.17059893570808
 20
3.922746779295178
 30
0.0
  0
VERTEX
  5
B98
  8
LAYER_1
 10
12.1589540005973
 20
3.961325637989723
 30
0.0
  0
VERTEX
  5
B99
  8
LAYER_1
 10
12.14637747067767
 20
3.999293137590953
 30
0.0
  0
VERTEX
  5
B9A
  8
LAYER_1
 10
12.13286934594917
 20
4.036649278098867
 30
0.0
  0
VERTEX
  5
B9B
  8
LAYER_1
 10
12.11842962641182
 20
4.073394059513466
 30
0.0
  0
VERTEX
  5
B9C
  8
LAYER_1
 10
12.10658233669092
 20
4.100929140941045
 30
0.0
  0
VERTEX
  5
B9D
  8
LAYER_1
 10
12.0940096247828
 20
4.127768509083473
 30
0.0
  0
VERTEX
  5
B9E
  8
LAYER_1
 10
12.08071149068745
 20
4.153912163940747
 30
0.0
  0
VERTEX
  5
B9F
  8
LAYER_1
 10
12.06668793440486
 20
4.179360105512869
 30
0.0
  0
VERTEX
  5
BA0
  8
LAYER_1
 10
12.05193895593506
 20
4.204112333799837
 30
0.0
  0
VERTEX
  5
BA1
  8
LAYER_1
 10
12.03646455527802
 20
4.228168848801653
 30
0.0
  0
VERTEX
  5
BA2
  8
LAYER_1
 10
12.02026473243375
 20
4.251529650518315
 30
0.0
  0
VERTEX
  5
BA3
  8
LAYER_1
 10
12.00333948740226
 20
4.274194738949825
 30
0.0
  0
VERTEX
  5
BA4
  8
LAYER_1
 10
11.98568882018354
 20
4.296164114096182
 30
0.0
  0
VERTEX
  5
BA5
  8
LAYER_1
 10
11.96731273077759
 20
4.317437775957387
 30
0.0
  0
VERTEX
  5
BA6
  8
LAYER_1
 10
11.94821121918441
 20
4.338015724533438
 30
0.0
  0
VERTEX
  5
BA7
  8
LAYER_1
 10
11.928384285404
 20
4.357897959824337
 30
0.0
  0
VERTEX
  5
BA8
  8
LAYER_1
 10
11.90783192943636
 20
4.377084481830082
 30
0.0
  0
VERTEX
  5
BA9
  8
LAYER_1
 10
11.88655415128149
 20
4.395575290550676
 30
0.0
  0
VERTEX
  5
BAA
  8
LAYER_1
 10
11.8645509509394
 20
4.413370385986116
 30
0.0
  0
VERTEX
  5
BAB
  8
LAYER_1
 10
11.84182232841008
 20
4.430469768136403
 30
0.0
  0
VERTEX
  5
BAC
  8
LAYER_1
 10
11.81859736438423
 20
4.446697808471997
 30
0.0
  0
VERTEX
  5
BAD
  8
LAYER_1
 10
11.79510513955256
 20
4.461878878463361
 30
0.0
  0
VERTEX
  5
BAE
  8
LAYER_1
 10
11.77134565391507
 20
4.476012978110491
 30
0.0
  0
VERTEX
  5
BAF
  8
LAYER_1
 10
11.74731890747176
 20
4.48910010741339
 30
0.0
  0
VERTEX
  5
BB0
  8
LAYER_1
 10
11.72302490022263
 20
4.501140266372056
 30
0.0
  0
VERTEX
  5
BB1
  8
LAYER_1
 10
11.69846363216768
 20
4.512133454986492
 30
0.0
  0
VERTEX
  5
BB2
  8
LAYER_1
 10
11.67363510330691
 20
4.522079673256695
 30
0.0
  0
VERTEX
  5
BB3
  8
LAYER_1
 10
11.64853931364031
 20
4.530978921182666
 30
0.0
  0
VERTEX
  5
BB4
  8
LAYER_1
 10
11.6231762631679
 20
4.538831198764405
 30
0.0
  0
VERTEX
  5
BB5
  8
LAYER_1
 10
11.59754595188966
 20
4.545636506001913
 30
0.0
  0
VERTEX
  5
BB6
  8
LAYER_1
 10
11.5716483798056
 20
4.551394842895188
 30
0.0
  0
VERTEX
  5
BB7
  8
LAYER_1
 10
11.54548354691573
 20
4.556106209444232
 30
0.0
  0
VERTEX
  5
BB8
  8
LAYER_1
 10
11.51905145322002
 20
4.559770605649044
 30
0.0
  0
VERTEX
  5
BB9
  8
LAYER_1
 10
11.4923520987185
 20
4.562388031509625
 30
0.0
  0
VERTEX
  5
BBA
  8
LAYER_1
 10
11.46538548341116
 20
4.563958487025972
 30
0.0
  0
VERTEX
  5
BBB
  8
LAYER_1
 10
11.438151607298
 20
4.564481972198088
 30
0.0
  0
VERTEX
  5
BBC
  8
LAYER_1
 10
11.41628108285594
 20
4.564195382708989
 30
0.0
  0
VERTEX
  5
BBD
  8
LAYER_1
 10
11.39465300214488
 20
4.563335614241692
 30
0.0
  0
VERTEX
  5
BBE
  8
LAYER_1
 10
11.3732673651648
 20
4.561902666796195
 30
0.0
  0
VERTEX
  5
BBF
  8
LAYER_1
 10
11.35212417191573
 20
4.559896540372502
 30
0.0
  0
VERTEX
  5
BC0
  8
LAYER_1
 10
11.33122342239765
 20
4.557317234970609
 30
0.0
  0
VERTEX
  5
BC1
  8
LAYER_1
 10
11.31056511661056
 20
4.55416475059052
 30
0.0
  0
VERTEX
  5
BC2
  8
LAYER_1
 10
11.29014925455446
 20
4.550439087232229
 30
0.0
  0
VERTEX
  5
BC3
  8
LAYER_1
 10
11.26997583622937
 20
4.546140244895743
 30
0.0
  0
VERTEX
  5
BC4
  8
LAYER_1
 10
11.25004486163526
 20
4.541268223581057
 30
0.0
  0
VERTEX
  5
BC5
  8
LAYER_1
 10
11.23035633077216
 20
4.535823023288174
 30
0.0
  0
VERTEX
  5
BC6
  8
LAYER_1
 10
11.21091024364004
 20
4.529804644017091
 30
0.0
  0
VERTEX
  5
BC7
  8
LAYER_1
 10
11.19170660023893
 20
4.523213085767811
 30
0.0
  0
VERTEX
  5
BC8
  8
LAYER_1
 10
11.1727454005688
 20
4.516048348540332
 30
0.0
  0
VERTEX
  5
BC9
  8
LAYER_1
 10
11.15402664462967
 20
4.508310432334655
 30
0.0
  0
VERTEX
  5
BCA
  8
LAYER_1
 10
11.13555033242154
 20
4.499999337150779
 30
0.0
  0
VERTEX
  5
BCB
  8
LAYER_1
 10
11.1173164639444
 20
4.491115062988706
 30
0.0
  0
VERTEX
  5
BCC
  8
LAYER_1
 10
11.09932503919825
 20
4.481657609848433
 30
0.0
  0
VERTEX
  5
BCD
  8
LAYER_1
 10
11.0815760581831
 20
4.471626977729963
 30
0.0
  0
VERTEX
  5
BCE
  8
LAYER_1
 10
11.06406952089895
 20
4.461023166633294
 30
0.0
  0
VERTEX
  5
BCF
  8
LAYER_1
 10
11.04680542734579
 20
4.449846176558427
 30
0.0
  0
VERTEX
  5
BD0
  8
LAYER_1
 10
11.02978377752362
 20
4.438096007505361
 30
0.0
  0
VERTEX
  5
BD1
  8
LAYER_1
 10
11.01300457143245
 20
4.425772659474099
 30
0.0
  0
VERTEX
  5
BD2
  8
LAYER_1
 10
10.99646780907227
 20
4.412876132464636
 30
0.0
  0
VERTEX
  5
BD3
  8
LAYER_1
 10
10.98017349044309
 20
4.399406426476976
 30
0.0
  0
VERTEX
  5
BD4
  8
LAYER_1
 10
10.96412161554491
 20
4.385363541511117
 30
0.0
  0
VERTEX
  5
BD5
  8
LAYER_1
 10
10.94831218437772
 20
4.370747477567061
 30
0.0
  0
VERTEX
  5
BD6
  8
LAYER_1
 10
10.93274519694152
 20
4.355558234644805
 30
0.0
  0
VERTEX
  5
BD7
  8
LAYER_1
 10
10.91742065323632
 20
4.339795812744352
 30
0.0
  0
VERTEX
  5
BD8
  8
LAYER_1
 10
10.90233855326211
 20
4.3234602118657
 30
0.0
  0
VERTEX
  5
BD9
  8
LAYER_1
 10
10.8874988970189
 20
4.306551432008851
 30
0.0
  0
VERTEX
  5
BDA
  8
LAYER_1
 10
10.87290168450668
 20
4.289069473173802
 30
0.0
  0
VERTEX
  5
BDB
  8
LAYER_1
 10
10.85854691572546
 20
4.271014335360555
 30
0.0
  0
VERTEX
  5
BDC
  8
LAYER_1
 10
10.84453576798029
 20
4.252359262660313
 30
0.0
  0
VERTEX
  5
BDD
  8
LAYER_1
 10
10.83096941857624
 20
4.233077499164279
 30
0.0
  0
VERTEX
  5
BDE
  8
LAYER_1
 10
10.8178478675133
 20
4.213169044872453
 30
0.0
  0
VERTEX
  5
BDF
  8
LAYER_1
 10
10.80517111479149
 20
4.192633899784833
 30
0.0
  0
VERTEX
  5
BE0
  8
LAYER_1
 10
10.79293916041079
 20
4.171472063901422
 30
0.0
  0
VERTEX
  5
BE1
  8
LAYER_1
 10
10.7811520043712
 20
4.149683537222218
 30
0.0
  0
VERTEX
  5
BE2
  8
LAYER_1
 10
10.76980964667273
 20
4.127268319747222
 30
0.0
  0
VERTEX
  5
BE3
  8
LAYER_1
 10
10.75891208731538
 20
4.104226411476433
 30
0.0
  0
VERTEX
  5
BE4
  8
LAYER_1
 10
10.74845932629914
 20
4.080557812409852
 30
0.0
  0
VERTEX
  5
BE5
  8
LAYER_1
 10
10.73845136362402
 20
4.056262522547478
 30
0.0
  0
VERTEX
  5
BE6
  8
LAYER_1
 10
10.72888819929002
 20
4.031340541889313
 30
0.0
  0
VERTEX
  5
BE7
  8
LAYER_1
 10
10.71976983329713
 20
4.005791870435355
 30
0.0
  0
VERTEX
  5
BE8
  8
LAYER_1
 10
10.71109626564536
 20
3.979616508185605
 30
0.0
  0
VERTEX
  5
BE9
  8
LAYER_1
 10
10.70286749633471
 20
3.952814455140062
 30
0.0
  0
VERTEX
  5
BEA
  8
LAYER_1
 10
10.69508352536517
 20
3.925385711298726
 30
0.0
  0
VERTEX
  5
BEB
  8
LAYER_1
 10
10.68774435273675
 20
3.897330276661598
 30
0.0
  0
VERTEX
  5
BEC
  8
LAYER_1
 10
10.68084997844945
 20
3.868648151228678
 30
0.0
  0
VERTEX
  5
BED
  8
LAYER_1
 10
10.67440040250326
 20
3.839339334999966
 30
0.0
  0
VERTEX
  5
BEE
  8
LAYER_1
 10
10.66839562489819
 20
3.809403827975461
 30
0.0
  0
VERTEX
  5
BEF
  8
LAYER_1
 10
10.66283564563423
 20
3.778841630155164
 30
0.0
  0
VERTEX
  5
BF0
  8
LAYER_1
 10
10.65772046471139
 20
3.747652741539074
 30
0.0
  0
VERTEX
  5
BF1
  8
LAYER_1
 10
10.65305008212967
 20
3.715837162127192
 30
0.0
  0
VERTEX
  5
BF2
  8
LAYER_1
 10
10.64882449788906
 20
3.683394891919518
 30
0.0
  0
VERTEX
  5
BF3
  8
LAYER_1
 10
10.64504371198957
 20
3.650325930916051
 30
0.0
  0
VERTEX
  5
BF4
  8
LAYER_1
 10
10.6417077244312
 20
3.616630279116792
 30
0.0
  0
VERTEX
  5
BF5
  8
LAYER_1
 10
10.63881653521394
 20
3.58230793652174
 30
0.0
  0
VERTEX
  5
BF6
  8
LAYER_1
 10
10.6363701443378
 20
3.547358903130896
 30
0.0
  0
VERTEX
  5
BF7
  8
LAYER_1
 10
10.63436855180278
 20
3.51178317894426
 30
0.0
  0
VERTEX
  5
BF8
  8
LAYER_1
 10
10.63281175760887
 20
3.475580763961831
 30
0.0
  0
VERTEX
  5
BF9
  8
LAYER_1
 10
10.63169976175608
 20
3.438751658183611
 30
0.0
  0
VERTEX
  5
BFA
  8
LAYER_1
 10
10.63103256424441
 20
3.401295861609597
 30
0.0
  0
SEQEND
  5
C79
  8
LAYER_1
  0
POLYLINE
  5
D7
  8
LAYER_1
 66
     1
 10
0.0
 20
0.0
 30
0.0
 70
     1
  0
VERTEX
  5
BFB
  8
LAYER_1
 10
12.94336446568202
 20
1.972388140747176
 30
0.0
  0
VERTEX
  5
BFC
  8
LAYER_1
 10
12.94336446568202
 20
4.838157037358818
 30
0.0
  0
VERTEX
  5
BFD
  8
LAYER_1
 10
13.41075016290183
 20
4.838157037358818
 30
0.0
  0
VERTEX
  5
BFE
  8
LAYER_1
 10
13.96854637271938
 20
2.809051911381407
 30
0.0
  0
VERTEX
  5
BFF
  8
LAYER_1
 10
14.08009339704605
 20
2.384855560382276
 30
0.0
  0
VERTEX
  5
C00
  8
LAYER_1
 10
14.10333936013521
 20
2.472944721980886
 30
0.0
  0
VERTEX
  5
C01
  8
LAYER_1
 10
14.1319649014444
 20
2.578871633362294
 30
0.0
  0
VERTEX
  5
C02
  8
LAYER_1
 10
14.16597002097361
 20
2.702636294526498
 30
0.0
  0
VERTEX
  5
C03
  8
LAYER_1
 10
14.20535471872285
 20
2.844238705473501
 30
0.0
  0
VERTEX
  5
C04
  8
LAYER_1
 10
14.76901539422242
 20
4.838157037358818
 30
0.0
  0
VERTEX
  5
C05
  8
LAYER_1
 10
15.1875
 20
4.838157037358818
 30
0.0
  0
VERTEX
  5
C06
  8
LAYER_1
 10
15.1875
 20
1.972388140747176
 30
0.0
  0
VERTEX
  5
C07
  8
LAYER_1
 10
14.8884122502172
 20
1.972388140747176
 30
0.0
  0
VERTEX
  5
C08
  8
LAYER_1
 10
14.8884122502172
 20
4.369152503258036
 30
0.0
  0
VERTEX
  5
C09
  8
LAYER_1
 10
14.203125
 20
1.972388140747176
 30
0.0
  0
VERTEX
  5
C0A
  8
LAYER_1
 10
13.92376873370982
 20
1.972388140747176
 30
0.0
  0
VERTEX
  5
C0B
  8
LAYER_1
 10
13.24245221546481
 20
4.410387027584708
 30
0.0
  0
VERTEX
  5
C0C
  8
LAYER_1
 10
13.24245221546481
 20
1.972388140747176
 30
0.0
  0
SEQEND
  5
C7A
  8
LAYER_1
  0
ENDSEC
  0
EOF
