  0
SECTION
  2
HEADER
  9
$ACADVER
  1
AC1009
  9
$DWGCODEPAGE
  3
ansi_1252
  9
$INSBASE
 10
0.0
 20
0.0
 30
0.0
  9
$EXTMIN
 10
0.4504544935533445
 20
-25.95861672794114
 30
0.0
  9
$EXTMAX
 10
205.7157368270185
 20
51.8845936078348
 30
0.0
  9
$LIMMIN
 10
0.0
 20
0.0
  9
$LIMMAX
 10
12.0
 20
9.0
  9
$ORTHOMODE
 70
     0
  9
$REGENMODE
 70
     1
  9
$FILLMODE
 70
     1
  9
$QTEXTMODE
 70
     0
  9
$MIRRTEXT
 70
     1
  9
$DRAGMODE
 70
     2
  9
$LTSCALE
 40
1.0
  9
$OSMODE
 70
    37
  9
$ATTMODE
 70
     1
  9
$TEXTSIZE
 40
0.2
  9
$TRACEWID
 40
0.05
  9
$TEXTSTYLE
  7
STANDARD
  9
$CLAYER
  8
0
  9
$CELTYPE
  6
BYLAYER
  9
$CECOLOR
 62
   256
  9
$DIMSCALE
 40
1.0
  9
$DIMASZ
 40
0.18
  9
$DIMEXO
 40
0.0625
  9
$DIMDLI
 40
0.38
  9
$DIMRND
 40
0.0
  9
$DIMDLE
 40
0.0
  9
$DIMEXE
 40
0.18
  9
$DIMTP
 40
0.0
  9
$DIMTM
 40
0.0
  9
$DIMTXT
 40
0.18
  9
$DIMCEN
 40
0.09
  9
$DIMTSZ
 40
0.0
  9
$DIMTOL
 70
     0
  9
$DIMLIM
 70
     0
  9
$DIMTIH
 70
     1
  9
$DIMTOH
 70
     1
  9
$DIMSE1
 70
     0
  9
$DIMSE2
 70
     0
  9
$DIMTAD
 70
     0
  9
$DIMZIN
 70
     0
  9
$DIMBLK
  1

  9
$DIMASO
 70
     1
  9
$DIMSHO
 70
     1
  9
$DIMPOST
  1

  9
$DIMAPOST
  1

  9
$DIMALT
 70
     0
  9
$DIMALTD
 70
     2
  9
$DIMALTF
 40
25.4
  9
$DIMLFAC
 40
1.0
  9
$DIMTOFL
 70
     0
  9
$DIMTVP
 40
0.0
  9
$DIMTIX
 70
     0
  9
$DIMSOXD
 70
     0
  9
$DIMSAH
 70
     0
  9
$DIMBLK1
  1

  9
$DIMBLK2
  1

  9
$DIMSTYLE
  2
STANDARD
  9
$DIMCLRD
 70
     0
  9
$DIMCLRE
 70
     0
  9
$DIMCLRT
 70
     0
  9
$DIMTFAC
 40
1.0
  9
$DIMGAP
 40
0.09
  9
$LUNITS
 70
     2
  9
$LUPREC
 70
     4
  9
$SKETCHINC
 40
0.1
  9
$FILLETRAD
 40
0.5
  9
$AUNITS
 70
     0
  9
$AUPREC
 70
     0
  9
$MENU
  1
.
  9
$ELEVATION
 40
0.0
  9
$PELEVATION
 40
0.0
  9
$THICKNESS
 40
0.0
  9
$LIMCHECK
 70
     0
  9
$CHAMFERA
 40
0.0
  9
$CHAMFERB
 40
0.0
  9
$SKPOLY
 70
     0
  9
$TDCREATE
 40
2454910.5
  9
$TDUPDATE
 40
2457522.620090336
  9
$TDINDWG
 40
0.0000000116
  9
$TDUSRTIMER
 40
0.0000000116
  9
$USRTIMER
 70
     1
  9
$ANGBASE
 50
0.0
  9
$ANGDIR
 70
     0
  9
$PDMODE
 70
     0
  9
$PDSIZE
 40
0.0
  9
$PLINEWID
 40
0.0
  9
$COORDS
 70
     1
  9
$SPLFRAME
 70
     0
  9
$SPLINETYPE
 70
     6
  9
$SPLINESEGS
 70
     8
  9
$ATTDIA
 70
     0
  9
$ATTREQ
 70
     1
  9
$HANDLING
 70
     1
  9
$HANDSEED
  5
4D4
  9
$SURFTAB1
 70
     6
  9
$SURFTAB2
 70
     6
  9
$SURFTYPE
 70
     6
  9
$SURFU
 70
     6
  9
$SURFV
 70
     6
  9
$UCSNAME
  2

  9
$UCSORG
 10
0.0
 20
0.0
 30
0.0
  9
$UCSXDIR
 10
1.0
 20
0.0
 30
0.0
  9
$UCSYDIR
 10
0.0
 20
1.0
 30
0.0
  9
$PUCSNAME
  2

  9
$PUCSORG
 10
0.0
 20
0.0
 30
0.0
  9
$PUCSXDIR
 10
1.0
 20
0.0
 30
0.0
  9
$PUCSYDIR
 10
0.0
 20
1.0
 30
0.0
  9
$USERI1
 70
     0
  9
$USERI2
 70
     0
  9
$USERI3
 70
     0
  9
$USERI4
 70
     0
  9
$USERI5
 70
     0
  9
$USERR1
 40
0.0
  9
$USERR2
 40
0.0
  9
$USERR3
 40
0.0
  9
$USERR4
 40
0.0
  9
$USERR5
 40
0.0
  9
$WORLDVIEW
 70
     1
  9
$SHADEDGE
 70
     3
  9
$SHADEDIF
 70
    70
  9
$TILEMODE
 70
     1
  9
$MAXACTVP
 70
    64
  9
$PLIMCHECK
 70
     0
  9
$PEXTMIN
 10
1.000000000000000E+20
 20
1.000000000000000E+20
 30
1.000000000000000E+20
  9
$PEXTMAX
 10
-1.000000000000000E+20
 20
-1.000000000000000E+20
 30
-1.000000000000000E+20
  9
$PLIMMIN
 10
0.0
 20
0.0
  9
$PLIMMAX
 10
12.0
 20
9.0
  9
$UNITMODE
 70
     0
  9
$VISRETAIN
 70
     1
  9
$PLINEGEN
 70
     0
  9
$PSLTSCALE
 70
     1
  0
ENDSEC
  0
SECTION
  2
TABLES
  0
TABLE
  2
VPORT
 70
     1
  0
VPORT
  2
*ACTIVE
 70
     0
 10
0.0
 20
0.0
 11
1.0
 21
1.0
 12
10.42990654205607
 22
4.5
 13
0.0
 23
0.0
 14
0.5
 24
0.5
 15
0.5
 25
0.5
 16
0.0
 26
0.0
 36
1.0
 17
0.0
 27
0.0
 37
0.0
 40
9.0
 41
1.972972972850329
 42
50.0
 43
0.0
 44
0.0
 50
0.0
 51
0.0
 71
     0
 72
   100
 73
     1
 74
     3
 75
     0
 76
     0
 77
     0
 78
     0
  0
ENDTAB
  0
TABLE
  2
LTYPE
 70
     2
  0
LTYPE
  2
CONTINUOUS
 70
     0
  3
Solid line
 72
    65
 73
     0
 40
0.0
  0
LTYPE
  2
CONTINUOUS2
 70
     0
  3
Solid Line
 72
    65
 73
     0
 40
0.0
  0
ENDTAB
  0
TABLE
  2
LAYER
 70
     2
  0
LAYER
  2
0
 70
     0
 62
     7
  6
CONTINUOUS
  0
LAYER
  2
LAYER_1
 70
     0
 62
    18
  6
CONTINUOUS
  0
ENDTAB
  0
TABLE
  2
STYLE
 70
     1
  0
STYLE
  2
STANDARD
 70
     0
 40
0.0
 41
1.0
 50
0.0
 71
     0
 42
0.2
  3
txt
  4

  0
ENDTAB
  0
TABLE
  2
VIEW
 70
     0
  0
ENDTAB
  0
TABLE
  2
UCS
 70
     0
  0
ENDTAB
  0
TABLE
  2
APPID
 70
     1
  0
APPID
  2
ACAD
 70
     0
  0
ENDTAB
  0
TABLE
  2
DIMSTYLE
 70
     1
  0
DIMSTYLE
  2
STANDARD
 70
     0
  3

  4

  5

  6

  7

 40
1.0
 41
0.18
 42
0.0625
 43
0.38
 44
0.18
 45
0.0
 46
0.0
 47
0.0
 48
0.0
140
0.18
141
0.09
142
0.0
143
25.4
144
1.0
145
0.0
146
1.0
147
0.09
 71
     0
 72
     0
 73
     1
 74
     1
 75
     0
 76
     0
 77
     0
 78
     0
170
     0
171
     2
172
     0
173
     0
174
     0
175
     0
176
     0
177
     0
178
     0
  0
ENDTAB
  0
ENDSEC
  0
SECTION
  2
BLOCKS
  0
BLOCK
  8
0
  2
$MODEL_SPACE
 70
     0
 10
0.0
 20
0.0
 30
0.0
  3
$MODEL_SPACE
  1

  0
ENDBLK
  5
21
  8
0
  0
BLOCK
 67
     1
  8
0
  2
$PAPER_SPACE
 70
     0
 10
0.0
 20
0.0
 30
0.0
  3
$PAPER_SPACE
  1

  0
ENDBLK
  5
1D
 67
     1
  8
0
  0
ENDSEC
  0
SECTION
  2
ENTITIES
  0
POLYLINE
  5
70
  8
LAYER_1
 66
     1
 10
0.0
 20
0.0
 30
0.0
 70
     1
  0
VERTEX
  5
D0
  8
LAYER_1
 10
72.01295449316454
 20
-2.650881636702508
 30
0.0
  0
VERTEX
  5
D1
  8
LAYER_1
 10
63.45045449345612
 20
-2.650881636617584
 30
0.0
  0
VERTEX
  5
D2
  8
LAYER_1
 10
43.57545449361987
 20
-6.150881636554345
 30
0.0
  0
VERTEX
  5
D3
  8
LAYER_1
 10
43.52708278181488
 20
-6.154818319997361
 30
0.0
  0
VERTEX
  5
D4
  8
LAYER_1
 10
43.47874510486714
 20
-6.158164637933076
 30
0.0
  0
VERTEX
  5
D5
  8
LAYER_1
 10
43.43044505835395
 20
-6.160924382647307
 30
0.0
  0
VERTEX
  5
D6
  8
LAYER_1
 10
43.38218623785258
 20
-6.163101346425872
 30
0.0
  0
VERTEX
  5
D7
  8
LAYER_1
 10
43.33397223894032
 20
-6.164699321554585
 30
0.0
  0
VERTEX
  5
D8
  8
LAYER_1
 10
43.28580665719446
 20
-6.165722100319262
 30
0.0
  0
VERTEX
  5
D9
  8
LAYER_1
 10
43.23769308819229
 20
-6.166173475005719
 30
0.0
  0
VERTEX
  5
DA
  8
LAYER_1
 10
43.18963512751107
 20
-6.166057237899771
 30
0.0
  0
VERTEX
  5
DB
  8
LAYER_1
 10
43.1416363707281
 20
-6.165377181287236
 30
0.0
  0
VERTEX
  5
DC
  8
LAYER_1
 10
43.09370041342066
 20
-6.164137097453929
 30
0.0
  0
VERTEX
  5
DD
  8
LAYER_1
 10
43.04583085116605
 20
-6.162340778685666
 30
0.0
  0
VERTEX
  5
DE
  8
LAYER_1
 10
42.99803127954154
 20
-6.159992017268262
 30
0.0
  0
VERTEX
  5
DF
  8
LAYER_1
 10
42.95030529412441
 20
-6.157094605487535
 30
0.0
  0
VERTEX
  5
E0
  8
LAYER_1
 10
42.90265649049196
 20
-6.153652335629298
 30
0.0
  0
VERTEX
  5
E1
  8
LAYER_1
 10
42.85508846422147
 20
-6.149668999979369
 30
0.0
  0
VERTEX
  5
E2
  8
LAYER_1
 10
42.80760481089022
 20
-6.145148390823563
 30
0.0
  0
VERTEX
  5
E3
  8
LAYER_1
 10
42.76020912607549
 20
-6.140094300447696
 30
0.0
  0
VERTEX
  5
E4
  8
LAYER_1
 10
42.71290500535459
 20
-6.134510521137585
 30
0.0
  0
VERTEX
  5
E5
  8
LAYER_1
 10
42.66569604430477
 20
-6.128400845179044
 30
0.0
  0
VERTEX
  5
E6
  8
LAYER_1
 10
42.61858583850332
 20
-6.121769064857892
 30
0.0
  0
VERTEX
  5
E7
  8
LAYER_1
 10
42.57157798352755
 20
-6.114618972459941
 30
0.0
  0
VERTEX
  5
E8
  8
LAYER_1
 10
42.52467607495472
 20
-6.10695436027101
 30
0.0
  0
VERTEX
  5
E9
  8
LAYER_1
 10
42.47788370836213
 20
-6.098779020576914
 30
0.0
  0
VERTEX
  5
EA
  8
LAYER_1
 10
42.43120447932706
 20
-6.090096745663468
 30
0.0
  0
VERTEX
  5
EB
  8
LAYER_1
 10
42.38464198342679
 20
-6.080911327816489
 30
0.0
  0
VERTEX
  5
EC
  8
LAYER_1
 10
42.3381998162386
 20
-6.071226559321793
 30
0.0
  0
VERTEX
  5
ED
  8
LAYER_1
 10
42.29188157333979
 20
-6.061046232465195
 30
0.0
  0
VERTEX
  5
EE
  8
LAYER_1
 10
42.24569085030765
 20
-6.050374139532511
 30
0.0
  0
VERTEX
  5
EF
  8
LAYER_1
 10
42.19963124271945
 20
-6.039214072809557
 30
0.0
  0
VERTEX
  5
F0
  8
LAYER_1
 10
42.15370634615246
 20
-6.02756982458215
 30
0.0
  0
VERTEX
  5
F1
  8
LAYER_1
 10
42.10791975618399
 20
-6.015445187136105
 30
0.0
  0
VERTEX
  5
F2
  8
LAYER_1
 10
42.06227506839131
 20
-6.002843952757239
 30
0.0
  0
VERTEX
  5
F3
  8
LAYER_1
 10
42.01677587835172
 20
-5.989769913731365
 30
0.0
  0
VERTEX
  5
F4
  8
LAYER_1
 10
41.97142578164248
 20
-5.976226862344303
 30
0.0
  0
VERTEX
  5
F5
  8
LAYER_1
 10
41.9262283738409
 20
-5.962218590881866
 30
0.0
  0
VERTEX
  5
F6
  8
LAYER_1
 10
41.88118725052425
 20
-5.947748891629871
 30
0.0
  0
VERTEX
  5
F7
  8
LAYER_1
 10
41.83630600726983
 20
-5.932821556874133
 30
0.0
  0
VERTEX
  5
F8
  8
LAYER_1
 10
41.7915882396549
 20
-5.917440378900469
 30
0.0
  0
VERTEX
  5
F9
  8
LAYER_1
 10
41.74703754325677
 20
-5.901609149994695
 30
0.0
  0
VERTEX
  5
FA
  8
LAYER_1
 10
41.7026575136527
 20
-5.885331662442625
 30
0.0
  0
VERTEX
  5
FB
  8
LAYER_1
 10
41.65845174641998
 20
-5.868611708530077
 30
0.0
  0
VERTEX
  5
FC
  8
LAYER_1
 10
41.61442383713592
 20
-5.851453080542867
 30
0.0
  0
VERTEX
  5
FD
  8
LAYER_1
 10
41.57057738137778
 20
-5.83385957076681
 30
0.0
  0
VERTEX
  5
FE
  8
LAYER_1
 10
41.52691597472285
 20
-5.815834971487721
 30
0.0
  0
VERTEX
  5
FF
  8
LAYER_1
 10
41.48344321274842
 20
-5.797383074991417
 30
0.0
  0
VERTEX
  5
100
  8
LAYER_1
 10
41.44016269103176
 20
-5.778507673563716
 30
0.0
  0
VERTEX
  5
101
  8
LAYER_1
 10
41.39707800515017
 20
-5.759212559490431
 30
0.0
  0
VERTEX
  5
102
  8
LAYER_1
 10
41.35419275068094
 20
-5.739501525057378
 30
0.0
  0
VERTEX
  5
103
  8
LAYER_1
 10
41.31151052320133
 20
-5.719378362550374
 30
0.0
  0
VERTEX
  5
104
  8
LAYER_1
 10
41.26903491828865
 20
-5.698846864255234
 30
0.0
  0
VERTEX
  5
105
  8
LAYER_1
 10
41.22676953152016
 20
-5.677910822457775
 30
0.0
  0
VERTEX
  5
106
  8
LAYER_1
 10
41.18471795847316
 20
-5.656574029443813
 30
0.0
  0
VERTEX
  5
107
  8
LAYER_1
 10
41.14288379472494
 20
-5.634840277499163
 30
0.0
  0
VERTEX
  5
108
  8
LAYER_1
 10
41.10127063585278
 20
-5.612713358909641
 30
0.0
  0
VERTEX
  5
109
  8
LAYER_1
 10
41.05988207743395
 20
-5.590197065961064
 30
0.0
  0
VERTEX
  5
10A
  8
LAYER_1
 10
41.01872171504576
 20
-5.567295190939246
 30
0.0
  0
VERTEX
  5
10B
  8
LAYER_1
 10
40.97779314426548
 20
-5.544011526130005
 30
0.0
  0
VERTEX
  5
10C
  8
LAYER_1
 10
40.93709996067038
 20
-5.520349863819155
 30
0.0
  0
VERTEX
  5
10D
  8
LAYER_1
 10
40.89664575983777
 20
-5.496313996292514
 30
0.0
  0
VERTEX
  5
10E
  8
LAYER_1
 10
40.85643413734493
 20
-5.471907715835896
 30
0.0
  0
VERTEX
  5
10F
  8
LAYER_1
 10
40.81646868876913
 20
-5.447134814735118
 30
0.0
  0
VERTEX
  5
110
  8
LAYER_1
 10
40.77675300968767
 20
-5.421999085275996
 30
0.0
  0
VERTEX
  5
111
  8
LAYER_1
 10
40.73729069567783
 20
-5.396504319744345
 30
0.0
  0
VERTEX
  5
112
  8
LAYER_1
 10
40.69808534231689
 20
-5.370654310425982
 30
0.0
  0
VERTEX
  5
113
  8
LAYER_1
 10
40.65914054518214
 20
-5.344452849606722
 30
0.0
  0
VERTEX
  5
114
  8
LAYER_1
 10
40.62045989985086
 20
-5.317903729572382
 30
0.0
  0
VERTEX
  5
115
  8
LAYER_1
 10
40.58204700190034
 20
-5.291010742608777
 30
0.0
  0
VERTEX
  5
116
  8
LAYER_1
 10
40.54390544690786
 20
-5.263777681001722
 30
0.0
  0
VERTEX
  5
117
  8
LAYER_1
 10
40.50603883045071
 20
-5.236208337037034
 30
0.0
  0
VERTEX
  5
118
  8
LAYER_1
 10
40.46845074810616
 20
-5.20830650300053
 30
0.0
  0
VERTEX
  5
119
  8
LAYER_1
 10
40.43114479545152
 20
-5.180075971178025
 30
0.0
  0
VERTEX
  5
11A
  8
LAYER_1
 10
40.39412456806404
 20
-5.151520533855335
 30
0.0
  0
VERTEX
  5
11B
  8
LAYER_1
 10
40.35739366152104
 20
-5.122643983318275
 30
0.0
  0
VERTEX
  5
11C
  8
LAYER_1
 10
40.32095567139979
 20
-5.093450111852662
 30
0.0
  0
VERTEX
  5
11D
  8
LAYER_1
 10
40.28481419327757
 20
-5.063942711744311
 30
0.0
  0
VERTEX
  5
11E
  8
LAYER_1
 10
40.24897282273167
 20
-5.03412557527904
 30
0.0
  0
VERTEX
  5
11F
  8
LAYER_1
 10
40.21343515533938
 20
-5.004002494742663
 30
0.0
  0
VERTEX
  5
120
  8
LAYER_1
 10
40.17820478667797
 20
-4.973577262420995
 30
0.0
  0
VERTEX
  5
121
  8
LAYER_1
 10
40.14328531232474
 20
-4.942853670599854
 30
0.0
  0
VERTEX
  5
122
  8
LAYER_1
 10
40.10868032785696
 20
-4.911835511565055
 30
0.0
  0
VERTEX
  5
123
  8
LAYER_1
 10
40.07439342885192
 20
-4.880526577602414
 30
0.0
  0
VERTEX
  5
124
  8
LAYER_1
 10
40.04042821088692
 20
-4.848930660997747
 30
0.0
  0
VERTEX
  5
125
  8
LAYER_1
 10
40.00678826953921
 20
-4.817051554036871
 30
0.0
  0
VERTEX
  5
126
  8
LAYER_1
 10
39.97347720038612
 20
-4.7848930490056
 30
0.0
  0
VERTEX
  5
127
  8
LAYER_1
 10
39.9404985990049
 20
-4.752458938189751
 30
0.0
  0
VERTEX
  5
128
  8
LAYER_1
 10
39.90785606097285
 20
-4.71975301387514
 30
0.0
  0
VERTEX
  5
129
  8
LAYER_1
 10
39.87555318186724
 20
-4.686779068347581
 30
0.0
  0
VERTEX
  5
12A
  8
LAYER_1
 10
39.84359355726536
 20
-4.653540893892893
 30
0.0
  0
VERTEX
  5
12B
  8
LAYER_1
 10
39.8119807827445
 20
-4.620042282796891
 30
0.0
  0
VERTEX
  5
12C
  8
LAYER_1
 10
39.78071845388195
 20
-4.58628702734539
 30
0.0
  0
VERTEX
  5
12D
  8
LAYER_1
 10
39.74981016625499
 20
-4.552278919824206
 30
0.0
  0
VERTEX
  5
12E
  8
LAYER_1
 10
39.7192595154409
 20
-4.518021752519155
 30
0.0
  0
VERTEX
  5
12F
  8
LAYER_1
 10
39.68907009701696
 20
-4.483519317716054
 30
0.0
  0
VERTEX
  5
130
  8
LAYER_1
 10
39.65924550656047
 20
-4.448775407700715
 30
0.0
  0
VERTEX
  5
131
  8
LAYER_1
 10
39.6297893396487
 20
-4.413793814758959
 30
0.0
  0
VERTEX
  5
132
  8
LAYER_1
 10
39.60070519185895
 20
-4.3785783311766
 30
0.0
  0
VERTEX
  5
133
  8
LAYER_1
 10
39.5719966587685
 20
-4.343132749239453
 30
0.0
  0
VERTEX
  5
134
  8
LAYER_1
 10
39.54366733595462
 20
-4.307460861233336
 30
0.0
  0
VERTEX
  5
135
  8
LAYER_1
 10
39.5157208189946
 20
-4.271566459444062
 30
0.0
  0
VERTEX
  5
136
  8
LAYER_1
 10
39.48816070346574
 20
-4.23545333615745
 30
0.0
  0
VERTEX
  5
137
  8
LAYER_1
 10
39.46099058494531
 20
-4.199125283659314
 30
0.0
  0
VERTEX
  5
138
  8
LAYER_1
 10
39.4342140590106
 20
-4.16258609423547
 30
0.0
  0
VERTEX
  5
139
  8
LAYER_1
 10
39.40783472123888
 20
-4.125839560171736
 30
0.0
  0
VERTEX
  5
13A
  8
LAYER_1
 10
39.38185616720747
 20
-4.088889473753925
 30
0.0
  0
VERTEX
  5
13B
  8
LAYER_1
 10
39.35628199249363
 20
-4.051739627267854
 30
0.0
  0
VERTEX
  5
13C
  8
LAYER_1
 10
39.33111579267464
 20
-4.014393812999339
 30
0.0
  0
VERTEX
  5
13D
  8
LAYER_1
 10
39.30636116332779
 20
-3.976855823234197
 30
0.0
  0
VERTEX
  5
13E
  8
LAYER_1
 10
39.28202170003037
 20
-3.939129450258242
 30
0.0
  0
VERTEX
  5
13F
  8
LAYER_1
 10
39.25810099835967
 20
-3.901218486357291
 30
0.0
  0
VERTEX
  5
140
  8
LAYER_1
 10
39.23460265389295
 20
-3.863126723817159
 30
0.0
  0
VERTEX
  5
141
  8
LAYER_1
 10
39.21153026220752
 20
-3.824857954923663
 30
0.0
  0
VERTEX
  5
142
  8
LAYER_1
 10
39.18888741888065
 20
-3.786415971962619
 30
0.0
  0
VERTEX
  5
143
  8
LAYER_1
 10
39.16667771948963
 20
-3.747804567219842
 30
0.0
  0
VERTEX
  5
144
  8
LAYER_1
 10
39.14490475961174
 20
-3.709027532981149
 30
0.0
  0
VERTEX
  5
145
  8
LAYER_1
 10
39.12357213482428
 20
-3.670088661532355
 30
0.0
  0
VERTEX
  5
146
  8
LAYER_1
 10
39.10268344070452
 20
-3.630991745159276
 30
0.0
  0
VERTEX
  5
147
  8
LAYER_1
 10
39.08224227282975
 20
-3.591740576147728
 30
0.0
  0
VERTEX
  5
148
  8
LAYER_1
 10
39.06225222677725
 20
-3.552338946783528
 30
0.0
  0
VERTEX
  5
149
  8
LAYER_1
 10
39.0427168981243
 20
-3.512790649352491
 30
0.0
  0
VERTEX
  5
14A
  8
LAYER_1
 10
39.0236398824482
 20
-3.473099476140432
 30
0.0
  0
VERTEX
  5
14B
  8
LAYER_1
 10
39.00502477532623
 20
-3.433269219433169
 30
0.0
  0
VERTEX
  5
14C
  8
LAYER_1
 10
38.98687517233566
 20
-3.393303671516516
 30
0.0
  0
VERTEX
  5
14D
  8
LAYER_1
 10
38.96919466905379
 20
-3.353206624676289
 30
0.0
  0
VERTEX
  5
14E
  8
LAYER_1
 10
38.9519868610579
 20
-3.312981871198306
 30
0.0
  0
VERTEX
  5
14F
  8
LAYER_1
 10
38.93525534392528
 20
-3.272633203368381
 30
0.0
  0
VERTEX
  5
150
  8
LAYER_1
 10
38.91900371323321
 20
-3.23216441347233
 30
0.0
  0
VERTEX
  5
151
  8
LAYER_1
 10
38.90323556455897
 20
-3.19157929379597
 30
0.0
  0
VERTEX
  5
152
  8
LAYER_1
 10
38.88795449347985
 20
-3.150881636625115
 30
0.0
  0
VERTEX
  5
153
  8
LAYER_1
 10
38.3566544935675
 20
-1.338381636573814
 30
0.0
  0
VERTEX
  5
154
  8
LAYER_1
 10
38.35038212493755
 20
-1.319008186468704
 30
0.0
  0
VERTEX
  5
155
  8
LAYER_1
 10
38.34302350952761
 20
-1.299897713542813
 30
0.0
  0
VERTEX
  5
156
  8
LAYER_1
 10
38.33462064213586
 20
-1.281073305240193
 30
0.0
  0
VERTEX
  5
157
  8
LAYER_1
 10
38.32521551756048
 20
-1.262558049004897
 30
0.0
  0
VERTEX
  5
158
  8
LAYER_1
 10
38.31485013059965
 20
-1.244375032280976
 30
0.0
  0
VERTEX
  5
159
  8
LAYER_1
 10
38.30356647605156
 20
-1.226547342512483
 30
0.0
  0
VERTEX
  5
15A
  8
LAYER_1
 10
38.29140654871439
 20
-1.209098067143469
 30
0.0
  0
VERTEX
  5
15B
  8
LAYER_1
 10
38.27841234338634
 20
-1.192050293617987
 30
0.0
  0
VERTEX
  5
15C
  8
LAYER_1
 10
38.26462585486557
 20
-1.175427109380089
 30
0.0
  0
VERTEX
  5
15D
  8
LAYER_1
 10
38.25008907795028
 20
-1.159251601873827
 30
0.0
  0
VERTEX
  5
15E
  8
LAYER_1
 10
38.23484400743865
 20
-1.143546858543253
 30
0.0
  0
VERTEX
  5
15F
  8
LAYER_1
 10
38.21893263812886
 20
-1.128335966832419
 30
0.0
  0
VERTEX
  5
160
  8
LAYER_1
 10
38.20239696481911
 20
-1.113642014185377
 30
0.0
  0
VERTEX
  5
161
  8
LAYER_1
 10
38.18527898230757
 20
-1.09948808804618
 30
0.0
  0
VERTEX
  5
162
  8
LAYER_1
 10
38.16762068539242
 20
-1.08589727585888
 30
0.0
  0
VERTEX
  5
163
  8
LAYER_1
 10
38.14946406887186
 20
-1.072892665067528
 30
0.0
  0
VERTEX
  5
164
  8
LAYER_1
 10
38.13085112754407
 20
-1.060497343116177
 30
0.0
  0
VERTEX
  5
165
  8
LAYER_1
 10
38.11182385620722
 20
-1.048734397448878
 30
0.0
  0
VERTEX
  5
166
  8
LAYER_1
 10
38.09242424965952
 20
-1.037626915509685
 30
0.0
  0
VERTEX
  5
167
  8
LAYER_1
 10
38.07269430269912
 20
-1.027197984742649
 30
0.0
  0
VERTEX
  5
168
  8
LAYER_1
 10
38.05267601012423
 20
-1.017470692591822
 30
0.0
  0
VERTEX
  5
169
  8
LAYER_1
 10
38.03241136673303
 20
-1.008468126501257
 30
0.0
  0
VERTEX
  5
16A
  8
LAYER_1
 10
38.0119423673237
 20
-1.000213373915005
 30
0.0
  0
VERTEX
  5
16B
  8
LAYER_1
 10
37.99131100669443
 20
-0.9927295222771182
 30
0.0
  0
VERTEX
  5
16C
  8
LAYER_1
 10
37.9705592796434
 20
-0.9860396590316494
 30
0.0
  0
VERTEX
  5
16D
  8
LAYER_1
 10
37.9497291809688
 20
-0.9801668716226504
 30
0.0
  0
VERTEX
  5
16E
  8
LAYER_1
 10
37.92886270546881
 20
-0.9751342474941731
 30
0.0
  0
VERTEX
  5
16F
  8
LAYER_1
 10
37.90800184794161
 20
-0.9709648740902701
 30
0.0
  0
VERTEX
  5
170
  8
LAYER_1
 10
37.88718860318538
 20
-0.9676818388549931
 30
0.0
  0
VERTEX
  5
171
  8
LAYER_1
 10
37.86646496599831
 20
-0.9653082292323943
 30
0.0
  0
VERTEX
  5
172
  8
LAYER_1
 10
37.8458729311786
 20
-0.963867132666526
 30
0.0
  0
VERTEX
  5
173
  8
LAYER_1
 10
37.82545449352441
 20
-0.96338163660144
 30
0.0
  0
VERTEX
  5
174
  8
LAYER_1
 10
0.4504544935533445
 20
-0.9633816365830228
 30
0.0
  0
VERTEX
  5
175
  8
LAYER_1
 10
0.4504544935533445
 20
-24.96338163658321
 30
0.0
  0
VERTEX
  5
176
  8
LAYER_1
 10
62.6379544935492
 20
-24.96338163658321
 30
0.0
  0
VERTEX
  5
177
  8
LAYER_1
 10
72.45045449352382
 20
-15.27588163658766
 30
0.0
  0
VERTEX
  5
178
  8
LAYER_1
 10
72.4689478513663
 20
-15.25702655815421
 30
0.0
  0
VERTEX
  5
179
  8
LAYER_1
 10
72.48706205334997
 20
-15.23731267674791
 30
0.0
  0
VERTEX
  5
17A
  8
LAYER_1
 10
72.50468478693449
 20
-15.21679309524679
 30
0.0
  0
VERTEX
  5
17B
  8
LAYER_1
 10
72.52170373957951
 20
-15.19552091652888
 30
0.0
  0
VERTEX
  5
17C
  8
LAYER_1
 10
72.53800659874472
 20
-15.17354924347223
 30
0.0
  0
VERTEX
  5
17D
  8
LAYER_1
 10
72.55348105188978
 20
-15.15093117895486
 30
0.0
  0
VERTEX
  5
17E
  8
LAYER_1
 10
72.56801478647435
 20
-15.12771982585483
 30
0.0
  0
VERTEX
  5
17F
  8
LAYER_1
 10
72.57489378663759
 20
-15.11590826073569
 30
0.0
  0
VERTEX
  5
180
  8
LAYER_1
 10
72.58149548995807
 20
-15.10396828705015
 30
0.0
  0
VERTEX
  5
181
  8
LAYER_1
 10
72.58780585736827
 20
-15.09190654265796
 30
0.0
  0
VERTEX
  5
182
  8
LAYER_1
 10
72.59381084980063
 20
-15.07972966541888
 30
0.0
  0
VERTEX
  5
183
  8
LAYER_1
 10
72.59949642818765
 20
-15.06744429319265
 30
0.0
  0
VERTEX
  5
184
  8
LAYER_1
 10
72.60484855346172
 20
-15.05505706383904
 30
0.0
  0
VERTEX
  5
185
  8
LAYER_1
 10
72.60985318655534
 20
-15.0425746152178
 30
0.0
  0
VERTEX
  5
186
  8
LAYER_1
 10
72.61449628840097
 20
-15.03000358518868
 30
0.0
  0
VERTEX
  5
187
  8
LAYER_1
 10
72.61876381993105
 20
-15.01735061161144
 30
0.0
  0
VERTEX
  5
188
  8
LAYER_1
 10
72.62264174207802
 20
-15.00462233234583
 30
0.0
  0
VERTEX
  5
189
  8
LAYER_1
 10
72.62611601577437
 20
-14.99182538525161
 30
0.0
  0
VERTEX
  5
18A
  8
LAYER_1
 10
72.62917260195258
 20
-14.97896640818853
 30
0.0
  0
VERTEX
  5
18B
  8
LAYER_1
 10
72.63179746154506
 20
-14.96605203901634
 30
0.0
  0
VERTEX
  5
18C
  8
LAYER_1
 10
72.63397655548428
 20
-14.95308891559481
 30
0.0
  0
VERTEX
  5
18D
  8
LAYER_1
 10
72.63569584470272
 20
-14.94008367578368
 30
0.0
  0
VERTEX
  5
18E
  8
LAYER_1
 10
72.63694129013282
 20
-14.92704295744272
 30
0.0
  0
VERTEX
  5
18F
  8
LAYER_1
 10
72.63769885270705
 20
-14.91397339843166
 30
0.0
  0
VERTEX
  5
190
  8
LAYER_1
 10
72.63795449335784
 20
-14.90088163661028
 30
0.0
  0
VERTEX
  5
191
  8
LAYER_1
 10
72.63795449327482
 20
-3.213381636666554
 30
0.0
  0
VERTEX
  5
192
  8
LAYER_1
 10
72.63770355618405
 20
-3.200244273684993
 30
0.0
  0
VERTEX
  5
193
  8
LAYER_1
 10
72.63695698930562
 20
-3.18711050359313
 30
0.0
  0
VERTEX
  5
194
  8
LAYER_1
 10
72.63572415923
 20
-3.173986831958486
 30
0.0
  0
VERTEX
  5
195
  8
LAYER_1
 10
72.63401443254762
 20
-3.160879764348583
 30
0.0
  0
VERTEX
  5
196
  8
LAYER_1
 10
72.631837175849
 20
-3.147795806330942
 30
0.0
  0
VERTEX
  5
197
  8
LAYER_1
 10
72.62920175572461
 20
-3.134741463473086
 30
0.0
  0
VERTEX
  5
198
  8
LAYER_1
 10
72.62611753876493
 20
-3.121723241342536
 30
0.0
  0
VERTEX
  5
199
  8
LAYER_1
 10
72.62259389156043
 20
-3.108747645506813
 30
0.0
  0
VERTEX
  5
19A
  8
LAYER_1
 10
72.61864018070159
 20
-3.095821181533441
 30
0.0
  0
VERTEX
  5
19B
  8
LAYER_1
 10
72.61426577277891
 20
-3.082950354989939
 30
0.0
  0
VERTEX
  5
19C
  8
LAYER_1
 10
72.60948003438284
 20
-3.070141671443831
 30
0.0
  0
VERTEX
  5
19D
  8
LAYER_1
 10
72.60429233210385
 20
-3.057401636462637
 30
0.0
  0
VERTEX
  5
19E
  8
LAYER_1
 10
72.59871203253246
 20
-3.04473675561388
 30
0.0
  0
VERTEX
  5
19F
  8
LAYER_1
 10
72.5927485022591
 20
-3.032153534465081
 30
0.0
  0
VERTEX
  5
1A0
  8
LAYER_1
 10
72.58641110787427
 20
-3.019658478583762
 30
0.0
  0
VERTEX
  5
1A1
  8
LAYER_1
 10
72.57970921596845
 20
-3.007258093537445
 30
0.0
  0
VERTEX
  5
1A2
  8
LAYER_1
 10
72.57265219313211
 20
-2.994958884893651
 30
0.0
  0
VERTEX
  5
1A3
  8
LAYER_1
 10
72.56524940595574
 20
-2.982767358219903
 30
0.0
  0
VERTEX
  5
1A4
  8
LAYER_1
 10
72.55751022102982
 20
-2.970690019083722
 30
0.0
  0
VERTEX
  5
1A5
  8
LAYER_1
 10
72.5494440049448
 20
-2.958733373052629
 30
0.0
  0
VERTEX
  5
1A6
  8
LAYER_1
 10
72.54106012429118
 20
-2.946903925694147
 30
0.0
  0
VERTEX
  5
1A7
  8
LAYER_1
 10
72.53236794565944
 20
-2.935208182575797
 30
0.0
  0
VERTEX
  5
1A8
  8
LAYER_1
 10
72.52337683564005
 20
-2.923652649265101
 30
0.0
  0
VERTEX
  5
1A9
  8
LAYER_1
 10
72.5140961608235
 20
-2.912243831329581
 30
0.0
  0
VERTEX
  5
1AA
  8
LAYER_1
 10
72.50453528780024
 20
-2.900988234336758
 30
0.0
  0
VERTEX
  5
1AB
  8
LAYER_1
 10
72.49470358316077
 20
-2.889892363854155
 30
0.0
  0
VERTEX
  5
1AC
  8
LAYER_1
 10
72.48461041349556
 20
-2.878962725449292
 30
0.0
  0
VERTEX
  5
1AD
  8
LAYER_1
 10
72.4742651453951
 20
-2.868205824689693
 30
0.0
  0
VERTEX
  5
1AE
  8
LAYER_1
 10
72.45285578025027
 20
-2.847236258376368
 30
0.0
  0
VERTEX
  5
1AF
  8
LAYER_1
 10
72.43055042045015
 20
-2.827035709454355
 30
0.0
  0
VERTEX
  5
1B0
  8
LAYER_1
 10
72.40742399871854
 20
-2.807656222463828
 30
0.0
  0
VERTEX
  5
1B1
  8
LAYER_1
 10
72.38355144777927
 20
-2.789149841944961
 30
0.0
  0
VERTEX
  5
1B2
  8
LAYER_1
 10
72.35900770035613
 20
-2.771568612437927
 30
0.0
  0
VERTEX
  5
1B3
  8
LAYER_1
 10
72.33386768917299
 20
-2.754964578482902
 30
0.0
  0
VERTEX
  5
1B4
  8
LAYER_1
 10
72.30820634695365
 20
-2.739389784620057
 30
0.0
  0
VERTEX
  5
1B5
  8
LAYER_1
 10
72.28209860642191
 20
-2.724896275389568
 30
0.0
  0
VERTEX
  5
1B6
  8
LAYER_1
 10
72.25561940030161
 20
-2.711536095331609
 30
0.0
  0
VERTEX
  5
1B7
  8
LAYER_1
 10
72.24226391412196
 20
-2.705297267661132
 30
0.0
  0
VERTEX
  5
1B8
  8
LAYER_1
 10
72.2288436613166
 20
-2.699361288986354
 30
0.0
  0
VERTEX
  5
1B9
  8
LAYER_1
 10
72.21536800847602
 20
-2.693734664874794
 30
0.0
  0
VERTEX
  5
1BA
  8
LAYER_1
 10
72.20184632219068
 20
-2.688423900893975
 30
0.0
  0
VERTEX
  5
1BB
  8
LAYER_1
 10
72.18828796905106
 20
-2.68343550261142
 30
0.0
  0
VERTEX
  5
1BC
  8
LAYER_1
 10
72.17470231564764
 20
-2.678775975594649
 30
0.0
  0
VERTEX
  5
1BD
  8
LAYER_1
 10
72.16109872857092
 20
-2.674451825411184
 30
0.0
  0
VERTEX
  5
1BE
  8
LAYER_1
 10
72.14748657441135
 20
-2.670469557628547
 30
0.0
  0
VERTEX
  5
1BF
  8
LAYER_1
 10
72.1338752197594
 20
-2.66683567781426
 30
0.0
  0
VERTEX
  5
1C0
  8
LAYER_1
 10
72.1202740312056
 20
-2.663556691535844
 30
0.0
  0
VERTEX
  5
1C1
  8
LAYER_1
 10
72.10669237534037
 20
-2.660639104360822
 30
0.0
  0
VERTEX
  5
1C2
  8
LAYER_1
 10
72.09313961875422
 20
-2.658089421856715
 30
0.0
  0
VERTEX
  5
1C3
  8
LAYER_1
 10
72.0796251280376
 20
-2.655914149591045
 30
0.0
  0
VERTEX
  5
1C4
  8
LAYER_1
 10
72.06615826978103
 20
-2.654119793131334
 30
0.0
  0
VERTEX
  5
1C5
  8
LAYER_1
 10
72.05274841057496
 20
-2.652712858045103
 30
0.0
  0
VERTEX
  5
1C6
  8
LAYER_1
 10
72.03940491700988
 20
-2.651699849899873
 30
0.0
  0
VERTEX
  5
1C7
  8
LAYER_1
 10
72.02613715567622
 20
-2.651087274263168
 30
0.0
  0
SEQEND
  5
47B
  8
LAYER_1
  0
POLYLINE
  5
71
  8
LAYER_1
 66
     1
 10
0.0
 20
0.0
 30
0.0
 70
     1
  0
VERTEX
  5
1C8
  8
LAYER_1
 10
35.88795449355334
 20
-8.47588163658321
 30
0.0
 42
0.4142135623730951
  0
VERTEX
  5
1C9
  8
LAYER_1
 10
35.71295449355335
 20
-8.650881636583222
 30
0.0
 42
0.4142135623730951
  0
VERTEX
  5
1CA
  8
LAYER_1
 10
35.88795449355334
 20
-8.825881636583219
 30
0.0
 42
0.4142135623730951
  0
VERTEX
  5
1CB
  8
LAYER_1
 10
36.06295449355334
 20
-8.650881636583222
 30
0.0
 42
0.4142135623730951
  0
SEQEND
  5
47C
  8
LAYER_1
  0
POLYLINE
  5
72
  8
LAYER_1
 66
     1
 10
0.0
 20
0.0
 30
0.0
 70
     1
  0
VERTEX
  5
1CC
  8
LAYER_1
 10
38.82545449355334
 20
-15.78838163658321
 30
0.0
 42
0.4142135623730951
  0
VERTEX
  5
1CD
  8
LAYER_1
 10
38.65045449355335
 20
-15.96338163658321
 30
0.0
 42
0.4142135623730951
  0
VERTEX
  5
1CE
  8
LAYER_1
 10
38.82545449355334
 20
-16.13838163658322
 30
0.0
 42
0.4142135623730951
  0
VERTEX
  5
1CF
  8
LAYER_1
 10
39.00045449355334
 20
-15.96338163658321
 30
0.0
 42
0.4142135623730951
  0
SEQEND
  5
47D
  8
LAYER_1
  0
POLYLINE
  5
73
  8
LAYER_1
 66
     1
 10
0.0
 20
0.0
 30
0.0
 70
     1
  0
VERTEX
  5
1D0
  8
LAYER_1
 10
13.95045449355334
 20
-22.06838163658321
 30
0.0
 42
0.4142135623730951
  0
VERTEX
  5
1D1
  8
LAYER_1
 10
13.80545449355334
 20
-22.21338163658321
 30
0.0
 42
0.4142135623730951
  0
VERTEX
  5
1D2
  8
LAYER_1
 10
13.95045449355334
 20
-22.35838163658322
 30
0.0
 42
0.4142135623730951
  0
VERTEX
  5
1D3
  8
LAYER_1
 10
14.09545449355335
 20
-22.21338163658321
 30
0.0
 42
0.4142135623730951
  0
SEQEND
  5
47E
  8
LAYER_1
  0
POLYLINE
  5
74
  8
LAYER_1
 66
     1
 10
0.0
 20
0.0
 30
0.0
 70
     1
  0
VERTEX
  5
1D4
  8
LAYER_1
 10
13.95045449355334
 20
-11.38088163658321
 30
0.0
 42
0.4142135623730951
  0
VERTEX
  5
1D5
  8
LAYER_1
 10
13.80545449355334
 20
-11.52588163658321
 30
0.0
 42
0.4142135623730951
  0
VERTEX
  5
1D6
  8
LAYER_1
 10
13.95045449355334
 20
-11.67088163658322
 30
0.0
 42
0.4142135623730951
  0
VERTEX
  5
1D7
  8
LAYER_1
 10
14.09545449355335
 20
-11.52588163658321
 30
0.0
 42
0.4142135623730951
  0
SEQEND
  5
47F
  8
LAYER_1
  0
POLYLINE
  5
75
  8
LAYER_1
 66
     1
 10
0.0
 20
0.0
 30
0.0
 70
     1
  0
VERTEX
  5
1D8
  8
LAYER_1
 10
24.38795449355334
 20
-22.06838163658321
 30
0.0
 42
0.4142135623730951
  0
VERTEX
  5
1D9
  8
LAYER_1
 10
24.24295449355334
 20
-22.21338163658321
 30
0.0
 42
0.4142135623730951
  0
VERTEX
  5
1DA
  8
LAYER_1
 10
24.38795449355334
 20
-22.35838163658322
 30
0.0
 42
0.4142135623730951
  0
VERTEX
  5
1DB
  8
LAYER_1
 10
24.53295449355335
 20
-22.21338163658321
 30
0.0
 42
0.4142135623730951
  0
SEQEND
  5
480
  8
LAYER_1
  0
POLYLINE
  5
76
  8
LAYER_1
 66
     1
 10
0.0
 20
0.0
 30
0.0
 70
     1
  0
VERTEX
  5
1DC
  8
LAYER_1
 10
24.38795449355334
 20
-11.38088163658321
 30
0.0
 42
0.4142135623730951
  0
VERTEX
  5
1DD
  8
LAYER_1
 10
24.24295449355334
 20
-11.52588163658321
 30
0.0
 42
0.4142135623730951
  0
VERTEX
  5
1DE
  8
LAYER_1
 10
24.38795449355334
 20
-11.67088163658322
 30
0.0
 42
0.4142135623730951
  0
VERTEX
  5
1DF
  8
LAYER_1
 10
24.53295449355335
 20
-11.52588163658321
 30
0.0
 42
0.4142135623730951
  0
SEQEND
  5
481
  8
LAYER_1
  0
POLYLINE
  5
77
  8
LAYER_1
 66
     1
 10
0.0
 20
0.0
 30
0.0
 70
     1
  0
VERTEX
  5
1E0
  8
LAYER_1
 10
161.0899274220321
 20
-25.95861672794114
 30
0.0
  0
VERTEX
  5
1E1
  8
LAYER_1
 10
161.0899274220321
 20
-2.458616727941148
 30
0.0
  0
VERTEX
  5
1E2
  8
LAYER_1
 10
122.3399274220321
 20
-2.458616727941148
 30
0.0
  0
VERTEX
  5
1E3
  8
LAYER_1
 10
122.3399274220321
 20
-25.95861672794114
 30
0.0
  0
SEQEND
  5
482
  8
LAYER_1
  0
POLYLINE
  5
78
  8
LAYER_1
 66
     1
 10
0.0
 20
0.0
 30
0.0
 70
     1
  0
VERTEX
  5
1E4
  8
LAYER_1
 10
126.4649274220321
 20
-16.70861672794115
 30
0.0
  0
VERTEX
  5
1E5
  8
LAYER_1
 10
126.4649274220321
 20
-11.70861672794115
 30
0.0
  0
VERTEX
  5
1E6
  8
LAYER_1
 10
125.4649274220321
 20
-11.70861672794115
 30
0.0
  0
VERTEX
  5
1E7
  8
LAYER_1
 10
125.4649274220321
 20
-16.70861672794115
 30
0.0
  0
SEQEND
  5
483
  8
LAYER_1
  0
POLYLINE
  5
79
  8
LAYER_1
 66
     1
 10
0.0
 20
0.0
 30
0.0
 70
     1
  0
VERTEX
  5
1E8
  8
LAYER_1
 10
123.0699274220321
 20
-14.20861672794115
 30
0.0
 42
0.4142135623730951
  0
VERTEX
  5
1E9
  8
LAYER_1
 10
123.4549274220322
 20
-14.59361672794114
 30
0.0
 42
0.4142135623730951
  0
VERTEX
  5
1EA
  8
LAYER_1
 10
123.8399274220321
 20
-14.20861672794115
 30
0.0
 42
0.4142135623730951
  0
VERTEX
  5
1EB
  8
LAYER_1
 10
123.4549274220322
 20
-13.82361672794113
 30
0.0
 42
0.4142135623730951
  0
SEQEND
  5
484
  8
LAYER_1
  0
POLYLINE
  5
7A
  8
LAYER_1
 66
     1
 10
0.0
 20
0.0
 30
0.0
 70
     1
  0
VERTEX
  5
1EC
  8
LAYER_1
 10
150.702699663642
 20
32.85005779685546
 30
0.0
  0
VERTEX
  5
1ED
  8
LAYER_1
 10
155.890199663642
 20
27.84955779685546
 30
0.0
  0
VERTEX
  5
1EE
  8
LAYER_1
 10
167.640199663642
 20
27.84955779685546
 30
0.0
  0
VERTEX
  5
1EF
  8
LAYER_1
 10
167.640199663642
 20
51.41205779685546
 30
0.0
  0
VERTEX
  5
1F0
  8
LAYER_1
 10
155.890199663642
 20
51.41205779685546
 30
0.0
  0
VERTEX
  5
1F1
  8
LAYER_1
 10
150.702699663642
 20
46.41155779685545
 30
0.0
  0
SEQEND
  5
485
  8
LAYER_1
  0
POLYLINE
  5
7B
  8
LAYER_1
 66
     1
 10
0.0
 20
0.0
 30
0.0
 70
     1
  0
VERTEX
  5
1F2
  8
LAYER_1
 10
115.5495040591767
 20
-11.70027844136047
 30
0.0
 42
0.4142135623730951
  0
VERTEX
  5
1F3
  8
LAYER_1
 10
114.5495040591767
 20
-12.70027844136047
 30
0.0
 42
0.4142135623730951
  0
VERTEX
  5
1F4
  8
LAYER_1
 10
115.5495040591767
 20
-13.70027844136047
 30
0.0
 42
0.4142135623730951
  0
VERTEX
  5
1F5
  8
LAYER_1
 10
116.5495040591767
 20
-12.70027844136047
 30
0.0
 42
0.4142135623730951
  0
SEQEND
  5
486
  8
LAYER_1
  0
POLYLINE
  5
7C
  8
LAYER_1
 66
     1
 10
0.0
 20
0.0
 30
0.0
 70
     1
  0
VERTEX
  5
1F6
  8
LAYER_1
 10
102.4870040591767
 20
-23.32477844136046
 30
0.0
 42
0.4142135623730951
  0
VERTEX
  5
1F7
  8
LAYER_1
 10
102.3615040591767
 20
-23.45027844136046
 30
0.0
 42
0.4142135623730951
  0
VERTEX
  5
1F8
  8
LAYER_1
 10
102.4870040591767
 20
-23.57577844136046
 30
0.0
 42
0.4142135623730951
  0
VERTEX
  5
1F9
  8
LAYER_1
 10
102.6125040591767
 20
-23.45027844136046
 30
0.0
 42
0.4142135623730951
  0
SEQEND
  5
487
  8
LAYER_1
  0
POLYLINE
  5
7D
  8
LAYER_1
 66
     1
 10
0.0
 20
0.0
 30
0.0
 70
     1
  0
VERTEX
  5
1FA
  8
LAYER_1
 10
115.2370040591767
 20
-23.32477844136046
 30
0.0
 42
0.4142135623730951
  0
VERTEX
  5
1FB
  8
LAYER_1
 10
115.1115040591767
 20
-23.45027844136046
 30
0.0
 42
0.4142135623730951
  0
VERTEX
  5
1FC
  8
LAYER_1
 10
115.2370040591767
 20
-23.57577844136046
 30
0.0
 42
0.4142135623730951
  0
VERTEX
  5
1FD
  8
LAYER_1
 10
115.3625040591767
 20
-23.45027844136046
 30
0.0
 42
0.4142135623730951
  0
SEQEND
  5
488
  8
LAYER_1
  0
POLYLINE
  5
7E
  8
LAYER_1
 66
     1
 10
0.0
 20
0.0
 30
0.0
 70
     1
  0
VERTEX
  5
1FE
  8
LAYER_1
 10
97.23700405917674
 20
-23.70027844136046
 30
0.0
  0
VERTEX
  5
1FF
  8
LAYER_1
 10
120.7995040591767
 20
-23.70027844136046
 30
0.0
  0
VERTEX
  5
200
  8
LAYER_1
 10
120.7995040591767
 20
-6.450278441360467
 30
0.0
  0
VERTEX
  5
201
  8
LAYER_1
 10
97.23700405917674
 20
-6.450278441360467
 30
0.0
  0
SEQEND
  5
489
  8
LAYER_1
  0
POLYLINE
  5
7F
  8
LAYER_1
 66
     1
 10
0.0
 20
0.0
 30
0.0
 70
     1
  0
VERTEX
  5
202
  8
LAYER_1
 10
67.13274520920008
 20
-24.96416744821043
 30
0.0
  0
VERTEX
  5
203
  8
LAYER_1
 10
78.88274520920008
 20
-24.96416744821043
 30
0.0
  0
VERTEX
  5
204
  8
LAYER_1
 10
78.88274520920008
 20
-22.21416744821043
 30
0.0
  0
VERTEX
  5
205
  8
LAYER_1
 10
67.13274520920008
 20
-22.21416744821043
 30
0.0
  0
SEQEND
  5
48A
  8
LAYER_1
  0
POLYLINE
  5
80
  8
LAYER_1
 66
     1
 10
0.0
 20
0.0
 30
0.0
 70
     1
  0
VERTEX
  5
206
  8
LAYER_1
 10
76.78245961051604
 20
-18.88609233189273
 30
0.0
  0
VERTEX
  5
207
  8
LAYER_1
 10
69.78245961051604
 20
-18.88609233189273
 30
0.0
  0
VERTEX
  5
208
  8
LAYER_1
 10
69.78245961051604
 20
-21.19859233189273
 30
0.0
  0
VERTEX
  5
209
  8
LAYER_1
 10
76.78245961051604
 20
-21.19859233189273
 30
0.0
  0
SEQEND
  5
48B
  8
LAYER_1
  0
POLYLINE
  5
81
  8
LAYER_1
 66
     1
 10
0.0
 20
0.0
 30
0.0
 70
     1
  0
VERTEX
  5
20A
  8
LAYER_1
 10
76.65653090971693
 20
-17.26036399738844
 30
0.0
  0
VERTEX
  5
20B
  8
LAYER_1
 10
76.65653090971693
 20
-3.260363997388446
 30
0.0
  0
VERTEX
  5
20C
  8
LAYER_1
 10
73.65653090971693
 20
-3.260363997388446
 30
0.0
  0
VERTEX
  5
20D
  8
LAYER_1
 10
73.65653090971693
 20
-17.26036399738844
 30
0.0
  0
SEQEND
  5
48C
  8
LAYER_1
  0
POLYLINE
  5
82
  8
LAYER_1
 66
     1
 10
0.0
 20
0.0
 30
0.0
 70
     1
  0
VERTEX
  5
20E
  8
LAYER_1
 10
162.1722496357159
 20
-5.837494169748481
 30
0.0
  0
VERTEX
  5
20F
  8
LAYER_1
 10
176.1722496357159
 20
-5.837494169748481
 30
0.0
  0
VERTEX
  5
210
  8
LAYER_1
 10
176.1722496357159
 20
-2.837494169748481
 30
0.0
  0
VERTEX
  5
211
  8
LAYER_1
 10
162.1722496357159
 20
-2.837494169748481
 30
0.0
  0
SEQEND
  5
48D
  8
LAYER_1
  0
POLYLINE
  5
83
  8
LAYER_1
 66
     1
 10
0.0
 20
0.0
 30
0.0
 70
     1
  0
VERTEX
  5
212
  8
LAYER_1
 10
173.2527369290896
 20
-23.87021937677994
 30
0.0
  0
VERTEX
  5
213
  8
LAYER_1
 10
173.2527369290896
 20
-7.120219376779943
 30
0.0
  0
VERTEX
  5
214
  8
LAYER_1
 10
162.5027369290896
 20
-7.120219376779943
 30
0.0
  0
VERTEX
  5
215
  8
LAYER_1
 10
162.5027369290896
 20
-23.87021937677993
 30
0.0
  0
SEQEND
  5
48E
  8
LAYER_1
  0
POLYLINE
  5
84
  8
LAYER_1
 66
     1
 10
0.0
 20
0.0
 30
0.0
 70
     1
  0
VERTEX
  5
216
  8
LAYER_1
 10
119.3092382853076
 20
-4.915373826452992
 30
0.0
  0
VERTEX
  5
217
  8
LAYER_1
 10
119.3092382853076
 20
-3.465373826453003
 30
0.0
  0
VERTEX
  5
218
  8
LAYER_1
 10
98.8792382853076
 20
-3.465373826453003
 30
0.0
  0
VERTEX
  5
219
  8
LAYER_1
 10
98.8792382853076
 20
-4.915373826452992
 30
0.0
  0
SEQEND
  5
48F
  8
LAYER_1
  0
POLYLINE
  5
85
  8
LAYER_1
 66
     1
 10
0.0
 20
0.0
 30
0.0
 70
     1
  0
VERTEX
  5
21A
  8
LAYER_1
 10
82.49602742203214
 20
-24.03141672794114
 30
0.0
  0
VERTEX
  5
21B
  8
LAYER_1
 10
88.48630779586391
 20
-24.03141672794114
 30
0.0
  0
VERTEX
  5
21C
  8
LAYER_1
 10
88.48630779586391
 20
-4.001416727941148
 30
0.0
  0
VERTEX
  5
21D
  8
LAYER_1
 10
82.49602742203214
 20
-4.001416727941148
 30
0.0
  0
SEQEND
  5
490
  8
LAYER_1
  0
POLYLINE
  5
86
  8
LAYER_1
 66
     1
 10
0.0
 20
0.0
 30
0.0
 70
     1
  0
VERTEX
  5
21E
  8
LAYER_1
 10
89.93829484406814
 20
-22.72386784282108
 30
0.0
  0
VERTEX
  5
21F
  8
LAYER_1
 10
95.92857521789992
 20
-22.72386784282108
 30
0.0
  0
VERTEX
  5
220
  8
LAYER_1
 10
95.92857521789992
 20
-2.693867842821078
 30
0.0
  0
VERTEX
  5
221
  8
LAYER_1
 10
89.93829484406814
 20
-2.693867842821078
 30
0.0
  0
SEQEND
  5
491
  8
LAYER_1
  0
POLYLINE
  5
87
  8
LAYER_1
 66
     1
 10
0.0
 20
0.0
 30
0.0
 70
     1
  0
VERTEX
  5
222
  8
LAYER_1
 10
60.41950863985699
 20
17.48749999999999
 30
0.0
 42
-0.4142135623730951
  0
VERTEX
  5
223
  8
LAYER_1
 10
60.59450863985697
 20
17.31249999999999
 30
0.0
 42
-0.4142135623730951
  0
VERTEX
  5
224
  8
LAYER_1
 10
60.41950863985699
 20
17.13749999999997
 30
0.0
 42
-0.4142135623730951
  0
VERTEX
  5
225
  8
LAYER_1
 10
60.24450863985697
 20
17.31249999999998
 30
0.0
 42
-0.4142135623730951
  0
SEQEND
  5
492
  8
LAYER_1
  0
POLYLINE
  5
88
  8
LAYER_1
 66
     1
 10
0.0
 20
0.0
 30
0.0
 70
     1
  0
VERTEX
  5
226
  8
LAYER_1
 10
57.48200863985696
 20
10.17499999999999
 30
0.0
 42
-0.4142135623730951
  0
VERTEX
  5
227
  8
LAYER_1
 10
57.65700863985697
 20
9.999999999999993
 30
0.0
 42
-0.4142135623730951
  0
VERTEX
  5
228
  8
LAYER_1
 10
57.48200863985696
 20
9.824999999999989
 30
0.0
 42
-0.4142135623730951
  0
VERTEX
  5
229
  8
LAYER_1
 10
57.30700863985697
 20
9.999999999999993
 30
0.0
 42
-0.4142135623730951
  0
SEQEND
  5
493
  8
LAYER_1
  0
POLYLINE
  5
89
  8
LAYER_1
 66
     1
 10
0.0
 20
0.0
 30
0.0
 70
     1
  0
VERTEX
  5
22A
  8
LAYER_1
 10
24.29450864024574
 20
23.3124999998807
 30
0.0
  0
VERTEX
  5
22B
  8
LAYER_1
 10
32.85700863995416
 20
23.31249999996561
 30
0.0
  0
VERTEX
  5
22C
  8
LAYER_1
 10
52.73200863979042
 20
19.81250000002883
 30
0.0
  0
VERTEX
  5
22D
  8
LAYER_1
 10
52.78038035159542
 20
19.80856331658582
 30
0.0
  0
VERTEX
  5
22E
  8
LAYER_1
 10
52.82871802854315
 20
19.8052169986501
 30
0.0
  0
VERTEX
  5
22F
  8
LAYER_1
 10
52.87701807505635
 20
19.80245725393587
 30
0.0
  0
VERTEX
  5
230
  8
LAYER_1
 10
52.92527689555772
 20
19.8002802901573
 30
0.0
  0
VERTEX
  5
231
  8
LAYER_1
 10
52.97349089446998
 20
19.79868231502859
 30
0.0
  0
VERTEX
  5
232
  8
LAYER_1
 10
53.02165647621583
 20
19.79765953626391
 30
0.0
  0
VERTEX
  5
233
  8
LAYER_1
 10
53.06977004521801
 20
19.79720816157746
 30
0.0
  0
VERTEX
  5
234
  8
LAYER_1
 10
53.11782800589923
 20
19.79732439868341
 30
0.0
  0
VERTEX
  5
235
  8
LAYER_1
 10
53.16582676268219
 20
19.79800445529594
 30
0.0
  0
VERTEX
  5
236
  8
LAYER_1
 10
53.21376271998963
 20
19.79924453912925
 30
0.0
  0
VERTEX
  5
237
  8
LAYER_1
 10
53.26163228224424
 20
19.80104085789751
 30
0.0
  0
VERTEX
  5
238
  8
LAYER_1
 10
53.30943185386876
 20
19.80338961931492
 30
0.0
  0
VERTEX
  5
239
  8
LAYER_1
 10
53.35715783928588
 20
19.80628703109565
 30
0.0
  0
VERTEX
  5
23A
  8
LAYER_1
 10
53.40480664291833
 20
19.80972930095389
 30
0.0
  0
VERTEX
  5
23B
  8
LAYER_1
 10
53.45237466918883
 20
19.81371263660381
 30
0.0
  0
VERTEX
  5
23C
  8
LAYER_1
 10
53.49985832252008
 20
19.81823324575962
 30
0.0
  0
VERTEX
  5
23D
  8
LAYER_1
 10
53.5472540073348
 20
19.82328733613549
 30
0.0
  0
VERTEX
  5
23E
  8
LAYER_1
 10
53.59455812805571
 20
19.8288711154456
 30
0.0
  0
VERTEX
  5
23F
  8
LAYER_1
 10
53.64176708910553
 20
19.83498079140414
 30
0.0
  0
VERTEX
  5
240
  8
LAYER_1
 10
53.68887729490697
 20
19.84161257172529
 30
0.0
  0
VERTEX
  5
241
  8
LAYER_1
 10
53.73588514988275
 20
19.84876266412324
 30
0.0
  0
VERTEX
  5
242
  8
LAYER_1
 10
53.78278705845558
 20
19.85642727631217
 30
0.0
  0
VERTEX
  5
243
  8
LAYER_1
 10
53.82957942504817
 20
19.86460261600627
 30
0.0
  0
VERTEX
  5
244
  8
LAYER_1
 10
53.87625865408324
 20
19.87328489091971
 30
0.0
  0
VERTEX
  5
245
  8
LAYER_1
 10
53.92282114998351
 20
19.88247030876669
 30
0.0
  0
VERTEX
  5
246
  8
LAYER_1
 10
53.96926331717169
 20
19.89215507726139
 30
0.0
  0
VERTEX
  5
247
  8
LAYER_1
 10
54.0155815600705
 20
19.90233540411799
 30
0.0
  0
VERTEX
  5
248
  8
LAYER_1
 10
54.06177228310265
 20
19.91300749705067
 30
0.0
  0
VERTEX
  5
249
  8
LAYER_1
 10
54.10783189069085
 20
19.92416756377363
 30
0.0
  0
VERTEX
  5
24A
  8
LAYER_1
 10
54.15375678725783
 20
19.93581181200103
 30
0.0
  0
VERTEX
  5
24B
  8
LAYER_1
 10
54.19954337722631
 20
19.94793644944708
 30
0.0
  0
VERTEX
  5
24C
  8
LAYER_1
 10
54.24518806501899
 20
19.96053768382594
 30
0.0
  0
VERTEX
  5
24D
  8
LAYER_1
 10
54.29068725505858
 20
19.97361172285182
 30
0.0
  0
VERTEX
  5
24E
  8
LAYER_1
 10
54.33603735176781
 20
19.98715477423888
 30
0.0
  0
VERTEX
  5
24F
  8
LAYER_1
 10
54.3812347595694
 20
20.00116304570132
 30
0.0
  0
VERTEX
  5
250
  8
LAYER_1
 10
54.42627588288605
 20
20.01563274495332
 30
0.0
  0
VERTEX
  5
251
  8
LAYER_1
 10
54.47115712614047
 20
20.03056007970905
 30
0.0
  0
VERTEX
  5
252
  8
LAYER_1
 10
54.5158748937554
 20
20.04594125768272
 30
0.0
  0
VERTEX
  5
253
  8
LAYER_1
 10
54.56042559015353
 20
20.06177248658849
 30
0.0
  0
VERTEX
  5
254
  8
LAYER_1
 10
54.6048056197576
 20
20.07804997414056
 30
0.0
  0
VERTEX
  5
255
  8
LAYER_1
 10
54.64901138699031
 20
20.0947699280531
 30
0.0
  0
VERTEX
  5
256
  8
LAYER_1
 10
54.69303929627438
 20
20.11192855604031
 30
0.0
  0
VERTEX
  5
257
  8
LAYER_1
 10
54.73688575203251
 20
20.12952206581637
 30
0.0
  0
VERTEX
  5
258
  8
LAYER_1
 10
54.78054715868744
 20
20.14754666509546
 30
0.0
  0
VERTEX
  5
259
  8
LAYER_1
 10
54.82401992066188
 20
20.16599856159176
 30
0.0
  0
VERTEX
  5
25A
  8
LAYER_1
 10
54.86730044237854
 20
20.18487396301947
 30
0.0
  0
VERTEX
  5
25B
  8
LAYER_1
 10
54.91038512826012
 20
20.20416907709276
 30
0.0
  0
VERTEX
  5
25C
  8
LAYER_1
 10
54.95327038272936
 20
20.22388011152581
 30
0.0
  0
VERTEX
  5
25D
  8
LAYER_1
 10
54.99595261020896
 20
20.24400327403281
 30
0.0
  0
VERTEX
  5
25E
  8
LAYER_1
 10
55.03842821512165
 20
20.26453477232795
 30
0.0
  0
VERTEX
  5
25F
  8
LAYER_1
 10
55.08069360189013
 20
20.28547081412541
 30
0.0
  0
VERTEX
  5
260
  8
LAYER_1
 10
55.12274517493713
 20
20.30680760713937
 30
0.0
  0
VERTEX
  5
261
  8
LAYER_1
 10
55.16457933868535
 20
20.32854135908402
 30
0.0
  0
VERTEX
  5
262
  8
LAYER_1
 10
55.20619249755752
 20
20.35066827767355
 30
0.0
  0
VERTEX
  5
263
  8
LAYER_1
 10
55.24758105597634
 20
20.37318457062212
 30
0.0
  0
VERTEX
  5
264
  8
LAYER_1
 10
55.28874141836454
 20
20.39608644564394
 30
0.0
  0
VERTEX
  5
265
  8
LAYER_1
 10
55.32966998914482
 20
20.41937011045318
 30
0.0
  0
VERTEX
  5
266
  8
LAYER_1
 10
55.37036317273991
 20
20.44303177276403
 30
0.0
  0
VERTEX
  5
267
  8
LAYER_1
 10
55.41081737357252
 20
20.46706764029067
 30
0.0
  0
VERTEX
  5
268
  8
LAYER_1
 10
55.45102899606536
 20
20.49147392074729
 30
0.0
  0
VERTEX
  5
269
  8
LAYER_1
 10
55.49099444464116
 20
20.51624682184806
 30
0.0
  0
VERTEX
  5
26A
  8
LAYER_1
 10
55.53071012372262
 20
20.54138255130719
 30
0.0
  0
VERTEX
  5
26B
  8
LAYER_1
 10
55.57017243773247
 20
20.56687731683884
 30
0.0
  0
VERTEX
  5
26C
  8
LAYER_1
 10
55.60937779109341
 20
20.59272732615721
 30
0.0
  0
VERTEX
  5
26D
  8
LAYER_1
 10
55.64832258822815
 20
20.61892878697647
 30
0.0
  0
VERTEX
  5
26E
  8
LAYER_1
 10
55.68700323355944
 20
20.64547790701081
 30
0.0
  0
VERTEX
  5
26F
  8
LAYER_1
 10
55.72541613150996
 20
20.67237089397441
 30
0.0
  0
VERTEX
  5
270
  8
LAYER_1
 10
55.76355768650244
 20
20.69960395558147
 30
0.0
  0
VERTEX
  5
271
  8
LAYER_1
 10
55.80142430295959
 20
20.72717329954615
 30
0.0
  0
VERTEX
  5
272
  8
LAYER_1
 10
55.83901238530414
 20
20.75507513358266
 30
0.0
  0
VERTEX
  5
273
  8
LAYER_1
 10
55.87631833795878
 20
20.78330566540516
 30
0.0
  0
VERTEX
  5
274
  8
LAYER_1
 10
55.91333856534625
 20
20.81186110272785
 30
0.0
  0
VERTEX
  5
275
  8
LAYER_1
 10
55.95006947188925
 20
20.84073765326491
 30
0.0
  0
VERTEX
  5
276
  8
LAYER_1
 10
55.98650746201051
 20
20.86993152473053
 30
0.0
  0
VERTEX
  5
277
  8
LAYER_1
 10
56.02264894013273
 20
20.89943892483888
 30
0.0
  0
VERTEX
  5
278
  8
LAYER_1
 10
56.05849031067862
 20
20.92925606130415
 30
0.0
  0
VERTEX
  5
279
  8
LAYER_1
 10
56.09402797807091
 20
20.95937914184053
 30
0.0
  0
VERTEX
  5
27A
  8
LAYER_1
 10
56.12925834673232
 20
20.9898043741622
 30
0.0
  0
VERTEX
  5
27B
  8
LAYER_1
 10
56.16417782108556
 20
21.02052796598333
 30
0.0
  0
VERTEX
  5
27C
  8
LAYER_1
 10
56.19878280555334
 20
21.05154612501813
 30
0.0
  0
VERTEX
  5
27D
  8
LAYER_1
 10
56.23306970455837
 20
21.08285505898078
 30
0.0
  0
VERTEX
  5
27E
  8
LAYER_1
 10
56.26703492252338
 20
21.11445097558544
 30
0.0
  0
VERTEX
  5
27F
  8
LAYER_1
 10
56.30067486387108
 20
21.14633008254632
 30
0.0
  0
VERTEX
  5
280
  8
LAYER_1
 10
56.33398593302417
 20
21.17848858757759
 30
0.0
  0
VERTEX
  5
281
  8
LAYER_1
 10
56.3669645344054
 20
21.21092269839344
 30
0.0
  0
VERTEX
  5
282
  8
LAYER_1
 10
56.39960707243745
 20
21.24362862270805
 30
0.0
  0
VERTEX
  5
283
  8
LAYER_1
 10
56.43190995154306
 20
21.27660256823561
 30
0.0
  0
VERTEX
  5
284
  8
LAYER_1
 10
56.46386957614494
 20
21.3098407426903
 30
0.0
  0
VERTEX
  5
285
  8
LAYER_1
 10
56.4954823506658
 20
21.3433393537863
 30
0.0
  0
VERTEX
  5
286
  8
LAYER_1
 10
56.52674467952835
 20
21.3770946092378
 30
0.0
  0
VERTEX
  5
287
  8
LAYER_1
 10
56.55765296715531
 20
21.41110271675899
 30
0.0
  0
VERTEX
  5
288
  8
LAYER_1
 10
56.5882036179694
 20
21.44535988406404
 30
0.0
  0
VERTEX
  5
289
  8
LAYER_1
 10
56.61839303639334
 20
21.47986231886714
 30
0.0
  0
VERTEX
  5
28A
  8
LAYER_1
 10
56.64821762684982
 20
21.51460622888248
 30
0.0
  0
VERTEX
  5
28B
  8
LAYER_1
 10
56.67767379376158
 20
21.54958782182424
 30
0.0
  0
VERTEX
  5
28C
  8
LAYER_1
 10
56.70675794155134
 20
21.5848033054066
 30
0.0
  0
VERTEX
  5
28D
  8
LAYER_1
 10
56.7354664746418
 20
21.62024888734374
 30
0.0
  0
VERTEX
  5
28E
  8
LAYER_1
 10
56.76379579745567
 20
21.65592077534986
 30
0.0
  0
VERTEX
  5
28F
  8
LAYER_1
 10
56.79174231441569
 20
21.69181517713913
 30
0.0
  0
VERTEX
  5
290
  8
LAYER_1
 10
56.81930242994454
 20
21.72792830042575
 30
0.0
  0
VERTEX
  5
291
  8
LAYER_1
 10
56.84647254846497
 20
21.76425635292388
 30
0.0
  0
VERTEX
  5
292
  8
LAYER_1
 10
56.87324907439968
 20
21.80079554234772
 30
0.0
  0
VERTEX
  5
293
  8
LAYER_1
 10
56.8996284121714
 20
21.83754207641146
 30
0.0
  0
VERTEX
  5
294
  8
LAYER_1
 10
56.92560696620281
 20
21.87449216282927
 30
0.0
  0
VERTEX
  5
295
  8
LAYER_1
 10
56.95118114091665
 20
21.91164200931534
 30
0.0
  0
VERTEX
  5
296
  8
LAYER_1
 10
56.97634734073564
 20
21.94898782358386
 30
0.0
  0
VERTEX
  5
297
  8
LAYER_1
 10
57.00110197008249
 20
21.986525813349
 30
0.0
  0
VERTEX
  5
298
  8
LAYER_1
 10
57.02544143337991
 20
22.02425218632496
 30
0.0
  0
VERTEX
  5
299
  8
LAYER_1
 10
57.04936213505061
 20
22.06216315022591
 30
0.0
  0
VERTEX
  5
29A
  8
LAYER_1
 10
57.07286047951733
 20
22.10025491276604
 30
0.0
  0
VERTEX
  5
29B
  8
LAYER_1
 10
57.09593287120276
 20
22.13852368165954
 30
0.0
  0
VERTEX
  5
29C
  8
LAYER_1
 10
57.11857571452963
 20
22.17696566462058
 30
0.0
  0
VERTEX
  5
29D
  8
LAYER_1
 10
57.14078541392065
 20
22.21557706936336
 30
0.0
  0
VERTEX
  5
29E
  8
LAYER_1
 10
57.16255837379854
 20
22.25435410360205
 30
0.0
  0
VERTEX
  5
29F
  8
LAYER_1
 10
57.183890998586
 20
22.29329297505085
 30
0.0
  0
VERTEX
  5
2A0
  8
LAYER_1
 10
57.20477969270576
 20
22.33238989142393
 30
0.0
  0
VERTEX
  5
2A1
  8
LAYER_1
 10
57.22522086058054
 20
22.37164106043548
 30
0.0
  0
VERTEX
  5
2A2
  8
LAYER_1
 10
57.24521090663303
 20
22.41104268979968
 30
0.0
  0
VERTEX
  5
2A3
  8
LAYER_1
 10
57.26474623528598
 20
22.45059098723071
 30
0.0
  0
VERTEX
  5
2A4
  8
LAYER_1
 10
57.28382325096208
 20
22.49028216044277
 30
0.0
  0
VERTEX
  5
2A5
  8
LAYER_1
 10
57.30243835808405
 20
22.53011241715004
 30
0.0
  0
VERTEX
  5
2A6
  8
LAYER_1
 10
57.32058796107462
 20
22.57007796506669
 30
0.0
  0
VERTEX
  5
2A7
  8
LAYER_1
 10
57.33826846435649
 20
22.61017501190692
 30
0.0
  0
VERTEX
  5
2A8
  8
LAYER_1
 10
57.35547627235238
 20
22.6503997653849
 30
0.0
  0
VERTEX
  5
2A9
  8
LAYER_1
 10
57.372207789485
 20
22.69074843321483
 30
0.0
  0
VERTEX
  5
2AA
  8
LAYER_1
 10
57.38845942017707
 20
22.73121722311087
 30
0.0
  0
VERTEX
  5
2AB
  8
LAYER_1
 10
57.40422756885131
 20
22.77180234278724
 30
0.0
  0
VERTEX
  5
2AC
  8
LAYER_1
 10
57.41950863993043
 20
22.81249999995809
 30
0.0
  0
VERTEX
  5
2AD
  8
LAYER_1
 10
57.95080863984282
 20
24.62500000000936
 30
0.0
  0
VERTEX
  5
2AE
  8
LAYER_1
 10
57.95708100847276
 20
24.64437345011448
 30
0.0
  0
VERTEX
  5
2AF
  8
LAYER_1
 10
57.9644396238827
 20
24.66348392304037
 30
0.0
  0
VERTEX
  5
2B0
  8
LAYER_1
 10
57.97284249127446
 20
24.68230833134299
 30
0.0
  0
VERTEX
  5
2B1
  8
LAYER_1
 10
57.98224761584984
 20
24.70082358757828
 30
0.0
  0
VERTEX
  5
2B2
  8
LAYER_1
 10
57.99261300281067
 20
24.7190066043022
 30
0.0
  0
VERTEX
  5
2B3
  8
LAYER_1
 10
58.00389665735876
 20
24.7368342940707
 30
0.0
  0
VERTEX
  5
2B4
  8
LAYER_1
 10
58.01605658469593
 20
24.75428356943971
 30
0.0
  0
VERTEX
  5
2B5
  8
LAYER_1
 10
58.02905079002399
 20
24.7713313429652
 30
0.0
  0
VERTEX
  5
2B6
  8
LAYER_1
 10
58.04283727854476
 20
24.7879545272031
 30
0.0
  0
VERTEX
  5
2B7
  8
LAYER_1
 10
58.05737405546004
 20
24.80413003470936
 30
0.0
  0
VERTEX
  5
2B8
  8
LAYER_1
 10
58.07261912597168
 20
24.81983477803993
 30
0.0
  0
VERTEX
  5
2B9
  8
LAYER_1
 10
58.08853049528147
 20
24.83504566975077
 30
0.0
  0
VERTEX
  5
2BA
  8
LAYER_1
 10
58.10506616859122
 20
24.84973962239781
 30
0.0
  0
VERTEX
  5
2BB
  8
LAYER_1
 10
58.12218415110277
 20
24.86389354853701
 30
0.0
  0
VERTEX
  5
2BC
  8
LAYER_1
 10
58.13984244801792
 20
24.87748436072431
 30
0.0
  0
VERTEX
  5
2BD
  8
LAYER_1
 10
58.15799906453847
 20
24.89048897151567
 30
0.0
  0
VERTEX
  5
2BE
  8
LAYER_1
 10
58.17661200586627
 20
24.90288429346702
 30
0.0
  0
VERTEX
  5
2BF
  8
LAYER_1
 10
58.19563927720311
 20
24.91464723913432
 30
0.0
  0
VERTEX
  5
2C0
  8
LAYER_1
 10
58.21503888375082
 20
24.92575472107351
 30
0.0
  0
VERTEX
  5
2C1
  8
LAYER_1
 10
58.23476883071122
 20
24.93618365184055
 30
0.0
  0
VERTEX
  5
2C2
  8
LAYER_1
 10
58.25478712328611
 20
24.94591094399138
 30
0.0
  0
VERTEX
  5
2C3
  8
LAYER_1
 10
58.27505176667731
 20
24.95491351008194
 30
0.0
  0
VERTEX
  5
2C4
  8
LAYER_1
 10
58.29552076608664
 20
24.96316826266819
 30
0.0
  0
VERTEX
  5
2C5
  8
LAYER_1
 10
58.31615212671591
 20
24.97065211430608
 30
0.0
  0
VERTEX
  5
2C6
  8
LAYER_1
 10
58.33690385376693
 20
24.97734197755155
 30
0.0
  0
VERTEX
  5
2C7
  8
LAYER_1
 10
58.35773395244154
 20
24.98321476496055
 30
0.0
  0
VERTEX
  5
2C8
  8
LAYER_1
 10
58.37860042794153
 20
24.98824738908903
 30
0.0
  0
VERTEX
  5
2C9
  8
LAYER_1
 10
58.39946128546873
 20
24.99241676249294
 30
0.0
  0
VERTEX
  5
2CA
  8
LAYER_1
 10
58.42027453022496
 20
24.99569979772821
 30
0.0
  0
VERTEX
  5
2CB
  8
LAYER_1
 10
58.44099816741202
 20
24.99807340735081
 30
0.0
  0
VERTEX
  5
2CC
  8
LAYER_1
 10
58.46159020223174
 20
24.99951450391668
 30
0.0
  0
VERTEX
  5
2CD
  8
LAYER_1
 10
58.48200863988592
 20
24.99999999998177
 30
0.0
  0
VERTEX
  5
2CE
  8
LAYER_1
 10
95.85700863985699
 20
25.00000000000017
 30
0.0
  0
VERTEX
  5
2CF
  8
LAYER_1
 10
95.85700863985696
 20
1.0
 30
0.0
  0
VERTEX
  5
2D0
  8
LAYER_1
 10
33.66950863986111
 20
1.0
 30
0.0
  0
VERTEX
  5
2D1
  8
LAYER_1
 10
23.85700863988649
 20
10.68749999999557
 30
0.0
  0
VERTEX
  5
2D2
  8
LAYER_1
 10
23.83851528204401
 20
10.70635507842901
 30
0.0
  0
VERTEX
  5
2D3
  8
LAYER_1
 10
23.82040108006034
 20
10.72606895983531
 30
0.0
  0
VERTEX
  5
2D4
  8
LAYER_1
 10
23.80277834647582
 20
10.74658854133643
 30
0.0
  0
VERTEX
  5
2D5
  8
LAYER_1
 10
23.78575939383079
 20
10.76786072005434
 30
0.0
  0
VERTEX
  5
2D6
  8
LAYER_1
 10
23.76945653466557
 20
10.78983239311099
 30
0.0
  0
VERTEX
  5
2D7
  8
LAYER_1
 10
23.75398208152051
 20
10.81245045762835
 30
0.0
  0
VERTEX
  5
2D8
  8
LAYER_1
 10
23.73944834693594
 20
10.83566181072839
 30
0.0
  0
VERTEX
  5
2D9
  8
LAYER_1
 10
23.7325693467727
 20
10.84747337584753
 30
0.0
  0
VERTEX
  5
2DA
  8
LAYER_1
 10
23.72596764345221
 20
10.85941334953307
 30
0.0
  0
VERTEX
  5
2DB
  8
LAYER_1
 10
23.71965727604201
 20
10.87147509392526
 30
0.0
  0
VERTEX
  5
2DC
  8
LAYER_1
 10
23.71365228360964
 20
10.88365197116434
 30
0.0
  0
VERTEX
  5
2DD
  8
LAYER_1
 10
23.70796670522265
 20
10.89593734339056
 30
0.0
  0
VERTEX
  5
2DE
  8
LAYER_1
 10
23.70261457994857
 20
10.90832457274417
 30
0.0
  0
VERTEX
  5
2DF
  8
LAYER_1
 10
23.69760994685495
 20
10.92080702136541
 30
0.0
  0
VERTEX
  5
2E0
  8
LAYER_1
 10
23.69296684500932
 20
10.93337805139453
 30
0.0
  0
VERTEX
  5
2E1
  8
LAYER_1
 10
23.68869931347925
 20
10.94603102497177
 30
0.0
  0
VERTEX
  5
2E2
  8
LAYER_1
 10
23.68482139133226
 20
10.95875930423738
 30
0.0
  0
VERTEX
  5
2E3
  8
LAYER_1
 10
23.6813471176359
 20
10.9715562513316
 30
0.0
  0
VERTEX
  5
2E4
  8
LAYER_1
 10
23.67829053145771
 20
10.98441522839468
 30
0.0
  0
VERTEX
  5
2E5
  8
LAYER_1
 10
23.67566567186522
 20
10.99732959756686
 30
0.0
  0
VERTEX
  5
2E6
  8
LAYER_1
 10
23.67348657792599
 20
11.01029272098839
 30
0.0
  0
VERTEX
  5
2E7
  8
LAYER_1
 10
23.67176728870756
 20
11.02329796079952
 30
0.0
  0
VERTEX
  5
2E8
  8
LAYER_1
 10
23.67052184327746
 20
11.03633867914048
 30
0.0
  0
VERTEX
  5
2E9
  8
LAYER_1
 10
23.66976428070324
 20
11.04940823815153
 30
0.0
  0
VERTEX
  5
2EA
  8
LAYER_1
 10
23.66950864005244
 20
11.06249999997291
 30
0.0
  0
VERTEX
  5
2EB
  8
LAYER_1
 10
23.66950864013546
 20
22.74999999991664
 30
0.0
  0
VERTEX
  5
2EC
  8
LAYER_1
 10
23.66975957722622
 20
22.7631373628982
 30
0.0
  0
VERTEX
  5
2ED
  8
LAYER_1
 10
23.67050614410466
 20
22.77627113299006
 30
0.0
  0
VERTEX
  5
2EE
  8
LAYER_1
 10
23.67173897418031
 20
22.78939480462471
 30
0.0
  0
VERTEX
  5
2EF
  8
LAYER_1
 10
23.67344870086268
 20
22.80250187223461
 30
0.0
  0
VERTEX
  5
2F0
  8
LAYER_1
 10
23.6756259575613
 20
22.81558583025225
 30
0.0
  0
VERTEX
  5
2F1
  8
LAYER_1
 10
23.67826137768569
 20
22.82864017311011
 30
0.0
  0
VERTEX
  5
2F2
  8
LAYER_1
 10
23.68134559464536
 20
22.84165839524066
 30
0.0
  0
VERTEX
  5
2F3
  8
LAYER_1
 10
23.68486924184986
 20
22.85463399107638
 30
0.0
  0
VERTEX
  5
2F4
  8
LAYER_1
 10
23.68882295270869
 20
22.86756045504975
 30
0.0
  0
VERTEX
  5
2F5
  8
LAYER_1
 10
23.69319736063138
 20
22.88043128159325
 30
0.0
  0
VERTEX
  5
2F6
  8
LAYER_1
 10
23.69798309902745
 20
22.89323996513936
 30
0.0
  0
VERTEX
  5
2F7
  8
LAYER_1
 10
23.70317080130643
 20
22.90598000012056
 30
0.0
  0
VERTEX
  5
2F8
  8
LAYER_1
 10
23.70875110087784
 20
22.91864488096932
 30
0.0
  0
VERTEX
  5
2F9
  8
LAYER_1
 10
23.71471463115119
 20
22.93122810211811
 30
0.0
  0
VERTEX
  5
2FA
  8
LAYER_1
 10
23.72105202553601
 20
22.94372315799943
 30
0.0
  0
VERTEX
  5
2FB
  8
LAYER_1
 10
23.72775391744183
 20
22.95612354304575
 30
0.0
  0
VERTEX
  5
2FC
  8
LAYER_1
 10
23.73481094027817
 20
22.96842275168954
 30
0.0
  0
VERTEX
  5
2FD
  8
LAYER_1
 10
23.74221372745453
 20
22.98061427836329
 30
0.0
  0
VERTEX
  5
2FE
  8
LAYER_1
 10
23.74995291238046
 20
22.99269161749947
 30
0.0
  0
VERTEX
  5
2FF
  8
LAYER_1
 10
23.75801912846547
 20
23.00464826353056
 30
0.0
  0
VERTEX
  5
300
  8
LAYER_1
 10
23.76640300911909
 20
23.01647771088904
 30
0.0
  0
VERTEX
  5
301
  8
LAYER_1
 10
23.77509518775084
 20
23.02817345400739
 30
0.0
  0
VERTEX
  5
302
  8
LAYER_1
 10
23.78408629777023
 20
23.03972898731809
 30
0.0
  0
VERTEX
  5
303
  8
LAYER_1
 10
23.79336697258679
 20
23.05113780525361
 30
0.0
  0
VERTEX
  5
304
  8
LAYER_1
 10
23.80292784561004
 20
23.06239340224644
 30
0.0
  0
VERTEX
  5
305
  8
LAYER_1
 10
23.81275955024952
 20
23.07348927272904
 30
0.0
  0
VERTEX
  5
306
  8
LAYER_1
 10
23.82285271991473
 20
23.08441891113391
 30
0.0
  0
VERTEX
  5
307
  8
LAYER_1
 10
23.8331979880152
 20
23.0951758118935
 30
0.0
  0
VERTEX
  5
308
  8
LAYER_1
 10
23.85460735316001
 20
23.11614537820683
 30
0.0
  0
VERTEX
  5
309
  8
LAYER_1
 10
23.87691271296013
 20
23.13634592712884
 30
0.0
  0
VERTEX
  5
30A
  8
LAYER_1
 10
23.90003913469175
 20
23.15572541411937
 30
0.0
  0
VERTEX
  5
30B
  8
LAYER_1
 10
23.92391168563102
 20
23.17423179463824
 30
0.0
  0
VERTEX
  5
30C
  8
LAYER_1
 10
23.94845543305414
 20
23.19181302414527
 30
0.0
  0
VERTEX
  5
30D
  8
LAYER_1
 10
23.97359544423729
 20
23.2084170581003
 30
0.0
  0
VERTEX
  5
30E
  8
LAYER_1
 10
23.99925678645664
 20
23.22399185196314
 30
0.0
  0
VERTEX
  5
30F
  8
LAYER_1
 10
24.02536452698837
 20
23.23848536119363
 30
0.0
  0
VERTEX
  5
310
  8
LAYER_1
 10
24.05184373310865
 20
23.25184554125159
 30
0.0
  0
VERTEX
  5
311
  8
LAYER_1
 10
24.06519921928831
 20
23.25808436892207
 30
0.0
  0
VERTEX
  5
312
  8
LAYER_1
 10
24.07861947209367
 20
23.26402034759685
 30
0.0
  0
VERTEX
  5
313
  8
LAYER_1
 10
24.09209512493426
 20
23.26964697170841
 30
0.0
  0
VERTEX
  5
314
  8
LAYER_1
 10
24.1056168112196
 20
23.27495773568923
 30
0.0
  0
VERTEX
  5
315
  8
LAYER_1
 10
24.11917516435922
 20
23.27994613397178
 30
0.0
  0
VERTEX
  5
316
  8
LAYER_1
 10
24.13276081776263
 20
23.28460566098855
 30
0.0
  0
VERTEX
  5
317
  8
LAYER_1
 10
24.14636440483936
 20
23.28892981117202
 30
0.0
  0
VERTEX
  5
318
  8
LAYER_1
 10
24.15997655899893
 20
23.29291207895466
 30
0.0
  0
VERTEX
  5
319
  8
LAYER_1
 10
24.17358791365087
 20
23.29654595876895
 30
0.0
  0
VERTEX
  5
31A
  8
LAYER_1
 10
24.18718910220468
 20
23.29982494504736
 30
0.0
  0
VERTEX
  5
31B
  8
LAYER_1
 10
24.20077075806991
 20
23.30274253222238
 30
0.0
  0
VERTEX
  5
31C
  8
LAYER_1
 10
24.21432351465606
 20
23.30529221472649
 30
0.0
  0
VERTEX
  5
31D
  8
LAYER_1
 10
24.22783800537266
 20
23.30746748699216
 30
0.0
  0
VERTEX
  5
31E
  8
LAYER_1
 10
24.24130486362924
 20
23.30926184345187
 30
0.0
  0
VERTEX
  5
31F
  8
LAYER_1
 10
24.25471472283532
 20
23.3106687785381
 30
0.0
  0
VERTEX
  5
320
  8
LAYER_1
 10
24.26805821640041
 20
23.31168178668333
 30
0.0
  0
VERTEX
  5
321
  8
LAYER_1
 10
24.28132597773404
 20
23.31229436232004
 30
0.0
  0
SEQEND
  5
494
  8
LAYER_1
  0
POLYLINE
  5
8A
  8
LAYER_1
 66
     1
 10
0.0
 20
0.0
 30
0.0
 70
     1
  0
VERTEX
  5
322
  8
LAYER_1
 10
73.48818428168539
 20
26.11740763932373
 30
0.0
  0
VERTEX
  5
323
  8
LAYER_1
 10
95.38818428168537
 20
26.11740763932373
 30
0.0
  0
VERTEX
  5
324
  8
LAYER_1
 10
95.38818428168537
 20
47.11740763932373
 30
0.0
  0
VERTEX
  5
325
  8
LAYER_1
 10
73.48818428168539
 20
47.11740763932373
 30
0.0
  0
SEQEND
  5
495
  8
LAYER_1
  0
POLYLINE
  5
8B
  8
LAYER_1
 66
     1
 10
0.0
 20
0.0
 30
0.0
 70
     1
  0
VERTEX
  5
326
  8
LAYER_1
 10
75.92258428168537
 20
31.49240763932373
 30
0.0
 42
0.4142135623730951
  0
VERTEX
  5
327
  8
LAYER_1
 10
75.29758428168537
 20
30.86740763932373
 30
0.0
 42
0.4142135623730951
  0
VERTEX
  5
328
  8
LAYER_1
 10
75.92258428168537
 20
30.24240763932373
 30
0.0
 42
0.4142135623730951
  0
VERTEX
  5
329
  8
LAYER_1
 10
76.54758428168537
 20
30.86740763932373
 30
0.0
 42
0.4142135623730951
  0
SEQEND
  5
496
  8
LAYER_1
  0
POLYLINE
  5
8C
  8
LAYER_1
 66
     1
 10
0.0
 20
0.0
 30
0.0
 70
     1
  0
VERTEX
  5
32A
  8
LAYER_1
 10
75.92258428168537
 20
42.49240763932373
 30
0.0
 42
0.4142135623730951
  0
VERTEX
  5
32B
  8
LAYER_1
 10
75.29758428168537
 20
41.86740763932373
 30
0.0
 42
0.4142135623730951
  0
VERTEX
  5
32C
  8
LAYER_1
 10
75.92258428168537
 20
41.24240763932373
 30
0.0
 42
0.4142135623730951
  0
VERTEX
  5
32D
  8
LAYER_1
 10
76.54758428168537
 20
41.86740763932373
 30
0.0
 42
0.4142135623730951
  0
SEQEND
  5
497
  8
LAYER_1
  0
POLYLINE
  5
8D
  8
LAYER_1
 66
     1
 10
0.0
 20
0.0
 30
0.0
 70
     1
  0
VERTEX
  5
32E
  8
LAYER_1
 10
92.98508428168537
 20
42.49240763932373
 30
0.0
 42
0.4142135623730951
  0
VERTEX
  5
32F
  8
LAYER_1
 10
92.36008428168537
 20
41.86740763932373
 30
0.0
 42
0.4142135623730951
  0
VERTEX
  5
330
  8
LAYER_1
 10
92.98508428168537
 20
41.24240763932373
 30
0.0
 42
0.4142135623730951
  0
VERTEX
  5
331
  8
LAYER_1
 10
93.61008428168537
 20
41.86740763932373
 30
0.0
 42
0.4142135623730951
  0
SEQEND
  5
498
  8
LAYER_1
  0
POLYLINE
  5
8E
  8
LAYER_1
 66
     1
 10
0.0
 20
0.0
 30
0.0
 70
     1
  0
VERTEX
  5
332
  8
LAYER_1
 10
92.98508428168537
 20
31.49240763932373
 30
0.0
 42
0.4142135623730951
  0
VERTEX
  5
333
  8
LAYER_1
 10
92.36008428168537
 20
30.86740763932373
 30
0.0
 42
0.4142135623730951
  0
VERTEX
  5
334
  8
LAYER_1
 10
92.98508428168537
 20
30.24240763932373
 30
0.0
 42
0.4142135623730951
  0
VERTEX
  5
335
  8
LAYER_1
 10
93.61008428168537
 20
30.86740763932373
 30
0.0
 42
0.4142135623730951
  0
SEQEND
  5
499
  8
LAYER_1
  0
POLYLINE
  5
8F
  8
LAYER_1
 66
     1
 10
0.0
 20
0.0
 30
0.0
 70
     1
  0
VERTEX
  5
336
  8
LAYER_1
 10
1.145260392055974
 20
1.142102379461484
 30
0.0
  0
VERTEX
  5
337
  8
LAYER_1
 10
17.89526039205597
 20
1.142102379461484
 30
0.0
  0
VERTEX
  5
338
  8
LAYER_1
 10
17.89526039205597
 20
35.26710237946148
 30
0.0
  0
VERTEX
  5
339
  8
LAYER_1
 10
1.145260392055974
 20
35.26710237946148
 30
0.0
  0
SEQEND
  5
49A
  8
LAYER_1
  0
POLYLINE
  5
90
  8
LAYER_1
 66
     1
 10
0.0
 20
0.0
 30
0.0
 70
     1
  0
VERTEX
  5
33A
  8
LAYER_1
 10
15.61522001783794
 20
29.89342873442727
 30
0.0
  0
VERTEX
  5
33B
  8
LAYER_1
 10
3.427720017837942
 20
29.89342873442727
 30
0.0
  0
VERTEX
  5
33C
  8
LAYER_1
 10
3.427720017837942
 20
19.39342873442727
 30
0.0
  0
VERTEX
  5
33D
  8
LAYER_1
 10
15.61522001783794
 20
19.39342873442727
 30
0.0
  0
SEQEND
  5
49B
  8
LAYER_1
  0
POLYLINE
  5
91
  8
LAYER_1
 66
     1
 10
0.0
 20
0.0
 30
0.0
 70
     1
  0
VERTEX
  5
33E
  8
LAYER_1
 10
15.99022001783794
 20
24.58042873442728
 30
0.0
 42
0.4142135623730951
  0
VERTEX
  5
33F
  8
LAYER_1
 10
16.11572001783794
 20
24.70592873442727
 30
0.0
 42
0.4142135623730951
  0
VERTEX
  5
340
  8
LAYER_1
 10
15.99022001783794
 20
24.83142873442728
 30
0.0
 42
0.4142135623730951
  0
VERTEX
  5
341
  8
LAYER_1
 10
15.86472001783794
 20
24.70592873442727
 30
0.0
 42
0.4142135623730951
  0
SEQEND
  5
49C
  8
LAYER_1
  0
POLYLINE
  5
92
  8
LAYER_1
 66
     1
 10
0.0
 20
0.0
 30
0.0
 70
     1
  0
VERTEX
  5
342
  8
LAYER_1
 10
3.084020017837943
 20
24.58042873442728
 30
0.0
 42
0.4142135623730951
  0
VERTEX
  5
343
  8
LAYER_1
 10
3.209520017837946
 20
24.70592873442727
 30
0.0
 42
0.4142135623730951
  0
VERTEX
  5
344
  8
LAYER_1
 10
3.084020017837943
 20
24.83142873442728
 30
0.0
 42
0.4142135623730951
  0
VERTEX
  5
345
  8
LAYER_1
 10
2.958520017837941
 20
24.70592873442727
 30
0.0
 42
0.4142135623730951
  0
SEQEND
  5
49D
  8
LAYER_1
  0
POLYLINE
  5
93
  8
LAYER_1
 66
     1
 10
0.0
 20
0.0
 30
0.0
 70
     1
  0
VERTEX
  5
346
  8
LAYER_1
 10
9.521520017837943
 20
19.01792873442728
 30
0.0
 42
0.4142135623730951
  0
VERTEX
  5
347
  8
LAYER_1
 10
9.647020017837946
 20
19.14342873442727
 30
0.0
 42
0.4142135623730951
  0
VERTEX
  5
348
  8
LAYER_1
 10
9.521520017837943
 20
19.26892873442728
 30
0.0
 42
0.4142135623730951
  0
VERTEX
  5
349
  8
LAYER_1
 10
9.396020017837941
 20
19.14342873442727
 30
0.0
 42
0.4142135623730951
  0
SEQEND
  5
49E
  8
LAYER_1
  0
POLYLINE
  5
94
  8
LAYER_1
 66
     1
 10
0.0
 20
0.0
 30
0.0
 70
     1
  0
VERTEX
  5
34A
  8
LAYER_1
 10
9.521520017837943
 20
30.08042873442728
 30
0.0
 42
0.4142135623730951
  0
VERTEX
  5
34B
  8
LAYER_1
 10
9.647020017837946
 20
30.20592873442727
 30
0.0
 42
0.4142135623730951
  0
VERTEX
  5
34C
  8
LAYER_1
 10
9.521520017837943
 20
30.33142873442728
 30
0.0
 42
0.4142135623730951
  0
VERTEX
  5
34D
  8
LAYER_1
 10
9.396020017837941
 20
30.20592873442727
 30
0.0
 42
0.4142135623730951
  0
SEQEND
  5
49F
  8
LAYER_1
  0
POLYLINE
  5
95
  8
LAYER_1
 66
     1
 10
0.0
 20
0.0
 30
0.0
 70
     1
  0
VERTEX
  5
34E
  8
LAYER_1
 10
42.31300863985697
 20
48.0
 30
0.0
  0
VERTEX
  5
34F
  8
LAYER_1
 10
42.31300863985697
 20
24.4375
 30
0.0
  0
VERTEX
  5
350
  8
LAYER_1
 10
56.25050863985697
 20
24.4375
 30
0.0
  0
VERTEX
  5
351
  8
LAYER_1
 10
56.250508639857
 20
48.0
 30
0.0
  0
SEQEND
  5
4A0
  8
LAYER_1
  0
POLYLINE
  5
96
  8
LAYER_1
 66
     1
 10
0.0
 20
0.0
 30
0.0
 70
     1
  0
VERTEX
  5
352
  8
LAYER_1
 10
24.70549136014303
 20
47.60332743645308
 30
0.0
  0
VERTEX
  5
353
  8
LAYER_1
 10
1.142991360143043
 20
47.60332743645309
 30
0.0
  0
VERTEX
  5
354
  8
LAYER_1
 10
1.142991360143029
 20
36.66582743645309
 30
0.0
  0
VERTEX
  5
355
  8
LAYER_1
 10
24.70549136014303
 20
36.66582743645308
 30
0.0
  0
SEQEND
  5
4A1
  8
LAYER_1
  0
POLYLINE
  5
97
  8
LAYER_1
 66
     1
 10
0.0
 20
0.0
 30
0.0
 70
     1
  0
VERTEX
  5
356
  8
LAYER_1
 10
21.39299136014303
 20
44.10332743645308
 30
0.0
  0
VERTEX
  5
357
  8
LAYER_1
 10
18.39299136014303
 20
44.10332743645308
 30
0.0
  0
VERTEX
  5
358
  8
LAYER_1
 10
18.39299136014303
 20
43.10332743645308
 30
0.0
  0
VERTEX
  5
359
  8
LAYER_1
 10
21.39299136014303
 20
43.10332743645308
 30
0.0
  0
SEQEND
  5
4A2
  8
LAYER_1
  0
POLYLINE
  5
98
  8
LAYER_1
 66
     1
 10
0.0
 20
0.0
 30
0.0
 70
     1
  0
VERTEX
  5
35A
  8
LAYER_1
 10
21.39299136014303
 20
42.57332743645308
 30
0.0
  0
VERTEX
  5
35B
  8
LAYER_1
 10
18.39299136014303
 20
42.57332743645308
 30
0.0
  0
VERTEX
  5
35C
  8
LAYER_1
 10
18.39299136014303
 20
41.57332743645308
 30
0.0
  0
VERTEX
  5
35D
  8
LAYER_1
 10
21.39299136014303
 20
41.57332743645308
 30
0.0
  0
SEQEND
  5
4A3
  8
LAYER_1
  0
POLYLINE
  5
99
  8
LAYER_1
 66
     1
 10
0.0
 20
0.0
 30
0.0
 70
     1
  0
VERTEX
  5
35E
  8
LAYER_1
 10
21.39299136014303
 20
41.04332743645308
 30
0.0
  0
VERTEX
  5
35F
  8
LAYER_1
 10
18.39299136014303
 20
41.04332743645308
 30
0.0
  0
VERTEX
  5
360
  8
LAYER_1
 10
18.39299136014303
 20
40.04332743645308
 30
0.0
  0
VERTEX
  5
361
  8
LAYER_1
 10
21.39299136014303
 20
40.04332743645308
 30
0.0
  0
SEQEND
  5
4A4
  8
LAYER_1
  0
POLYLINE
  5
9A
  8
LAYER_1
 66
     1
 10
0.0
 20
0.0
 30
0.0
 70
     1
  0
VERTEX
  5
362
  8
LAYER_1
 10
8.705491360143043
 20
45.85332743645309
 30
0.0
  0
VERTEX
  5
363
  8
LAYER_1
 10
3.580491360143043
 20
45.85332743645309
 30
0.0
  0
VERTEX
  5
364
  8
LAYER_1
 10
3.580491360143029
 20
38.29082743645309
 30
0.0
  0
VERTEX
  5
365
  8
LAYER_1
 10
8.705491360143029
 20
38.29082743645309
 30
0.0
  0
SEQEND
  5
4A5
  8
LAYER_1
  0
POLYLINE
  5
9B
  8
LAYER_1
 66
     1
 10
0.0
 20
0.0
 30
0.0
 70
     1
  0
VERTEX
  5
366
  8
LAYER_1
 10
23.58049136014303
 20
46.41532743645308
 30
0.0
 42
0.4142135623730951
  0
VERTEX
  5
367
  8
LAYER_1
 10
23.70599136014305
 20
46.54082743645308
 30
0.0
 42
0.4142135623730951
  0
VERTEX
  5
368
  8
LAYER_1
 10
23.58049136014303
 20
46.66632743645308
 30
0.0
 42
0.4142135623730951
  0
VERTEX
  5
369
  8
LAYER_1
 10
23.45499136014304
 20
46.54082743645308
 30
0.0
 42
0.4142135623730951
  0
SEQEND
  5
4A6
  8
LAYER_1
  0
POLYLINE
  5
9C
  8
LAYER_1
 66
     1
 10
0.0
 20
0.0
 30
0.0
 70
     1
  0
VERTEX
  5
36A
  8
LAYER_1
 10
12.92429136014304
 20
46.41532743645308
 30
0.0
 42
0.4142135623730951
  0
VERTEX
  5
36B
  8
LAYER_1
 10
13.04979136014305
 20
46.54082743645308
 30
0.0
 42
0.4142135623730951
  0
VERTEX
  5
36C
  8
LAYER_1
 10
12.92429136014304
 20
46.66632743645308
 30
0.0
 42
0.4142135623730951
  0
VERTEX
  5
36D
  8
LAYER_1
 10
12.79879136014304
 20
46.54082743645308
 30
0.0
 42
0.4142135623730951
  0
SEQEND
  5
4A7
  8
LAYER_1
  0
POLYLINE
  5
9D
  8
LAYER_1
 66
     1
 10
0.0
 20
0.0
 30
0.0
 70
     1
  0
VERTEX
  5
36E
  8
LAYER_1
 10
2.174291360143044
 20
46.41532743645309
 30
0.0
 42
0.4142135623730951
  0
VERTEX
  5
36F
  8
LAYER_1
 10
2.299791360143047
 20
46.54082743645309
 30
0.0
 42
0.4142135623730951
  0
VERTEX
  5
370
  8
LAYER_1
 10
2.174291360143044
 20
46.66632743645309
 30
0.0
 42
0.4142135623730951
  0
VERTEX
  5
371
  8
LAYER_1
 10
2.048791360143042
 20
46.54082743645309
 30
0.0
 42
0.4142135623730951
  0
SEQEND
  5
4A8
  8
LAYER_1
  0
POLYLINE
  5
9E
  8
LAYER_1
 66
     1
 10
0.0
 20
0.0
 30
0.0
 70
     1
  0
VERTEX
  5
372
  8
LAYER_1
 10
23.58049136014303
 20
37.41532743645308
 30
0.0
 42
0.4142135623730951
  0
VERTEX
  5
373
  8
LAYER_1
 10
23.70599136014305
 20
37.54082743645308
 30
0.0
 42
0.4142135623730951
  0
VERTEX
  5
374
  8
LAYER_1
 10
23.58049136014303
 20
37.66632743645308
 30
0.0
 42
0.4142135623730951
  0
VERTEX
  5
375
  8
LAYER_1
 10
23.45499136014304
 20
37.54082743645308
 30
0.0
 42
0.4142135623730951
  0
SEQEND
  5
4A9
  8
LAYER_1
  0
POLYLINE
  5
9F
  8
LAYER_1
 66
     1
 10
0.0
 20
0.0
 30
0.0
 70
     1
  0
VERTEX
  5
376
  8
LAYER_1
 10
12.92429136014303
 20
37.41532743645308
 30
0.0
 42
0.4142135623730951
  0
VERTEX
  5
377
  8
LAYER_1
 10
13.04979136014303
 20
37.54082743645308
 30
0.0
 42
0.4142135623730951
  0
VERTEX
  5
378
  8
LAYER_1
 10
12.92429136014303
 20
37.66632743645308
 30
0.0
 42
0.4142135623730951
  0
VERTEX
  5
379
  8
LAYER_1
 10
12.79879136014303
 20
37.54082743645308
 30
0.0
 42
0.4142135623730951
  0
SEQEND
  5
4AA
  8
LAYER_1
  0
POLYLINE
  5
A0
  8
LAYER_1
 66
     1
 10
0.0
 20
0.0
 30
0.0
 70
     1
  0
VERTEX
  5
37A
  8
LAYER_1
 10
2.17429136014303
 20
37.41532743645309
 30
0.0
 42
0.4142135623730951
  0
VERTEX
  5
37B
  8
LAYER_1
 10
2.299791360143033
 20
37.54082743645309
 30
0.0
 42
0.4142135623730951
  0
VERTEX
  5
37C
  8
LAYER_1
 10
2.17429136014303
 20
37.66632743645309
 30
0.0
 42
0.4142135623730951
  0
VERTEX
  5
37D
  8
LAYER_1
 10
2.048791360143028
 20
37.54082743645309
 30
0.0
 42
0.4142135623730951
  0
SEQEND
  5
4AB
  8
LAYER_1
  0
POLYLINE
  5
A1
  8
LAYER_1
 66
     1
 10
0.0
 20
0.0
 30
0.0
 70
     1
  0
VERTEX
  5
37E
  8
LAYER_1
 10
71.60568762046512
 20
26.2494431698106
 30
0.0
  0
VERTEX
  5
37F
  8
LAYER_1
 10
71.60568762046512
 20
43.1244431698106
 30
0.0
  0
VERTEX
  5
380
  8
LAYER_1
 10
68.60568762046512
 20
43.1244431698106
 30
0.0
  0
VERTEX
  5
381
  8
LAYER_1
 10
68.60568762046512
 20
26.2494431698106
 30
0.0
  0
SEQEND
  5
4AC
  8
LAYER_1
  0
POLYLINE
  5
A2
  8
LAYER_1
 66
     1
 10
0.0
 20
0.0
 30
0.0
 70
     1
  0
VERTEX
  5
382
  8
LAYER_1
 10
63.05488603815257
 20
43.18672425348311
 30
0.0
  0
VERTEX
  5
383
  8
LAYER_1
 10
63.05488603815257
 20
26.31172425348311
 30
0.0
  0
VERTEX
  5
384
  8
LAYER_1
 10
66.05488603815257
 20
26.31172425348311
 30
0.0
  0
VERTEX
  5
385
  8
LAYER_1
 10
66.05488603815257
 20
43.18672425348311
 30
0.0
  0
SEQEND
  5
4AD
  8
LAYER_1
  0
POLYLINE
  5
A3
  8
LAYER_1
 66
     1
 10
0.0
 20
0.0
 30
0.0
 70
     1
  0
VERTEX
  5
386
  8
LAYER_1
 10
61.50825747189555
 20
26.11765676365845
 30
0.0
  0
VERTEX
  5
387
  8
LAYER_1
 10
61.50825747189555
 20
47.11765676365845
 30
0.0
  0
VERTEX
  5
388
  8
LAYER_1
 10
58.57075747189555
 20
47.11765676365845
 30
0.0
  0
VERTEX
  5
389
  8
LAYER_1
 10
58.57075747189555
 20
26.11765676365845
 30
0.0
  0
SEQEND
  5
4AE
  8
LAYER_1
  0
POLYLINE
  5
A4
  8
LAYER_1
 66
     1
 10
0.0
 20
0.0
 30
0.0
 70
     1
  0
VERTEX
  5
38A
  8
LAYER_1
 10
29.43349938055242
 20
25.0277377993895
 30
0.0
  0
VERTEX
  5
38B
  8
LAYER_1
 10
29.43349938055242
 20
46.0277377993895
 30
0.0
  0
VERTEX
  5
38C
  8
LAYER_1
 10
26.49599938055242
 20
46.0277377993895
 30
0.0
  0
VERTEX
  5
38D
  8
LAYER_1
 10
26.49599938055242
 20
25.0277377993895
 30
0.0
  0
SEQEND
  5
4AF
  8
LAYER_1
  0
POLYLINE
  5
A5
  8
LAYER_1
 66
     1
 10
0.0
 20
0.0
 30
0.0
 70
     1
  0
VERTEX
  5
38E
  8
LAYER_1
 10
22.21691096526202
 20
1.182362590257121
 30
0.0
  0
VERTEX
  5
38F
  8
LAYER_1
 10
22.21691096526202
 20
24.74486259025712
 30
0.0
  0
VERTEX
  5
390
  8
LAYER_1
 10
19.46691096526202
 20
24.74486259025712
 30
0.0
  0
VERTEX
  5
391
  8
LAYER_1
 10
19.46691096526202
 20
1.182362590257121
 30
0.0
  0
SEQEND
  5
4B0
  8
LAYER_1
  0
POLYLINE
  5
A6
  8
LAYER_1
 66
     1
 10
0.0
 20
0.0
 30
0.0
 70
     1
  0
VERTEX
  5
392
  8
LAYER_1
 10
40.70771308569292
 20
47.95222683155917
 30
0.0
  0
VERTEX
  5
393
  8
LAYER_1
 10
40.70771308569292
 20
24.38972683155917
 30
0.0
  0
VERTEX
  5
394
  8
LAYER_1
 10
37.08271308569292
 20
24.38972683155917
 30
0.0
  0
VERTEX
  5
395
  8
LAYER_1
 10
31.70771308569292
 20
29.51472683155917
 30
0.0
  0
VERTEX
  5
396
  8
LAYER_1
 10
31.70771308569292
 20
42.82722683155917
 30
0.0
  0
VERTEX
  5
397
  8
LAYER_1
 10
37.08271308569292
 20
47.95222683155917
 30
0.0
  0
SEQEND
  5
4B1
  8
LAYER_1
  0
POLYLINE
  5
A7
  8
LAYER_1
 66
     1
 10
0.0
 20
0.0
 30
0.0
 70
     1
  0
VERTEX
  5
398
  8
LAYER_1
 10
189.6789112943451
 20
50.43459360783481
 30
0.0
  0
VERTEX
  5
399
  8
LAYER_1
 10
189.6789112943451
 20
51.8845936078348
 30
0.0
  0
VERTEX
  5
39A
  8
LAYER_1
 10
169.2489112943451
 20
51.8845936078348
 30
0.0
  0
VERTEX
  5
39B
  8
LAYER_1
 10
169.2489112943451
 20
50.43459360783481
 30
0.0
  0
SEQEND
  5
4B2
  8
LAYER_1
  0
POLYLINE
  5
A8
  8
LAYER_1
 66
     1
 10
0.0
 20
0.0
 30
0.0
 70
     1
  0
VERTEX
  5
39C
  8
LAYER_1
 10
132.1828439664294
 20
10.03947703748416
 30
0.0
  0
VERTEX
  5
39D
  8
LAYER_1
 10
167.6828439664642
 20
10.03947703747674
 30
0.0
  0
VERTEX
  5
39E
  8
LAYER_1
 10
167.6828439664642
 20
2.539477037476686
 30
0.0
  0
VERTEX
  5
39F
  8
LAYER_1
 10
130.8703439664638
 20
2.539477037476686
 30
0.0
  0
VERTEX
  5
3A0
  8
LAYER_1
 10
130.8703439664671
 20
3.35197703747663
 30
0.0
  0
VERTEX
  5
3A1
  8
LAYER_1
 10
131.6828439664712
 20
9.539477037475095
 30
0.0
  0
VERTEX
  5
3A2
  8
LAYER_1
 10
131.6863090754795
 20
9.561470394518924
 30
0.0
  0
VERTEX
  5
3A3
  8
LAYER_1
 10
131.690926572717
 20
9.583600342161823
 30
0.0
  0
VERTEX
  5
3A4
  8
LAYER_1
 10
131.6966596702705
 20
9.605812135169407
 30
0.0
  0
VERTEX
  5
3A5
  8
LAYER_1
 10
131.7034715802268
 20
9.628051028307297
 30
0.0
  0
VERTEX
  5
3A6
  8
LAYER_1
 10
131.7113255146723
 20
9.65026227634111
 30
0.0
  0
VERTEX
  5
3A7
  8
LAYER_1
 10
131.7201846856939
 20
9.672391134036467
 30
0.0
  0
VERTEX
  5
3A8
  8
LAYER_1
 10
131.7300123053783
 20
9.694382856158985
 30
0.0
  0
VERTEX
  5
3A9
  8
LAYER_1
 10
131.740771585812
 20
9.71618269747428
 30
0.0
  0
VERTEX
  5
3AA
  8
LAYER_1
 10
131.7524257390818
 20
9.737735912747977
 30
0.0
  0
VERTEX
  5
3AB
  8
LAYER_1
 10
131.7649379772744
 20
9.758987756745691
 30
0.0
  0
VERTEX
  5
3AC
  8
LAYER_1
 10
131.7782715124766
 20
9.779883484233043
 30
0.0
  0
VERTEX
  5
3AD
  8
LAYER_1
 10
131.7923895567748
 20
9.800368349975647
 30
0.0
  0
VERTEX
  5
3AE
  8
LAYER_1
 10
131.8072553222559
 20
9.820387608739125
 30
0.0
  0
VERTEX
  5
3AF
  8
LAYER_1
 10
131.8228320210065
 20
9.839886515289098
 30
0.0
  0
VERTEX
  5
3B0
  8
LAYER_1
 10
131.8390828651133
 20
9.858810324391182
 30
0.0
  0
VERTEX
  5
3B1
  8
LAYER_1
 10
131.855971066663
 20
9.877104290810994
 30
0.0
  0
VERTEX
  5
3B2
  8
LAYER_1
 10
131.8734598377424
 20
9.894713669314157
 30
0.0
  0
VERTEX
  5
3B3
  8
LAYER_1
 10
131.8915123904379
 20
9.911583714666286
 30
0.0
  0
VERTEX
  5
3B4
  8
LAYER_1
 10
131.9100919368365
 20
9.927659681633
 30
0.0
  0
VERTEX
  5
3B5
  8
LAYER_1
 10
131.9291616890247
 20
9.942886824979919
 30
0.0
  0
VERTEX
  5
3B6
  8
LAYER_1
 10
131.9486848590892
 20
9.957210399472661
 30
0.0
  0
VERTEX
  5
3B7
  8
LAYER_1
 10
131.9686246591168
 20
9.970575659876848
 30
0.0
  0
VERTEX
  5
3B8
  8
LAYER_1
 10
131.9889443011941
 20
9.982927860958096
 30
0.0
  0
VERTEX
  5
3B9
  8
LAYER_1
 10
132.0096069974077
 20
9.994212257482022
 30
0.0
  0
VERTEX
  5
3BA
  8
LAYER_1
 10
132.0305759598444
 20
10.00437410421425
 30
0.0
  0
VERTEX
  5
3BB
  8
LAYER_1
 10
132.0411637946735
 20
10.00901696352273
 30
0.0
  0
VERTEX
  5
3BC
  8
LAYER_1
 10
132.051814400591
 20
10.01335865592039
 30
0.0
  0
VERTEX
  5
3BD
  8
LAYER_1
 10
132.0625231791074
 20
10.01739233825294
 30
0.0
  0
VERTEX
  5
3BE
  8
LAYER_1
 10
132.0732855317339
 20
10.02111116736607
 30
0.0
  0
VERTEX
  5
3BF
  8
LAYER_1
 10
132.0840968599812
 20
10.02450830010549
 30
0.0
  0
VERTEX
  5
3C0
  8
LAYER_1
 10
132.09495256536
 20
10.0275768933169
 30
0.0
  0
VERTEX
  5
3C1
  8
LAYER_1
 10
132.1058480493813
 20
10.03031010384601
 30
0.0
  0
VERTEX
  5
3C2
  8
LAYER_1
 10
132.1167787135559
 20
10.03270108853851
 30
0.0
  0
VERTEX
  5
3C3
  8
LAYER_1
 10
132.1277399593947
 20
10.03474300424011
 30
0.0
  0
VERTEX
  5
3C4
  8
LAYER_1
 10
132.1387271884083
 20
10.03642900779651
 30
0.0
  0
VERTEX
  5
3C5
  8
LAYER_1
 10
132.1497358021078
 20
10.03775225605341
 30
0.0
  0
VERTEX
  5
3C6
  8
LAYER_1
 10
132.1607612020039
 20
10.03870590585652
 30
0.0
  0
VERTEX
  5
3C7
  8
LAYER_1
 10
132.1717987896075
 20
10.03928311405154
 30
0.0
  0
SEQEND
  5
4B3
  8
LAYER_1
  0
POLYLINE
  5
A9
  8
LAYER_1
 66
     1
 10
0.0
 20
0.0
 30
0.0
 70
     1
  0
VERTEX
  5
3C8
  8
LAYER_1
 10
132.8390939664642
 20
6.101977037476686
 30
0.0
 42
0.4142135623730951
  0
VERTEX
  5
3C9
  8
LAYER_1
 10
132.9953439664642
 20
5.945727037476686
 30
0.0
 42
0.4142135623730951
  0
VERTEX
  5
3CA
  8
LAYER_1
 10
133.1515939664642
 20
6.101977037476686
 30
0.0
 42
0.4142135623730951
  0
VERTEX
  5
3CB
  8
LAYER_1
 10
132.9953439664642
 20
6.258227037476686
 30
0.0
 42
0.4142135623730951
  0
SEQEND
  5
4B4
  8
LAYER_1
  0
POLYLINE
  5
AA
  8
LAYER_1
 66
     1
 10
0.0
 20
0.0
 30
0.0
 70
     1
  0
VERTEX
  5
3CC
  8
LAYER_1
 10
132.6515939664642
 20
8.851977037476686
 30
0.0
 42
0.4142135623730951
  0
VERTEX
  5
3CD
  8
LAYER_1
 10
132.8078439664642
 20
8.695727037476686
 30
0.0
 42
0.4142135623730951
  0
VERTEX
  5
3CE
  8
LAYER_1
 10
132.9640939664642
 20
8.851977037476686
 30
0.0
 42
0.4142135623730951
  0
VERTEX
  5
3CF
  8
LAYER_1
 10
132.8078439664642
 20
9.008227037476686
 30
0.0
 42
0.4142135623730951
  0
SEQEND
  5
4B5
  8
LAYER_1
  0
POLYLINE
  5
AB
  8
LAYER_1
 66
     1
 10
0.0
 20
0.0
 30
0.0
 70
     1
  0
VERTEX
  5
3D0
  8
LAYER_1
 10
169.7611053409729
 20
24.53593531534717
 30
0.0
  0
VERTEX
  5
3D1
  8
LAYER_1
 10
193.3236053409729
 20
24.53593531534717
 30
0.0
  0
VERTEX
  5
3D2
  8
LAYER_1
 10
193.3236053409729
 20
35.16093531534717
 30
0.0
  0
VERTEX
  5
3D3
  8
LAYER_1
 10
169.7611053409729
 20
35.16093531534717
 30
0.0
  0
SEQEND
  5
4B6
  8
LAYER_1
  0
POLYLINE
  5
AC
  8
LAYER_1
 66
     1
 10
0.0
 20
0.0
 30
0.0
 70
     1
  0
VERTEX
  5
3D4
  8
LAYER_1
 10
168.8089653883074
 20
47.37908191079961
 30
0.0
  0
VERTEX
  5
3D5
  8
LAYER_1
 10
192.3714653883074
 20
47.37908191079961
 30
0.0
  0
VERTEX
  5
3D6
  8
LAYER_1
 10
192.3714653883074
 20
48.50408191079961
 30
0.0
  0
VERTEX
  5
3D7
  8
LAYER_1
 10
168.8089653883074
 20
48.50408191079961
 30
0.0
  0
SEQEND
  5
4B7
  8
LAYER_1
  0
POLYLINE
  5
AD
  8
LAYER_1
 66
     1
 10
0.0
 20
0.0
 30
0.0
 70
     1
  0
VERTEX
  5
3D8
  8
LAYER_1
 10
98.40717811260645
 20
26.71477373478128
 30
0.0
  0
VERTEX
  5
3D9
  8
LAYER_1
 10
121.9071781126064
 20
26.71477373478128
 30
0.0
  0
VERTEX
  5
3DA
  8
LAYER_1
 10
121.9071781126064
 20
37.90227373478128
 30
0.0
  0
VERTEX
  5
3DB
  8
LAYER_1
 10
98.40717811260645
 20
37.90227373478128
 30
0.0
  0
SEQEND
  5
4B8
  8
LAYER_1
  0
POLYLINE
  5
AE
  8
LAYER_1
 66
     1
 10
0.0
 20
0.0
 30
0.0
 70
     1
  0
VERTEX
  5
3DC
  8
LAYER_1
 10
108.1571781126064
 20
27.90227373478128
 30
0.0
  0
VERTEX
  5
3DD
  8
LAYER_1
 10
112.1571781126064
 20
27.90227373478128
 30
0.0
  0
VERTEX
  5
3DE
  8
LAYER_1
 10
112.1571781126064
 20
28.90227373478128
 30
0.0
  0
VERTEX
  5
3DF
  8
LAYER_1
 10
108.1571781126064
 20
28.90227373478128
 30
0.0
  0
SEQEND
  5
4B9
  8
LAYER_1
  0
POLYLINE
  5
AF
  8
LAYER_1
 66
     1
 10
0.0
 20
0.0
 30
0.0
 70
     1
  0
VERTEX
  5
3E0
  8
LAYER_1
 10
108.2196781126064
 20
33.33977373478128
 30
0.0
  0
VERTEX
  5
3E1
  8
LAYER_1
 10
112.0946781126064
 20
33.33977373478128
 30
0.0
  0
VERTEX
  5
3E2
  8
LAYER_1
 10
112.0946781126064
 20
36.83977373478128
 30
0.0
  0
VERTEX
  5
3E3
  8
LAYER_1
 10
108.2196781126064
 20
36.83977373478128
 30
0.0
  0
SEQEND
  5
4BA
  8
LAYER_1
  0
POLYLINE
  5
B0
  8
LAYER_1
 66
     1
 10
0.0
 20
0.0
 30
0.0
 70
     1
  0
VERTEX
  5
3E4
  8
LAYER_1
 10
108.0946781126064
 20
33.15277373478128
 30
0.0
 42
0.4142135623730951
  0
VERTEX
  5
3E5
  8
LAYER_1
 10
107.9691781126064
 20
33.02727373478128
 30
0.0
 42
0.4142135623730951
  0
VERTEX
  5
3E6
  8
LAYER_1
 10
108.0946781126064
 20
32.90177373478127
 30
0.0
 42
0.4142135623730951
  0
VERTEX
  5
3E7
  8
LAYER_1
 10
108.2201781126064
 20
33.02727373478128
 30
0.0
 42
0.4142135623730951
  0
SEQEND
  5
4BB
  8
LAYER_1
  0
POLYLINE
  5
B1
  8
LAYER_1
 66
     1
 10
0.0
 20
0.0
 30
0.0
 70
     1
  0
VERTEX
  5
3E8
  8
LAYER_1
 10
112.2196781126064
 20
33.15277373478128
 30
0.0
 42
0.4142135623730951
  0
VERTEX
  5
3E9
  8
LAYER_1
 10
112.0941781126064
 20
33.02727373478128
 30
0.0
 42
0.4142135623730951
  0
VERTEX
  5
3EA
  8
LAYER_1
 10
112.2196781126064
 20
32.90177373478127
 30
0.0
 42
0.4142135623730951
  0
VERTEX
  5
3EB
  8
LAYER_1
 10
112.3451781126064
 20
33.02727373478128
 30
0.0
 42
0.4142135623730951
  0
SEQEND
  5
4BC
  8
LAYER_1
  0
POLYLINE
  5
B2
  8
LAYER_1
 66
     1
 10
0.0
 20
0.0
 30
0.0
 70
     1
  0
VERTEX
  5
3EC
  8
LAYER_1
 10
112.2196781126064
 20
37.27777373478128
 30
0.0
 42
0.4142135623730951
  0
VERTEX
  5
3ED
  8
LAYER_1
 10
112.0941781126064
 20
37.15227373478128
 30
0.0
 42
0.4142135623730951
  0
VERTEX
  5
3EE
  8
LAYER_1
 10
112.2196781126064
 20
37.02677373478127
 30
0.0
 42
0.4142135623730951
  0
VERTEX
  5
3EF
  8
LAYER_1
 10
112.3451781126064
 20
37.15227373478128
 30
0.0
 42
0.4142135623730951
  0
SEQEND
  5
4BD
  8
LAYER_1
  0
POLYLINE
  5
B3
  8
LAYER_1
 66
     1
 10
0.0
 20
0.0
 30
0.0
 70
     1
  0
VERTEX
  5
3F0
  8
LAYER_1
 10
108.0946781126064
 20
37.27777373478128
 30
0.0
 42
0.4142135623730951
  0
VERTEX
  5
3F1
  8
LAYER_1
 10
107.9691781126064
 20
37.15227373478128
 30
0.0
 42
0.4142135623730951
  0
VERTEX
  5
3F2
  8
LAYER_1
 10
108.0946781126064
 20
37.02677373478127
 30
0.0
 42
0.4142135623730951
  0
VERTEX
  5
3F3
  8
LAYER_1
 10
108.2201781126064
 20
37.15227373478128
 30
0.0
 42
0.4142135623730951
  0
SEQEND
  5
4BE
  8
LAYER_1
  0
POLYLINE
  5
B4
  8
LAYER_1
 66
     1
 10
0.0
 20
0.0
 30
0.0
 70
     1
  0
VERTEX
  5
3F4
  8
LAYER_1
 10
148.582696944135
 20
48.71318938148454
 30
0.0
  0
VERTEX
  5
3F5
  8
LAYER_1
 10
125.020196944135
 20
48.71318938148454
 30
0.0
  0
VERTEX
  5
3F6
  8
LAYER_1
 10
125.020196944135
 20
43.71318938148454
 30
0.0
  0
VERTEX
  5
3F7
  8
LAYER_1
 10
148.582696944135
 20
43.71318938148454
 30
0.0
  0
SEQEND
  5
4BF
  8
LAYER_1
  0
POLYLINE
  5
B5
  8
LAYER_1
 66
     1
 10
0.0
 20
0.0
 30
0.0
 70
     1
  0
VERTEX
  5
3F8
  8
LAYER_1
 10
127.082696944135
 20
45.02568938148454
 30
0.0
 42
0.4142135623730951
  0
VERTEX
  5
3F9
  8
LAYER_1
 10
127.270196944135
 20
45.21318938148454
 30
0.0
 42
0.4142135623730951
  0
VERTEX
  5
3FA
  8
LAYER_1
 10
127.082696944135
 20
45.40068938148454
 30
0.0
 42
0.4142135623730951
  0
VERTEX
  5
3FB
  8
LAYER_1
 10
126.895196944135
 20
45.21318938148454
 30
0.0
 42
0.4142135623730951
  0
SEQEND
  5
4C0
  8
LAYER_1
  0
POLYLINE
  5
B6
  8
LAYER_1
 66
     1
 10
0.0
 20
0.0
 30
0.0
 70
     1
  0
VERTEX
  5
3FC
  8
LAYER_1
 10
148.7388767058272
 20
41.81900758282414
 30
0.0
  0
VERTEX
  5
3FD
  8
LAYER_1
 10
125.1763767058272
 20
41.81900758282414
 30
0.0
  0
VERTEX
  5
3FE
  8
LAYER_1
 10
125.1763767058272
 20
27.56900758282414
 30
0.0
  0
VERTEX
  5
3FF
  8
LAYER_1
 10
148.7388767058272
 20
27.56900758282414
 30
0.0
  0
SEQEND
  5
4C1
  8
LAYER_1
  0
POLYLINE
  5
B7
  8
LAYER_1
 66
     1
 10
0.0
 20
0.0
 30
0.0
 70
     1
  0
VERTEX
  5
400
  8
LAYER_1
 10
143.7388767058272
 20
33.03775758282414
 30
0.0
 42
0.4142135623730951
  0
VERTEX
  5
401
  8
LAYER_1
 10
146.0201267058272
 20
35.31900758282414
 30
0.0
 42
0.4142135623730951
  0
VERTEX
  5
402
  8
LAYER_1
 10
143.7388767058272
 20
37.60025758282414
 30
0.0
 42
0.4142135623730951
  0
VERTEX
  5
403
  8
LAYER_1
 10
141.4576267058272
 20
35.31900758282414
 30
0.0
 42
0.4142135623730951
  0
SEQEND
  5
4C2
  8
LAYER_1
  0
POLYLINE
  5
B8
  8
LAYER_1
 66
     1
 10
0.0
 20
0.0
 30
0.0
 70
     1
  0
VERTEX
  5
404
  8
LAYER_1
 10
130.1138767058272
 20
33.03775758282414
 30
0.0
 42
0.4142135623730951
  0
VERTEX
  5
405
  8
LAYER_1
 10
132.3951267058272
 20
35.31900758282414
 30
0.0
 42
0.4142135623730951
  0
VERTEX
  5
406
  8
LAYER_1
 10
130.1138767058272
 20
37.60025758282414
 30
0.0
 42
0.4142135623730951
  0
VERTEX
  5
407
  8
LAYER_1
 10
127.8326267058272
 20
35.31900758282414
 30
0.0
 42
0.4142135623730951
  0
SEQEND
  5
4C3
  8
LAYER_1
  0
POLYLINE
  5
B9
  8
LAYER_1
 66
     1
 10
0.0
 20
0.0
 30
0.0
 70
     1
  0
VERTEX
  5
408
  8
LAYER_1
 10
132.8638767058272
 20
37.94350758282418
 30
0.0
 42
0.4142135623730951
  0
VERTEX
  5
409
  8
LAYER_1
 10
132.9893767058272
 20
38.06900758282417
 30
0.0
 42
0.4142135623730951
  0
VERTEX
  5
40A
  8
LAYER_1
 10
132.8638767058272
 20
38.19450758282419
 30
0.0
 42
0.4142135623730951
  0
VERTEX
  5
40B
  8
LAYER_1
 10
132.7383767058272
 20
38.06900758282417
 30
0.0
 42
0.4142135623730951
  0
SEQEND
  5
4C4
  8
LAYER_1
  0
POLYLINE
  5
BA
  8
LAYER_1
 66
     1
 10
0.0
 20
0.0
 30
0.0
 70
     1
  0
VERTEX
  5
40C
  8
LAYER_1
 10
127.3638767058272
 20
37.94350758282418
 30
0.0
 42
0.4142135623730951
  0
VERTEX
  5
40D
  8
LAYER_1
 10
127.4893767058272
 20
38.06900758282417
 30
0.0
 42
0.4142135623730951
  0
VERTEX
  5
40E
  8
LAYER_1
 10
127.3638767058272
 20
38.19450758282419
 30
0.0
 42
0.4142135623730951
  0
VERTEX
  5
40F
  8
LAYER_1
 10
127.2383767058272
 20
38.06900758282417
 30
0.0
 42
0.4142135623730951
  0
SEQEND
  5
4C5
  8
LAYER_1
  0
POLYLINE
  5
BB
  8
LAYER_1
 66
     1
 10
0.0
 20
0.0
 30
0.0
 70
     1
  0
VERTEX
  5
410
  8
LAYER_1
 10
132.8638767058272
 20
32.44350758282418
 30
0.0
 42
0.4142135623730951
  0
VERTEX
  5
411
  8
LAYER_1
 10
132.9893767058272
 20
32.56900758282417
 30
0.0
 42
0.4142135623730951
  0
VERTEX
  5
412
  8
LAYER_1
 10
132.8638767058272
 20
32.69450758282419
 30
0.0
 42
0.4142135623730951
  0
VERTEX
  5
413
  8
LAYER_1
 10
132.7383767058272
 20
32.56900758282417
 30
0.0
 42
0.4142135623730951
  0
SEQEND
  5
4C6
  8
LAYER_1
  0
POLYLINE
  5
BC
  8
LAYER_1
 66
     1
 10
0.0
 20
0.0
 30
0.0
 70
     1
  0
VERTEX
  5
414
  8
LAYER_1
 10
127.3638767058272
 20
32.44350758282418
 30
0.0
 42
0.4142135623730951
  0
VERTEX
  5
415
  8
LAYER_1
 10
127.4893767058272
 20
32.56900758282417
 30
0.0
 42
0.4142135623730951
  0
VERTEX
  5
416
  8
LAYER_1
 10
127.3638767058272
 20
32.69450758282419
 30
0.0
 42
0.4142135623730951
  0
VERTEX
  5
417
  8
LAYER_1
 10
127.2383767058272
 20
32.56900758282417
 30
0.0
 42
0.4142135623730951
  0
SEQEND
  5
4C7
  8
LAYER_1
  0
POLYLINE
  5
BD
  8
LAYER_1
 66
     1
 10
0.0
 20
0.0
 30
0.0
 70
     1
  0
VERTEX
  5
418
  8
LAYER_1
 10
140.9888767058272
 20
37.94350758282415
 30
0.0
 42
0.4142135623730951
  0
VERTEX
  5
419
  8
LAYER_1
 10
141.1143767058272
 20
38.06900758282414
 30
0.0
 42
0.4142135623730951
  0
VERTEX
  5
41A
  8
LAYER_1
 10
140.9888767058272
 20
38.19450758282413
 30
0.0
 42
0.4142135623730951
  0
VERTEX
  5
41B
  8
LAYER_1
 10
140.8633767058272
 20
38.06900758282414
 30
0.0
 42
0.4142135623730951
  0
SEQEND
  5
4C8
  8
LAYER_1
  0
POLYLINE
  5
BE
  8
LAYER_1
 66
     1
 10
0.0
 20
0.0
 30
0.0
 70
     1
  0
VERTEX
  5
41C
  8
LAYER_1
 10
140.9888767058272
 20
32.44350758282415
 30
0.0
 42
0.4142135623730951
  0
VERTEX
  5
41D
  8
LAYER_1
 10
141.1143767058272
 20
32.56900758282414
 30
0.0
 42
0.4142135623730951
  0
VERTEX
  5
41E
  8
LAYER_1
 10
140.9888767058272
 20
32.69450758282416
 30
0.0
 42
0.4142135623730951
  0
VERTEX
  5
41F
  8
LAYER_1
 10
140.8633767058272
 20
32.56900758282414
 30
0.0
 42
0.4142135623730951
  0
SEQEND
  5
4C9
  8
LAYER_1
  0
POLYLINE
  5
BF
  8
LAYER_1
 66
     1
 10
0.0
 20
0.0
 30
0.0
 70
     1
  0
VERTEX
  5
420
  8
LAYER_1
 10
193.1627047561211
 20
22.27828326354053
 30
0.0
  0
VERTEX
  5
421
  8
LAYER_1
 10
169.6002047561211
 20
22.27828326354053
 30
0.0
  0
VERTEX
  5
422
  8
LAYER_1
 10
169.6002047561211
 20
8.77828326354053
 30
0.0
  0
VERTEX
  5
423
  8
LAYER_1
 10
193.1627047561211
 20
8.77828326354053
 30
0.0
  0
SEQEND
  5
4CA
  8
LAYER_1
  0
POLYLINE
  5
C0
  8
LAYER_1
 66
     1
 10
0.0
 20
0.0
 30
0.0
 70
     1
  0
VERTEX
  5
424
  8
LAYER_1
 10
187.8502047561211
 20
16.02828326354053
 30
0.0
 42
0.4142135623730951
  0
VERTEX
  5
425
  8
LAYER_1
 10
188.8502047561211
 20
17.02828326354053
 30
0.0
 42
0.4142135623730951
  0
VERTEX
  5
426
  8
LAYER_1
 10
187.8502047561211
 20
18.02828326354053
 30
0.0
 42
0.4142135623730951
  0
VERTEX
  5
427
  8
LAYER_1
 10
186.8502047561211
 20
17.02828326354053
 30
0.0
 42
0.4142135623730951
  0
SEQEND
  5
4CB
  8
LAYER_1
  0
POLYLINE
  5
C1
  8
LAYER_1
 66
     1
 10
0.0
 20
0.0
 30
0.0
 70
     1
  0
VERTEX
  5
428
  8
LAYER_1
 10
131.9314205696746
 20
12.84269178699739
 30
0.0
  0
VERTEX
  5
429
  8
LAYER_1
 10
167.4314205697095
 20
12.84269178700481
 30
0.0
  0
VERTEX
  5
42A
  8
LAYER_1
 10
167.4314205697095
 20
20.34269178700487
 30
0.0
  0
VERTEX
  5
42B
  8
LAYER_1
 10
130.618920569709
 20
20.34269178700487
 30
0.0
  0
VERTEX
  5
42C
  8
LAYER_1
 10
130.6189205697123
 20
19.53019178700492
 30
0.0
  0
VERTEX
  5
42D
  8
LAYER_1
 10
131.4314205697164
 20
13.34269178700646
 30
0.0
  0
VERTEX
  5
42E
  8
LAYER_1
 10
131.4348856787247
 20
13.32069842996263
 30
0.0
  0
VERTEX
  5
42F
  8
LAYER_1
 10
131.4395031759622
 20
13.29856848231973
 30
0.0
  0
VERTEX
  5
430
  8
LAYER_1
 10
131.4452362735158
 20
13.27635668931215
 30
0.0
  0
VERTEX
  5
431
  8
LAYER_1
 10
131.452048183472
 20
13.25411779617426
 30
0.0
  0
VERTEX
  5
432
  8
LAYER_1
 10
131.4599021179175
 20
13.23190654814044
 30
0.0
  0
VERTEX
  5
433
  8
LAYER_1
 10
131.4687612889391
 20
13.20977769044509
 30
0.0
  0
VERTEX
  5
434
  8
LAYER_1
 10
131.4785889086234
 20
13.18778596832257
 30
0.0
  0
VERTEX
  5
435
  8
LAYER_1
 10
131.4893481890572
 20
13.16598612700727
 30
0.0
  0
VERTEX
  5
436
  8
LAYER_1
 10
131.501002342327
 20
13.14443291173358
 30
0.0
  0
VERTEX
  5
437
  8
LAYER_1
 10
131.5135145805197
 20
13.12318106773586
 30
0.0
  0
VERTEX
  5
438
  8
LAYER_1
 10
131.5268481157217
 20
13.10228534024851
 30
0.0
  0
VERTEX
  5
439
  8
LAYER_1
 10
131.54096616002
 20
13.08180047450591
 30
0.0
  0
VERTEX
  5
43A
  8
LAYER_1
 10
131.5558319255011
 20
13.06178121574243
 30
0.0
  0
VERTEX
  5
43B
  8
LAYER_1
 10
131.5714086242517
 20
13.04228230919245
 30
0.0
  0
VERTEX
  5
43C
  8
LAYER_1
 10
131.5876594683585
 20
13.02335850009037
 30
0.0
  0
VERTEX
  5
43D
  8
LAYER_1
 10
131.6045476699082
 20
13.00506453367056
 30
0.0
  0
VERTEX
  5
43E
  8
LAYER_1
 10
131.6220364409876
 20
12.9874551551674
 30
0.0
  0
VERTEX
  5
43F
  8
LAYER_1
 10
131.6400889936832
 20
12.97058510981527
 30
0.0
  0
VERTEX
  5
440
  8
LAYER_1
 10
131.6586685400817
 20
12.95450914284855
 30
0.0
  0
VERTEX
  5
441
  8
LAYER_1
 10
131.6777382922699
 20
12.93928199950163
 30
0.0
  0
VERTEX
  5
442
  8
LAYER_1
 10
131.6972614623344
 20
12.92495842500889
 30
0.0
  0
VERTEX
  5
443
  8
LAYER_1
 10
131.717201262362
 20
12.9115931646047
 30
0.0
  0
VERTEX
  5
444
  8
LAYER_1
 10
131.7375209044393
 20
12.89924096352346
 30
0.0
  0
VERTEX
  5
445
  8
LAYER_1
 10
131.7581836006529
 20
12.88795656699953
 30
0.0
  0
VERTEX
  5
446
  8
LAYER_1
 10
131.7791525630897
 20
12.87779472026731
 30
0.0
  0
VERTEX
  5
447
  8
LAYER_1
 10
131.7897403979188
 20
12.87315186095882
 30
0.0
  0
VERTEX
  5
448
  8
LAYER_1
 10
131.8003910038361
 20
12.86881016856116
 30
0.0
  0
VERTEX
  5
449
  8
LAYER_1
 10
131.8110997823526
 20
12.86477648622861
 30
0.0
  0
VERTEX
  5
44A
  8
LAYER_1
 10
131.8218621349791
 20
12.86105765711548
 30
0.0
  0
VERTEX
  5
44B
  8
LAYER_1
 10
131.8326734632263
 20
12.85766052437606
 30
0.0
  0
VERTEX
  5
44C
  8
LAYER_1
 10
131.8435291686052
 20
12.85459193116465
 30
0.0
  0
VERTEX
  5
44D
  8
LAYER_1
 10
131.8544246526265
 20
12.85185872063554
 30
0.0
  0
VERTEX
  5
44E
  8
LAYER_1
 10
131.8653553168011
 20
12.84946773594304
 30
0.0
  0
VERTEX
  5
44F
  8
LAYER_1
 10
131.8763165626398
 20
12.84742582024144
 30
0.0
  0
VERTEX
  5
450
  8
LAYER_1
 10
131.8873037916535
 20
12.84573981668504
 30
0.0
  0
VERTEX
  5
451
  8
LAYER_1
 10
131.898312405353
 20
12.84441656842814
 30
0.0
  0
VERTEX
  5
452
  8
LAYER_1
 10
131.9093378052492
 20
12.84346291862503
 30
0.0
  0
VERTEX
  5
453
  8
LAYER_1
 10
131.9203753928527
 20
12.84288571043002
 30
0.0
  0
SEQEND
  5
4CC
  8
LAYER_1
  0
POLYLINE
  5
C2
  8
LAYER_1
 66
     1
 10
0.0
 20
0.0
 30
0.0
 70
     1
  0
VERTEX
  5
454
  8
LAYER_1
 10
132.5876705697095
 20
16.78019178700487
 30
0.0
 42
-0.4142135623730951
  0
VERTEX
  5
455
  8
LAYER_1
 10
132.7439205697095
 20
16.93644178700487
 30
0.0
 42
-0.4142135623730951
  0
VERTEX
  5
456
  8
LAYER_1
 10
132.9001705697095
 20
16.78019178700487
 30
0.0
 42
-0.4142135623730951
  0
VERTEX
  5
457
  8
LAYER_1
 10
132.7439205697095
 20
16.62394178700487
 30
0.0
 42
-0.4142135623730951
  0
SEQEND
  5
4CD
  8
LAYER_1
  0
POLYLINE
  5
C3
  8
LAYER_1
 66
     1
 10
0.0
 20
0.0
 30
0.0
 70
     1
  0
VERTEX
  5
458
  8
LAYER_1
 10
132.4001705697095
 20
14.03019178700487
 30
0.0
 42
-0.4142135623730951
  0
VERTEX
  5
459
  8
LAYER_1
 10
132.5564205697095
 20
14.18644178700487
 30
0.0
 42
-0.4142135623730951
  0
VERTEX
  5
45A
  8
LAYER_1
 10
132.7126705697095
 20
14.03019178700487
 30
0.0
 42
-0.4142135623730951
  0
VERTEX
  5
45B
  8
LAYER_1
 10
132.5564205697095
 20
13.87394178700487
 30
0.0
 42
-0.4142135623730951
  0
SEQEND
  5
4CE
  8
LAYER_1
  0
POLYLINE
  5
C4
  8
LAYER_1
 66
     1
 10
0.0
 20
0.0
 30
0.0
 70
     1
  0
VERTEX
  5
45C
  8
LAYER_1
 10
116.7271830711233
 20
39.79244113074328
 30
0.0
  0
VERTEX
  5
45D
  8
LAYER_1
 10
98.54688498401144
 20
39.79244113074328
 30
0.0
  0
VERTEX
  5
45E
  8
LAYER_1
 10
98.54688498401144
 20
47.94864113074326
 30
0.0
  0
VERTEX
  5
45F
  8
LAYER_1
 10
122.1093849840114
 20
47.94864113074326
 30
0.0
  0
VERTEX
  5
460
  8
LAYER_1
 10
122.1093849840114
 20
39.79244113074328
 30
0.0
  0
VERTEX
  5
461
  8
LAYER_1
 10
118.1534435877629
 20
39.79244113074328
 30
0.0
  0
VERTEX
  5
462
  8
LAYER_1
 10
117.8593849840114
 20
39.79244113074328
 30
0.0
  0
VERTEX
  5
463
  8
LAYER_1
 10
117.8593849840114
 20
40.51014113074326
 30
0.0
  0
VERTEX
  5
464
  8
LAYER_1
 10
117.1093849840114
 20
40.51014113074326
 30
0.0
  0
VERTEX
  5
465
  8
LAYER_1
 10
117.1093849840114
 20
39.79244113074328
 30
0.0
  0
SEQEND
  5
4CF
  8
LAYER_1
  0
POLYLINE
  5
C5
  8
LAYER_1
 66
     1
 10
0.0
 20
0.0
 30
0.0
 70
     1
  0
VERTEX
  5
466
  8
LAYER_1
 10
192.3714653883074
 20
44.91906728950561
 30
0.0
  0
VERTEX
  5
467
  8
LAYER_1
 10
168.8089653883074
 20
44.91906728950561
 30
0.0
  0
VERTEX
  5
468
  8
LAYER_1
 10
168.8089653883074
 20
42.91906728950561
 30
0.0
  0
VERTEX
  5
469
  8
LAYER_1
 10
192.3714653883074
 20
42.91906728950561
 30
0.0
  0
SEQEND
  5
4D0
  8
LAYER_1
  0
POLYLINE
  5
C6
  8
LAYER_1
 66
     1
 10
0.0
 20
0.0
 30
0.0
 70
     1
  0
VERTEX
  5
46A
  8
LAYER_1
 10
205.7157368270185
 20
37.82576802259362
 30
0.0
  0
VERTEX
  5
46B
  8
LAYER_1
 10
205.7157368270185
 20
40.53576802259362
 30
0.0
  0
VERTEX
  5
46C
  8
LAYER_1
 10
169.0157368270185
 20
40.53576802259362
 30
0.0
  0
VERTEX
  5
46D
  8
LAYER_1
 10
169.0157368270185
 20
37.82576802259362
 30
0.0
  0
SEQEND
  5
4D1
  8
LAYER_1
  0
POLYLINE
  5
C7
  8
LAYER_1
 66
     1
 10
0.0
 20
0.0
 30
0.0
 70
     1
  0
VERTEX
  5
46E
  8
LAYER_1
 10
167.8034375794882
 20
22.89875380641845
 30
0.0
  0
VERTEX
  5
46F
  8
LAYER_1
 10
167.8034375794882
 20
25.60875380641846
 30
0.0
  0
VERTEX
  5
470
  8
LAYER_1
 10
131.1034375794882
 20
25.60875380641846
 30
0.0
  0
VERTEX
  5
471
  8
LAYER_1
 10
131.1034375794882
 20
22.89875380641845
 30
0.0
  0
SEQEND
  5
4D2
  8
LAYER_1
  0
POLYLINE
  5
C8
  8
LAYER_1
 66
     1
 10
0.0
 20
0.0
 30
0.0
 70
     1
  0
VERTEX
  5
472
  8
LAYER_1
 10
127.5504335253051
 20
22.46800788843885
 30
0.0
  0
VERTEX
  5
473
  8
LAYER_1
 10
127.5504335253051
 20
3.968007888438848
 30
0.0
  0
VERTEX
  5
474
  8
LAYER_1
 10
120.8004335253051
 20
1.436762009901322
 30
0.0
  0
VERTEX
  5
475
  8
LAYER_1
 10
119.9926612522931
 20
1.436762009901322
 30
0.0
  0
VERTEX
  5
476
  8
LAYER_1
 10
98.36293352530505
 20
1.436762009901322
 30
0.0
  0
VERTEX
  5
477
  8
LAYER_1
 10
98.36293352530505
 20
24.99926200990132
 30
0.0
  0
VERTEX
  5
478
  8
LAYER_1
 10
120.8004319961731
 20
24.99926741899695
 30
0.0
  0
SEQEND
  5
4D3
  8
LAYER_1
  0
ENDSEC
  0
EOF
